Oops, an error
Loading. Please wait.

The Victim Bass Tab

ver1
ver1

Whole song

Interactive

More versions @911Tabs.com
1,786 views 3 this week
no commentswrite comment
1 2 3 4 5
please rate
Autoscroll
+/-
esc
set tempo
stop
Contributor
Difficulty
Tuning
intermediate
C# G# C# F# A# D#
Hey! There's an official Ultimate Guitar app which is ideal
for learning songs when you're away from computer. Get the app
WARNING: You are trying to view
                                    content from Ultimate-Guitar.com
                                    in an unauthorized application,
                                    which is prohibited.

                                    Please use an official Ultimate
                                    Guitar Tabs application for iPhone,
                                    iPad or Android to access legitimate
                                    chords, guitar, bass, and drum tabs
                                    from Ultimate-Guitar.com database.

                                    Type "ultimate guitar tabs" in Apple
                                    App Store's or Android Market's
                                    search to find the application.
Title: The Victim
Artist: Memphis May Fire
Album: The Hollow
Words: Memphis May Fire
Music: Memphis May Fire
Copyright: Memphis May Fire


Legend
L - tied note
x - dead note
h - hammer on/pull off
b - bend
s - slide
~ - vibrato
g - ghost note
> - accentuated note
t - trill
M - palm mute
. - staccato
P - popping (bass)
S - slapping (bass)
+ - tapping
W - wide vibrato
< - fade in
w - whammy bar
= - tremolo picking
v - brush up
^ - brush down
V - pick stroke up
n - pick stroke down


F#|----------------|----------------|----------------|----------------|
C#|----------------|----------------|----------------|----------------|
G#|----------------|----------------|----------------|----------------|
C#|----------------|----------------|----------------|----------------|


----------------|----------------|----------------|
----------------|----------------|----------------|
----------------|----------------|----------------|
----------------|----------------|----------------|


----------------------------------------------------------------------------|
----------------------------------------------------------------------------|
----------------------------------------------------------------------------|
--------------------------------------12s---11s10s9s-8s-7s-6s-5s-4s-3s-2----|


----------------------------------------------------|
----------------------------------------------------|
--------------------3h-5--5-------------------------|
--0-----0--0--0-----------------5-----4L------------|


----------------------------|
----------------------------|
--------------3-------------|
--4--3-----5-----1----------|


----------------------------------------------------|
----------------------------------------------------|
--------------------3h-5--5-------------------------|
--0-----0--0--0-----------------5-----4L------------|


----------------------------|
----------------------------|
-----1-----3----------------|
--4-----------5--1----------|


----------------------------------------------------|
----------------------------------------------------|
--------------------3h-5--5-------------------------|
--0-----0--0--0-----------------5-----4L------------|


----------------------------------------------------|
----------------------------------------------------|
--------2-----------3-----3-----3--3--3-------------|
--4-------------------------------------------------|


----------------------------------------------------|
----------------------------------------------------|
--------------------3h-5--5-------------------------|
--0-----0--0--0-----------------5-----4L------------|


----------------------------|
----------------------------|
--------------3-------------|
--4--3-----5-----1----------|


----------------------------------------------------|
----------------------------------------------------|
----------------------------------------------------|
--0--------0.-------------------------0.------------|


----------------------------------------------------|
----------------------------------------------------|
----------------------------------------------------|
--------0--0--0.----------0.----------3-------------|


----------------------------------------------------|
----------------------------------------------------|
----------------------------------------------------|
--5--------5--------3.------------------------------|


----------------------------------------------------|
----------------------------------------------------|
----------------------------------------------------|
--5--------5----------------------------------------|


----------------------------------------------------|
----------------------------------------------------|
----------------------------------------------------|
--0--------0.-------------------------0.------------|


----------------------------------------------------|
----------------------------------------------------|
----------------------------------------------------|
--------0--0--0.----------0.----------3-------------|


----------------------------------------------------|
----------------------------------------------------|
----------------------------------------------------|
--5--------5----------------------------------------|


----------------------------------------------------|
----------------------------------------------------|
----------------------------------------------------|
--5--------5----------------------------------------|


----------------------------|----------------------------|
----------------------------|--------------3-----3h-5----|
--3--3--3--3--3--5--1--1----|--1--1--1--1-----5----------|
----------------------------|----------------------------|


----------------------------|----------------------------|
----------------------------|----------------------------|
----------------------------|----------------------------|
--5--5--5--5--5--8--3--3----|--3--3--3--3--3--5--3--0----|


----------------------------|----------------------------|
----------------------------|----------------------------|
--------------------1--1----|--1--1--1--1--1--1--1--1----|
--1--1--1--1--1--1----------|----------------------------|


----------------------------|----------------------------|
----------------------------|----------------------------|
--0--0--0--0--0--0--0--0----|----------------------------|
----------------------------|--4--4--4--4--4-------------|


----------------------------------------------------|
----------------------------------------------------|
----------------------------------------------------|
--0.----------0-----0-----0--0--0-----------0-------|


----------------------------------------------------|
----------------------------------------------------|
----------------------------------------------------|
--------0--0--0--0--0.----0--0.----0.----0--0.------|


----------------------------|
----------------------------|
----------------------------|
--0.----0.----12-0-----0----|


----------------------------------------------------|
----------------------------------------------------|
----------------------------------------------------|
--0-----------0--0--0-----3--3--3--3--3--3--3-------|


----------------------------------------------------|
----------------------------------------------------|
----------------------------------------------------|
--5--5-----5--5--5-----5--5--5-----5--5-----5-------|


----------------------------------------------------|
----------------------------------------------------|
----------------------------------------------------|
--1--1-----1--1--1-----1--1--1-----1--1-----1-------|


----------------------------|
----------------------------|
----------------------------|
--0.----0.----0--0-----0----|


----------------------------------------------------|
----------------------------------------------------|
----------------------------------------------------|
--0-----------0-----------0--0--0--0-----0--0-------|


----------------------------------------------------|
----------------------------------------------------|
----------------------------------------------------|
--------0.----------0-----0.----------0--0----------|


----------------------------------------------------|
----------------------------------------------------|
----------------------------------------------------|
--0--0--0--0--------------0-------------------------|


----------------------------------------------------|
----------------------------------------------------|
----------------------------------------------------|
--5--5-----5--5--5-----5--5--5-----5--5-----5-------|


----------------------------------------------------|
----------------------------------------------------|
----------------------------------------------------|
--1--1-----1--1--1-----1--1-----1-----1.------------|


----------------------------------------------------|----------|
----------------------------------------------------|----------|
----------------------------------------------------|----------|
--1--------1--------1.------------------------------|-----3----|


----------------------------------------------------|----------|
----------------------------------------------------|----------|
----------------------------------------------------|----------|
--5--------5--------5.------------------------------|-----3----|


----------------------------------------------------|----------|
----------------------------------------------------|----------|
----------------------------------------------------|----------|
--1--------1--------1.------------------------------|-----3----|


----------------------------------------------------|----------|
----------------------------------------------------|----------|
----------------------------------------------------|----------|
--5--------5--------5.------------------------------|-----3----|


----------------------------------------------------|
----------------------------------------------------|
----------------------------------------------------|
--7--7--7--7.----7--7--7--7--7--7--7.----7--8--5----|


----------------------------------------------------|----------------|
----------------------------------------------------|----------------|
----------------------------------------------------|--5-------------|
--7--7--7--7.----7--7--7----------------------------|-----5--4L------|


----------------------------|
----------------------------|
--------------3-------------|
--4--3-----5-----1----------|


----------------------------------------------------|
----------------------------------------------------|
--------------------3h-5--5-------------------------|
--0-----0--0--0-----------------5-----4L------------|


----------------------------|
----------------------------|
-----1-----3----------------|
--4-----------5--1----------|


----------------------------------------------------|
----------------------------------------------------|
----------------------------------------------------|
--0--------0.-------------------------0.------------|


----------------------------------------------------|
----------------------------------------------------|
----------------------------------------------------|
--------0--0--0.----------0.----------3-------------|


----------------------------------------------------|
----------------------------------------------------|
----------------------------------------------------|
--5--------5----------------------------------------|


----------------------------------------------------|
----------------------------------------------------|
----------------------------------------------------|
--5--------5----------------------------------------|


----------------------------------------------------|
----------------------------------------------------|
----------------------------------------------------|
--0--------0.-------------------------0.------------|


----------------------------------------------------|
----------------------------------------------------|
----------------------------------------------------|
--------7s-------8----------------------------------|


----------------------------------------------------|
----------------------------------------------------|
----------------------------------------------------|
--0-----------------0-----------0--------0----------|


----------------------------------------------------|
----------------------------------------------------|
----------------------------------------------------|
--0-----------------0-----------0--------0----------|


----------------------------------------------------|
----------------------------------------------------|
----------------------------------------------------|
--0-----------------0-----------0--------0----------|


----------------------------|----------------------------|
----------------------------|----------------------------|
----------------------------|----------------------------|
--0--------0-----5----------|--1--------1--1-------------|


--------------------------------------------------------------------------------|
--------------------------------------------------------------------------------|
--1s-3-----------------------------------3-----------3-----------------------3s-|
--------------------------------------------------------------------------------|


-----------------------|----------------------------|
-----------------------|-----------8--8--8----------|
-----------------------|--10----10----------8L------|
-----------------------|----------------------------|


----------------------------|
----------------------------|
--8--8--8-----8L----8s------|
----------------------------|


----------------------------------------------------|----------|
----------------------------------------------------|----------|
----------------------------------------------------|----------|
--1--------1--------1.------------------------------|-----3----|


----------------------------------------------------|----------|
----------------------------------------------------|----------|
----------------------------------------------------|----------|
--5--------5--------5.------------------------------|-----3----|


----------------------------------------------------|----------|
----------------------------------------------------|----------|
----------------------------------------------------|----------|
--1--------1--------1.------------------------------|-----3----|


----------------------------------------------------|
----------------------------------------------------|
----------------------------------------------------|
--5--------5--------5.------------------------------|


----------------------------|----------------------------|
----------------------------|----------------------------|
-----------------1--3--5----|----------------------------|
----------------------------|--0--------------0----------|


----------------------------|----------------------------|
----------------------------|----------------------------|
----------------------------|----------------------------|
--0--------------0-----0----|--0--------0--0-----0-------|


----------------------------|
----------------------------|
----------------------------|
-----0--0--0----------------|


----------------------------------------------------|
----------------------------------------------------|
----------------------------------------------------|
--0-----------0-----------------0--0-----0-----0----|


----------------------------------------------------|
----------------------------------------------------|
----------------------------------------------------|
--0-----------0--0--0--------0--0-----------0--0----|


----------------------------------------------------|
----------------------------------------------------|
----------------------------------------------------|
--0-----------0-----------------0--0-----0-----0----|


----------------------------------------------------|
----------------------------------------------------|
----------------------------------------------------|
--0-----------0--0--0--------0--0--------0--0--0----|


----------------------------------------------------|
----------------------------------------------------|
----------------------------------------------------|
--0-----------0-----------------0--0-----0-----0----|


----------------------------------------------------|
----------------------------------------------------|
----------------------------------------------------|
--0-----------0--0--0--------0--0-----------0--0----|


----------------------------------------------------|
----------------------------------------------------|
----------------------------------------------------|
--0-----------0-----------------0--0-----0-----0----|


--------------------------------------------------------------------------------|
--------------------------------------------------------------------------------|
--------------------------------------------------------------------------------|
--0-----------------------------------0--------0--------0--------0--------12s---|


--------------------------------------------------------------------|
--------------------------------------------------------------------|
--------------------------------------------------------------------|
11>---10>---9>----8>----7>----6>----5>----4>----3>----2>----1>------|


----------------------------------------------------------------------------|
----------------------------------------------------------------------------|
----------------------------------------------------------------------------|
--0--------0--0--0--0-----------------0-----------------0-------------------|


----------------------------------------------------|
----------------------------------------------------|
----------------------------------------------------|
--0-----0--------0--0-----0-----0-----------0--0----|


----------------------------------------------------|
----------------------------------------------------|
----------------------------------------------------|
--0--0--0-----0--0-----0--0--0--0-------------------|


----------------------------|
----------------------------|
----------------------------|
--0.-------0--0--12-12------|


----------------------------------------------------|
----------------------------------------------------|
----------------------------------------------------|
--0--0--0--0--0-----0--0--0-----------------0-------|


--------------------------------------------------------------------------------|
--------------------------------------------------------------------------------|
--------------------------------------------------------------------------------|
--0.----------------------------------0-----------------0-----------------0-----|


--------------------------------------------------------------------|
--------------------------------------------------------------------|
--------------------------------------------------------------------|
---0-----------------0--------0-----------------0-----0-----0-------|


----------------------------|
----------------------------|
----------------------------|
--0-----0--0--0--0-----0----|


----------------------------------------------------|----------------|
----------------------------------------------------|----------------|
----------------------------------------------------|----------------|
--0-----------0--0--------0--0--0--0--3--3--3--3----|--5.----1-------|


----------------------------------------------------|
----------------------------------------------------|
----------------------------------------------------|
--1--------1--------1-----1--------1--------1-------|


--------------------------------------------------------------------------------|
--------------------------------------------------------------------------------|
--------------------------------------------------3s-5-----------------3--------|
--1-----------------1-----------------1-----------------------------------------|


-----------------------|----------------------------------------------------|
-----------------------|----------------------------------------------------|
-----------------------|----------------------------------------------------|
---------3-------------|--5--------5--------5-----5--------5--------5-------|


----------------------------------------------------|
----------------------------------------------------|
----------------------------------------------------|
--5--------5--------5-----7-----7-----8-----8-------|


----------------------------------------------------|
----------------------------------------------------|
----------------------------------------------------|
--1--------1--------1-----1--------1--------1-------|


----------------------------------------------------|
----------------------------------------------------|
----------------------------------------------------|
--1--------1--------1-----3--------3--------3-------|


----------------------------------------------------|
----------------------------------------------------|
--------------------------------------------5s------|
--5--------5--------5-----5--------5----------------|


----------------------------------------------------|
----------------------------------------------------|
--10-------10-------10----12----12----13s-----------|
----------------------------------------------------|


----------------------------------------------------|
----------------------------------------------------|
----------------------------------------------------|
--1--------1--------1-----1--------1--------1-------|


----------------------------------------------------|
----------------------------------------------------|
--------------------------------------1-------------|
--1--------1--------1-----1--------1--------3-------|


----------------------------------------------------|
----------------------------------------------------|
----------------------------------------------------|
--5--------5--------5-----5--------5--------5-------|


----------------------------------------------------|
----------------------------------------------------|
----------------------------------------------------|
--5--------5--------5-----7--------7--------7-------|


----------------------------------------------------|
----------------------------------------------------|
--6--------6--------6-----6--------6--------6-------|
----------------------------------------------------|


----------------------------------------------------|
----------------------------------------------------|
--6--------6--------6-----3--------3--------3-------|
----------------------------------------------------|


----------------------------------------------------|
----------------------------------------------------|
----------------------------------------------------|
--5--------5--------5-----5--------5--------5-------|


----------------------------------------------------|-------|-------|-------|
----------------------------------------------------|-------|-------|-------|
----------------------------------------------------|-------|-------|-------|
--5--------5--------5-----3--------3--------3-------|--1L---|--1L---|--1L---|


-------|-------|-------||
-------|-------|-------||
-------|-------|-------||
--1L---|--1L---|--1----||
comments
We did not receive enough feedback on this tab! Please rate:
print report bad tab
1 2 3 4 5
I want to post or [tab]
guest
You may want to rate the tab now too:
select rating
Please do not post tabs as comments. Select "correction" instead!