Oops, an error
Loading. Please wait.

Vessels Tab

ver1
ver1

Whole song

Interactive

More versions @911Tabs.com
849 views 3 this week
no commentswrite comment
1 2 3 4 5
excellent!
x 2
Autoscroll
+/-
esc
set tempo
stop
Contributor
Difficulty
Tuning
novice
C# G# C# F# A# D#
Hey! There's an official Ultimate Guitar app which is ideal
for learning songs when you're away from computer. Get the app
WARNING: You are trying to view
                                    content from Ultimate-Guitar.com
                                    in an unauthorized application,
                                    which is prohibited.

                                    Please use an official Ultimate
                                    Guitar Tabs application for iPhone,
                                    iPad or Android to access legitimate
                                    chords, guitar, bass, and drum tabs
                                    from Ultimate-Guitar.com database.

                                    Type "ultimate guitar tabs" in Apple
                                    App Store's or Android Market's
                                    search to find the application.
----------------------------------------------------------------------------
                               Vessels
                           Memphis May Fire
----------------------------------------------------------------------------

Is it weird that I get goose bumps listening to this after listening to the first 10
songs of Challenger? All the songs lead up to this one “goodbye” moment that does not
disappoint. There might as well be credits going on during this song. It is a perfect 
farewell to a perfect album. Enjoy!

Username: dkm817 (same on X box live)
Youtube Cover: http://www.youtube.com/watch?v=vQtdRsbvfeg
Email: guitardrums@rockfan.com

Guitar 1 Rhythmic (C# G# C# F# A# D#)
Guitar 2 Lead     (C# G# C# F# A# D#)

Tab Guide...
===================================================================
(end of measures)

===================================================================
===================================================================
(end of parts)

===================================================================
===================================================================
===================================================================
(end of song)
(If there is a “continued” it is because the numbers could not
fit on 1 line or connecting times played.)


===================================================================
Guitar 1
===================================================================


Verse

Guitar 1 (Piano Part)
D#-----------------1~~~~~~-0~~~~~~---------------------------------|
A#-----------------x---------------3~~~~~~~~~~~~~~-1~~~~~~-3~~~~~~-|
F#-----------------2~~~~~~~~~~~~~~-3~~~~~~~~~~~~~~-3~~~~~~-3~~~~~~-|
C#-0~~~~~~~~~~~~~~~~~~~~~~~~~~~~~~-3~~~~~~~~~~~~~~-----------------|
G#-0~~~~~~~~~~~~~~~~~~~~~~~~~~~~~~-1~~~~~~~~~~~~~~-----------------|
C#-0~~~~~~~~~~~~~~~~~~~~~~~~~~~~~~---------------------------------|

===================================================================

Guitar 1
D#-----------------------------------------5~~~~~~-----------------|
A#-5~~~~~~~~~~~~~~-5~~~~~~~~~~~~~~-5~~~~~~~~~~~~~~-6~~~~~~-5~~~~~~-|
F#-5~~~~~~~~~~~~~~-5~~~~~~~~~~~~~~-5~~~~~~~~~~~~~~-x-------x-------|
C#-5~~~~~~~~~~~~~~-5~~~~~~~~~~~~~~-5~~~~~~~~~~~~~~-3~~~~~~-2~~~~~~-|
G#-3~~~~~~~~~~~~~~-3~~~~~~~~~~~~~~-3~~~~~~~~~~~~~~-----------------|
C#-----------------------------------------------------------------|

===================================================================

Guitar 1
D#-1~~~~~~~~~~~~~~-1~~~~~~-0~~~~~~---------------------------------|
A#-x---------------x---------------3~~~~~~~~~~~~~~-1~~~~~~-3~~~~~~-|
F#-2~~~~~~~~~~~~~~-2~~~~~~~~~~~~~~-3~~~~~~~~~~~~~~-3~~~~~~-3~~~~~~-|
C#-0~~~~~~~~~~~~~~~~~~~~~~~~~~~~~~-3~~~~~~~~~~~~~~-----------------|
G#-0~~~~~~~~~~~~~~~~~~~~~~~~~~~~~~-1~~~~~~~~~~~~~~-----------------|
C#-0~~~~~~~~~~~~~~~~~~~~~~~~~~~~~~---------------------------------|

===================================================================

Guitar 1
D#-----------------------------------------5~~~~~~-----------------|
A#-5~~~~~~~~~~~~~~-5~~~~~~-6~~~~~~-5~~~~~~~~~~~~~~-6~~~~~~-5~~~~~~-|
F#-5~~~~~~~~~~~~~~-5~~~~~~~~~~~~~~-5~~~~~~~~~~~~~~-x-------x-------|
C#-5~~~~~~~~~~~~~~-5~~~~~~~~~~~~~~-5~~~~~~~~~~~~~~-3~~~~~~-2~~~~~~-|
G#-3~~~~~~~~~~~~~~-3~~~~~~~~~~~~~~-3~~~~~~~~~~~~~~-----------------|
C#-----------------------------------------------------------------|

===================================================================
===================================================================


Pre Chorus

Guitar 1
D#-1~~~~~~~~~~~~~~-1~~~~~~-0~~~~~~-3~~~~~~~~~~~~~~-----------------|
A#-1~~~~~~~~~~~~~~-x---------------3~~~~~~~~~~~~~~-5~~~~~~---------|
F#-3~~~~~~~~~~~~~~-3~~~~~~~~~~~~~~-5~~~~~~~~~~~~~~-x-------5~~~~~~-|
C#-3~~~~~~~~~~~~~~-3~~~~~~~~~~~~~~-5~~~~~~~~~~~~~~-2~~~~~~-x-------|
G#-1~~~~~~~~~~~~~~~~~~~~~~~~~~~~~~-3~~~~~~~~~~~~~~---------3~~~~~~-|
C#-----------------------------------------------------------------|

===================================================================

Guitar 1
D#---------------------------------2~~~~~~-2~~~~~~-----------------|
A#-3~~~~~~~~~~~~~~-3~~~~~~-3~~~~~~-x-------x-------3~~~~~~-3~~~~~~-|
F#-2~~~~~~~~~~~~~~-2~~~~~~-2~~~~~~-2~~~~~~-2~~~~~~-x-------x-------|
C#-4~~~~~~~~~~~~~~-4~~~~~~-4~~~~~~-4~~~~~~-4~~~~~~-3~~~~~~-2~~~~~~-|
G#-0~~~~~~~~~~~~~~~~~~~~~~~~~~~~~~~~~~~~~~~~~~~~~~-----------------|
C#-0~~~~~~~~~~~~~~~~~~~~~~~~~~~~~~~~~~~~~~~~~~~~~~-----------------|

===================================================================

Guitar 1
D#-1~~~~~~~~~~~~~~-1~~~~~~-1~~~~~~-3~~~~~~~~~~~~~~-3~~~~~~-3~~~~~~-|
A#-1~~~~~~~~~~~~~~-1~~~~~~-1~~~~~~-3~~~~~~~~~~~~~~-3~~~~~~-3~~~~~~-|
F#-3~~~~~~~~~~~~~~-3~~~~~~-3~~~~~~-5~~~~~~~~~~~~~~-5~~~~~~-5~~~~~~-|
C#-3~~~~~~~~~~~~~~-3~~~~~~-3~~~~~~-5~~~~~~~~~~~~~~-5~~~~~~-5~~~~~~-|
G#-1~~~~~~~~~~~~~~-1~~~~~~-1~~~~~~-3~~~~~~~~~~~~~~-3~~~~~~-3~~~~~~-|
C#-----------------------------------------------------------------|

===================================================================

Guitar 1
D#-----------------------------------------------------------------|
A#-3~~~~~~-3~~~~~~-3~~~~~~-3~~~~~~-3~~~~~~-3~~~~~~-3~~~~~~-3~~~~~~-|
F#-2~~~~~~-2~~~~~~-2~~~~~~-2~~~~~~-2~~~~~~-2~~~~~~-x-------x-------|
C#-4~~~~~~-4~~~~~~-4~~~~~~-4~~~~~~-4~~~~~~-4~~~~~~-3~~~~~~-2~~~~~~-|
G#-0~~~~~~~~~~~~~~~~~~~~~~~~~~~~~~-0~~~~~~~~~~~~~~-----------------|
C#-0~~~~~~~~~~~~~~~~~~~~~~~~~~~~~~-0~~~~~~~~~~~~~~-----------------|

===================================================================

Guitar 1
D#-1~~~~~~~~~~~~~~-1~~~~~~-1~~~~~~-3~~~~~~-3~~~~~~-3~~~~~~-3~~~~~~-|
A#-1~~~~~~~~~~~~~~-1~~~~~~-1~~~~~~-3~~~~~~~~~~~~~~-3~~~~~~-3~~~~~~-|
F#-3~~~~~~~~~~~~~~-3~~~~~~-3~~~~~~-5~~~~~~~~~~~~~~-5~~~~~~-5~~~~~~-|
C#-3~~~~~~~~~~~~~~-3~~~~~~-3~~~~~~-5~~~~~~~~~~~~~~-5~~~~~~-5~~~~~~-|
G#-1~~~~~~~~~~~~~~-1~~~~~~-1~~~~~~-3~~~~~~~~~~~~~~-3~~~~~~-3~~~~~~-|
C#-----------------------------------------------------------------|

===================================================================

Guitar 1
D#-----------------------------------------------------------------|
A#-3~~~~~~-3~~~~~~-3~~~~~~-3~~~~~~-3~~~~~~-3~~~~~~-3~~~~~~-3~~~~~~-|
F#-2~~~~~~-2~~~~~~-2~~~~~~-2~~~~~~-2~~~~~~-2~~~~~~-x-------x-------|
C#-4~~~~~~-4~~~~~~-4~~~~~~-4~~~~~~-4~~~~~~-4~~~~~~-3~~~~~~-2~~~~~~-|
G#-0~~~~~~~~~~~~~~~~~~~~~~~~~~~~~~-0~~~~~~~~~~~~~~-----------------|
C#-0~~~~~~~~~~~~~~~~~~~~~~~~~~~~~~-0~~~~~~~~~~~~~~-----------------|

===================================================================

Guitar 1
D#-1~~~~~~-1~~~~~~-1~~~~~~-1~~~~~~-3~~~~~~-3~~~~~~-3~~~~~~-3~~~~~~-|
A#-1~~~~~~-1~~~~~~-1~~~~~~-1~~~~~~-3~~~~~~-3~~~~~~-3~~~~~~-3~~~~~~-|
F#-3~~~~~~-3~~~~~~-3~~~~~~-3~~~~~~-5~~~~~~-5~~~~~~-5~~~~~~-5~~~~~~-|
C#-3~~~~~~-3~~~~~~-3~~~~~~-3~~~~~~-5~~~~~~-5~~~~~~-5~~~~~~-5~~~~~~-|
G#-1~~~~~~-1~~~~~~-1~~~~~~-1~~~~~~-3~~~~~~-3~~~~~~-3~~~~~~-3~~~~~~-|
C#-----------------------------------------------------------------|

===================================================================

Guitar 1
D#-----------------------------------------------------------------|
A#-3~~~~~~-3~~~~~~-3~~~~~~-3~~~~~~-3~~~~~~-3~~~~~~-3~~~~~~-3~~~~~~-|
F#-2~~~~~~-2~~~~~~-2~~~~~~-2~~~~~~-2~~~~~~-2~~~~~~-x-------x-------|
C#-4~~~~~~-4~~~~~~-4~~~~~~-4~~~~~~-4~~~~~~-4~~~~~~-3~~~~~~-2~~~~~~-|
G#-0~~~~~~~~~~~~~~~~~~~~~~~~~~~~~~-0~~~~~~~~~~~~~~-----------------|
C#-0~~~~~~~~~~~~~~~~~~~~~~~~~~~~~~-0~~~~~~~~~~~~~~-----------------|

===================================================================

Guitar 1
D#-1~~~~~~-1~~~~~~-1~~~~~~-1~~~~~~-3~~~~~~-3~~~~~~-3~~~~~~-3~~~~~~-|
A#-1~~~~~~-1~~~~~~-1~~~~~~-1~~~~~~-3~~~~~~-3~~~~~~-3~~~~~~-3~~~~~~-|
F#-3~~~~~~-3~~~~~~-3~~~~~~-3~~~~~~-5~~~~~~-5~~~~~~-5~~~~~~-5~~~~~~-|
C#-3~~~~~~-3~~~~~~-3~~~~~~-3~~~~~~-5~~~~~~-5~~~~~~-5~~~~~~-5~~~~~~-|
G#-1~~~~~~-1~~~~~~-1~~~~~~-1~~~~~~-3~~~~~~-3~~~~~~-3~~~~~~-3~~~~~~-|
C#-----------------------------------------------------------------|

===================================================================

Guitar 1
D#-----------------------------------------------------------------|
A#-3~~~~~~-3~~~~~~-3~~~~~~-3~~~~~~-3~~~~~~-3~~~~~~-3~~~~~~-3~~~~~~-|
F#-2~~~~~~-2~~~~~~-2~~~~~~-2~~~~~~-2~~~~~~-2~~~~~~-x-------x-------|
C#-4~~~~~~-4~~~~~~-4~~~~~~-4~~~~~~-4~~~~~~-4~~~~~~-3~~~~~~-2~~~~~~-|
G#-0~~~~~~~~~~~~~~~~~~~~~~~~~~~~~~-0~~~~~~~~~~~~~~-----------------|
C#-0~~~~~~~~~~~~~~~~~~~~~~~~~~~~~~-0~~~~~~~~~~~~~~-----------------|

===================================================================
===================================================================


Chorus

(x3)

Guitar 1
D#-1---1---1---1-1-1-1-1---1---1-1-3---3---3---3-3-3-3-3---3---3-3-|
A#-1---1---1---1-1-1-1-1---1---1-1-3---3---3---3-3-3-3-3---3---3-3-|
F#-3---3---3---3-3-3-3-3---3---3-3-5---5---5---5-5-5-5-5---5---5-5-|
C#-3---3---3---3-3-3-3-3---3---3-3-5---5---5---5-5-5-5-5---5---5-5-|
G#-1---1---1---1-1-1-1-1---1---1-1-3---3---3---3-3-3-3-3---3---3-3-|
C#-----------------------------------------------------------------|

===================================================================

Guitar 1
D#-----------------------------------------------------------------|
A#-3---3---3---3-3-3-3-3---3---3-3-3---3---3---3-3-3---3---3---3---|
F#-2---2---2---2-2-2-2-2---2---2-2-2---2---2---2-2-x---x---x---x---|
C#-4---4---4---4-4-4-4-4---4---4-4-4---4---4---4-4-3---3---2---2---|
G#-0---0---0---0-0-0-0-0---0---0-0-0---0---0---0-0-----------------|
C#-0~~~~~~~~~~~~~~~~~~~~~~~~~~~~~~-0~~~~~~~~~~~~~~-----------------|

===================================================================
===================================================================


Outro

Guitar 1
D#-3~~~~~~~~~~~~~~-3~~~~~~-1~~~~~~---------------------------------|
A#-3~~~~~~~~~~~~~~-----------------5~~~~~~~~~~~~~~---------1~~~~~~-|
F#-3~~~~~~~~~~~~~~-----------------5~~~~~~~~~~~~~~-2~~~~~~---------|
C#-3~~~~~~~~~~~~~~-----------------5~~~~~~~~~~~~~~-----------------|
G#-1~~~~~~~~~~~~~~-----------------3~~~~~~~~~~~~~~-----------------|
C#-----------------------------------------------------------------|

===================================================================

Guitar 1
D#-----------------------------------------------------------------
A#-3~~~~~~~~~~~~~~~~~~~~~~~~~~~~~~~~~~~~~~~~~~~~~~~~~~~~~~~~~~~~~~-
F#-2~~~~~~~~~~~~~~~~~~~~~~~~~~~~~~~~~~~~~~~~~~~~~~~~~~~~~~~~~~~~~~-
C#-0~~~~~~~~~~~~~~~~~~~~~~~~~~~~~~~~~~~~~~~~~~~~~~~~~~~~~~~~~~~~~~-
G#-0~~~~~~~~~~~~~~~~~~~~~~~~~~~~~~~~~~~~~~~~~~~~~~~~~~~~~~~~~~~~~~-
C#-0~~~~~~~~~~~~~~~~~~~~~~~~~~~~~~~~~~~~~~~~~~~~~~~~~~~~~~~~~~~~~~-

===================================================================
===================================================================
===================================================================


===================================================================
Guitar 2
===================================================================


Verse


===================================================================
Rest
===================================================================


===================================================================
===================================================================


===================================================================
Rest
===================================================================


===================================================================

Guitar 2 (Pitch Octave +1)
D#---------------------------------------------------------10~~~~~-|
A#-----------------------------------------------------------------|
F#-----------------------------------------------------------------|
C#-----------------------------------------------------------------|
G#-----------------------------------------------------------------|
C#-----------------------------------------------------------------|

===================================================================

Guitar 2
D#-----------------------------------------------------------------|
A#-13~~~~~~~~~~~~~-11~~~~~-10~~~~~---------------------------------|
F#---------------------------------12~~~~~~~~~~~~~-10~~~~~-12~~~~~-|
C#-----------------------------------------------------------------|
G#-----------------------------------------------------------------|
C#-----------------------------------------------------------------|

===================================================================

Guitar 2
D#-----------------------------------------------------------------|
A#-10~~~~~~~~~~~~~~~~~~~~~~~~~~~~~-----------------10~~~~~-11~~~~~-|
F#---------------------------------11~~~~~~~~~~~~~-----------------|
C#-----------------------------------------------------------------|
G#-----------------------------------------------------------------|
C#-----------------------------------------------------------------|

===================================================================

Guitar 2
D#-------------------------------------------------10~~~~~-12~~~~~-|
A#-13~~~~~~~~~~~~~-11~~~~~-10~~~~~---------------------------------|
F#---------------------------------12~~~~~~~~~~~~~-----------------|
C#-----------------------------------------------------------------|
G#-----------------------------------------------------------------|
C#-----------------------------------------------------------------|

===================================================================

Guitar 2
D#-14~~~~~~~~~~~~~-10~~~~~~~-10-12-14~~~~~~~~~~~~~-20~~~~~-18~~~~~-|
A#-----------------------------------------------------------------|
F#-----------------------------------------------------------------|
C#-----------------------------------------------------------------|
G#-----------------------------------------------------------------|
C#-----------------------------------------------------------------|

===================================================================

Guitar 2
D#-17~~~~~~~~~-------------15~~~~~-17~~~~~~~~~~~~~------------------|
A#-------------18~~~~~~~~~-------------------------18~~~~~-17--15~~-|
F#------------------------------------------------------------------|
C#------------------------------------------------------------------|
G#------------------------------------------------------------------|
C#------------------------------------------------------------------|

===================================================================

Guitar 2
D#-----------------------------------------------------------------|
A#-~~~~~~~~~~~---------------------15~~~~~~~~~---------------------|
F#-------------14~~~~~~~~~-17~~~~~-------------17~~~~~~~~~-10--9---|
C#-----------------------------------------------------------------|
G#-----------------------------------------------------------------|
C#-----------------------------------------------------------------|

===================================================================

Guitar 2
D#-----------------------------------------------------------------|
A#-----------------------------------------------------------------|
F#-10~~~~~-10--9~~~~~~---------7~~~~~~~~~~-10--9~~~~~~~~~~---------|
C#---------------------10~~~~~-----------------------------10~~~~~-|
G#-----------------------------------------------------------------|
C#-----------------------------------------------------------------|

===================================================================

Guitar 2
D#---------------------------------------------10~~~~~-10--12--13--|
A#-----------8-7~~~~~~---------------------13----------------------|
F#-7~~~~~~-7-----------------------7~~~~~~-------------------------|
C#-------------------------7---10----------------------------------|
G#---------------------10------------------------------------------|
C#-----------------------------------------------------------------|

===================================================================
===================================================================


Chorus

Guitar 2
D#-17----------17--15~~~~~-13--15~~~~~---------15--13~~~~~---------|
A#-----15~~~~~---------------------------------------------17--15--|
F#-----------------------------------------------------------------|
C#-----------------------------------------------------------------|
G#-----------------------------------------------------------------|
C#-----------------------------------------------------------------|

===================================================================

Guitar 2
D#-------------------------18-------17~~~~---------20--18--17------|
A#---------15~~~~~-17~~~~~-----------------15~~~~~-------------20--|
F#----------------------------15-----------------------------------|
C#-------------------------------17--------------------------------|
G#-----------------------------------------------------------------|
C#-----------------------------------------------------------------|

===================================================================

Guitar 2
D#-17----------17--15~~~~~-13--15~~~~~---------15--13~~~~~---------|
A#-----15~~~~~-------------------------15~~~~~-------------17--15--|
F#-----------------------------------------------------------------|
C#-----------------------------------------------------------------|
G#-----------------------------------------------------------------|
C#-----------------------------------------------------------------|

===================================================================

Guitar 2
D#---------14~~~~~-15~~~~~-18~~~-15-17~~~~-15~~~~~-----------------|
A#-------------------------------------------------18~~~~~-17------|
F#-------------------------------------------------------------17--|
C#-----------------------------------------------------------------|
G#-----------------------------------------------------------------|
C#-----------------------------------------------------------------|

===================================================================

Guitar 2
D#-17----------17--15~~~~~-13--15~~~~~---------15--13~~~~~---------|
A#-----15~~~~~-------------------------15~~~~~-------------17--15--|
F#-----------------------------------------------------------------|
C#-----------------------------------------------------------------|
G#-----------------------------------------------------------------|
C#-----------------------------------------------------------------|

===================================================================

Guitar 2
D#---------14~~~~~-15~~~~~-18~~~-15-17~~~~-15~~~~~-----------------|
A#-------------------------------------------------18~~~~~-17--15--|
F#-----------------------------------------------------------------|
C#-----------------------------------------------------------------|
G#-----------------------------------------------------------------|
C#-----------------------------------------------------------------|

===================================================================
===================================================================


Outro


===================================================================
Rest
===================================================================


===================================================================
===================================================================
===================================================================


Tab Legend
h  - hammer-on
p  - pull-off
/  - slide up
\  - slide down
ps/- pickslide up
ps\- pickslide down
~  - let ring
pm.- palm mute
b  - bend
r  - return from bend
t  - finger tapping
*  - harmonic
x  - dead note
^  - Whammy bar
^\ - Whammy bar (hold down)
^/ - Whammy bar (release)

That is all! I hope this helped, and be sure to check out my cover if you are having
problems with the tab. Thanks, oh and one last thing... ROCK OUT!!!!
comments
We did not receive enough feedback on this tab! Please rate:
print report bad tab
1 2 3 4 5
I want to post or [tab]
guest
You may want to rate the tab now too:
select rating
Please do not post tabs as comments. Select "correction" instead!