Oops, an error
Loading. Please wait.

Vices Tab

ver1
ver1

Solo

Whole song

Interactive

More versions @911Tabs.com
30,767 views 73 this week
no commentswrite comment
1 2 3 4 5
accurate
x 9
Autoscroll
+/-
esc
set tempo
stop
Contributor
Difficulty
Tuning
intermediate
C# G# C# F# A# D#
NEW! There's an official Ultimate Guitar app which is ideal
for learning songs when you're away from computer. Get the app
WARNING: You are trying to view
                                    content from Ultimate-Guitar.com
                                    in an unauthorized application,
                                    which is prohibited.

                                    Please use an official Ultimate
                                    Guitar Tabs application for iPhone,
                                    iPad or Android to access legitimate
                                    chords, guitar, bass, and drum tabs
                                    from Ultimate-Guitar.com database.

                                    Type "ultimate guitar tabs" in Apple
                                    App Store's or Android Market's
                                    search to find the application.
----------------------------------------------------------------------------
                                Vices
                           Memphis May Fire
----------------------------------------------------------------------------

Challenger is one of the very few albums I have preordered my whole life. I just can’t
get enough of their beautiful music construction techniques. The lyrics are pitch
perfect, the drums are so hardcore, the bass parts is very interesting and the guitar
riffs are addictive. Enjoy!

Username: dkm817 (same on X box live)
Youtube Cover: http://www.youtube.com/watch?v=35O6SSO_KZU
Email: guitardrums@rockfan.com

Guitar 1 Rhythmic (C# G# C# F# A# D#)
Guitar 2 Lead     (C# G# C# F# A# D#)

Tab Guide...
===================================================================
(end of measures)

===================================================================
===================================================================
(end of parts)

===================================================================
===================================================================
===================================================================
(end of song)
(If there is a “continued” it is because the numbers could not
fit on 1 line or connecting times played.)


Intro

Guitar 1
D#-----------------------------------------------------------------|
A#-----------------------------------------------------------------|
F#-----------------------------------------------------------------|
C#-----------------------------------------------------------------|
G#-5---------------5---------------5-------------------------------|
C#-----8-8-5---7-------8-8-5---7-------8-8-5---7---7---7---7---7-7-|

===================================================================
===================================================================


Verse 1

(x2)

Guitar 1 & 2
D#-----------------------------------------------------------------|
A#-----------------------------------------------------------------|
F#-----------------------------------------------------------------|
C#-----------------5-7---------4-------10--7-------9---------------|
G#-5-------------------7---4---------------------------0---8---7---|
C#-----8-8-5---7-------------------0-----------0-------------------|
Pm                                 .           .

===================================================================

Guitar 1
D#-------------------------------------------------------------------|
A#-------------------------------------------------------------------|
F#-------------------------------------------------------------------|
C#-----------------------------------0---0-0-0---0---0-0-0---0-0-0---|
G#---------------------------10--12--0---0-0-0---0---0-0-0---0-0-0---|
C#-0---12-12-8---0---8-8-7-----------0---0-0-0---0---0-0-0---0-0-0---|
Pm                                   .   . . .   .   . . .   . . .

Guitar 2
D#-------------------------------------------------------------------|
A#-------------------------------------------------------------------|
F#-------------------------------------------------------------------|
C#---------------------------10--12--0---0-0-0---0---0-0-0---0-0-0---|
G#-----------------------------------0---0-0-0---0---0-0-0---0-0-0---|
C#-0---12-12-8---0---8-8-7-----------0---0-0-0---0---0-0-0---0-0-0---|
Pm                                   .   . . .   .   . . .   . . .

===================================================================

Guitar 1
D#-----------------------------------------------------------------|
A#-----------------------------------------------------------------|
F#-------------------------------------10--7-------7-9-7---5-7-5---|
C#-----------------5-7---------4-------------------------9-------7-|
G#-5-------------------7---4---------------------------------------|
C#-----8-8-5---7-------------------0-----------0-------------------|
Pm                                 .           .

Guitar 2
D#-----------------------------------------------------------------------|
A#-----------------------------------------------------------------------|
F#-------------------------------------10--7-------10-12-10----9-10-9----|
C#-----------------5-7---------4----------------------------12--------11-|
G#-5-------------------7---4---------------------------------------------|
C#-----8-8-5---7-------------------0-----------0-------------------------|
Pm                                 .           .

===================================================================

Guitar 1
D#-----------------------------------------------------------------|
A#-----------------------------------------------------------------|
F#-----------------------------------------------------------------|
C#---------------------------------x-x-x---x-x-x---x-x-x---x-x-x-x-|
G#-------------------------4-4-4---x-x-x---x-x-x---x-x-x---x-x-x-x-|
C#-0---8-8-5---7---3-3-3-----------x-x-x---x-x-x---x-x-x---x-x-x-x-|

Guitar 2
D#-----------------------------------------------------------------|
A#-----------------------------------------------------------------|
F#-----------------------------------------------------------------|
C#-----------------------------------------------------------------|
G#-------------------------4-4-4---------------1---0---------------|
C#-0---8-8-5---7---3-3-3-----------0---2---3-----------5---3---2---|
Pm                                 .   .   .   .   .   .   .   .

===================================================================
===================================================================


Breakdown 1

Guitar 1 & 2
D#-----------------------------------------------------------------|
A#-----------------------------------------------------------------|
F#-----------------------------------------------------------------|
C#-0-0-----0-0-----0-0-----0---0-0-----0---0-0-----0-0-------------|
G#-0-0-----0-0-----0-0-----0---0-0-----0---0-0-----0-0-------------|
C#-0-0-----0-0-----0-0-----0---0-0-----0---0-0-----0-0-----3-3-3---|
Pm . .     . .     . .     .   . .     .   . .     . .

===================================================================

Guitar 1
D#-----------------------------------------------------------------|
A#-----------------------------------------------------------------|
F#-----------------------------------------------------------------|
C#-0-0-----0-0-----0-0-----0---0-0-----0---0-0-----0-0-------------|
G#-0-0-----0-0-----0-0-----0---0-0-----0---0-0-----0-0-------------|
C#-0-0-----0-0-----0-0-----0---0-0-----0---0-0-----0-0-----3-3-3---|
Pm . .     . .     . .     .   . .     .   . .     . .

Guitar 2
D#-----------------------------------------------------------------|
A#-----------------------------------------------------------------|
F#-----------------------------------------------------------------|
C#-0-0-----0-0-----0-0-----0---0-0-----0---0-0-----0-0-------------|
G#-0-0-----0-0-----0-0-----0---0-0-----0---0-0-----0-0-------------|
C#-0-0-----0-0-----0-0-----0---0-0-----0---0-0-----0-0-----7-7-7---|
Pm . .     . .     . .     .   . .     .   . .     . .

===================================================================

Guitar 1 & 2
D#-----------------------------------------------------------------|
A#-----------------------------------------------------------------|
F#-----------------------------------------------------------------|
C#-0-0-----0-0-----0-0-----0---0-0-----0---0-0-----0-0-------------|
G#-0-0-----0-0-----0-0-----0---0-0-----0---0-0-----0-0-------------|
C#-0-0-----0-0-----0-0-----0---0-0-----0---0-0-----0-0-----3-3-3---|
Pm . .     . .     . .     .   . .     .   . .     . .

===================================================================

Guitar 1 & 2
D#-----------------------------------------------------------------|
A#-----------------------------------------------------------------|
F#-----------------------------------------------------------------|
C#-0-0-----0-0-----0-0-----0---0-0---------------------------------|
G#-0-0-----0-0-----0-0-----0---0-0---------------------------------|
C#-0-0-----0-0-----0-0-----0---0-0-----2---2---2---x-x-2---0---0---|
Pm . .     . .     . .     .   . .

===================================================================
===================================================================


Breakdown 2

Guitar 1 & 2 (x2)
D#-----------------------------------------------------------------|
A#-----------------------------------------------------------------|
F#-----------------------------------------------------------------|
C#-0-0~~~~-0-0~~~~-0-0-0~~-0~~-0-0~~~~-0~~-0-0~~~~-0-0-0~~-0-0-0~~-|
G#-0-0~~~~-0-0~~~~-0-0-0~~-0~~-0-0~~~~-0~~-0-0~~~~-0-0-0~~-0-0-0~~-|
C#-0-0~~~~-0-0~~~~-0-0-0~~-0~~-0-0~~~~-0~~-0-0~~~~-0-0-0~~-0-0-0~~-|
Pm . .     . .     . . .   .   . .     .   . .     . . .   . . .

===================================================================

Guitar 1 & 2
D#-----------------------------------------------------------------|
A#-----------------------------------------------------------------|
F#-----------------------------------------------------------------|
C#-----------------------------------------------------------------|
G#-----------------------------------------------------------------|
C#-0-0~~~~-0-0~~~~-0-0-0~~-0~~-0-0~~~~-0~~-0-0~~~~-0-0-0~~-0-0-0~~-|

===================================================================

Guitar 1
D#-----------------------------------------------------------------|
A#-----------------------------------------------------------------|
F#-----------------------------------------------------------------|
C#-------------------------------------8---8---8-----7---7---7-----|
G#-------------------------------------10--10--10----7---7---7-----|
C#-0-0~~~~-0-0~~~~-0-0-0~~-0~~-0-0~~~~-----------------------------|

Guitar 2
D#-----------------------------------------------------------------|
A#-----------------------------------------------------------------|
F#-------------------------------------6---6---6-----9---9---9-----|
C#-------------------------------------7---7---7-----11--11--11----|
G#-----------------------------------------------------------------|
C#-0-0~~~~-0-0~~~~-0-0-0~~-0~~-0-0~~~~-----------------------------|

===================================================================
===================================================================


Pre Chorus 1

Guitar 1
D#-----------------------------------------------------------------|
A#-----------------------------------------------------------------|
F#-----------------------------------------------------------------|
C#-5~~~~~~-5~~~~~~-5~~~~~~-5~~~~~~-8~~~~~~-8~~~~~~-8~~~~~~-8~~~~~~-|
G#-5~~~~~~-5~~~~~~-5~~~~~~-5~~~~~~-8~~~~~~-8~~~~~~-8~~~~~~-8~~~~~~-|
C#-5~~~~~~-5~~~~~~-5~~~~~~-5~~~~~~-8~~~~~~-8~~~~~~-8~~~~~~-8~~~~~~-|

===================================================================

Guitar 1
D#-----------------------------------------------------------------|
A#-----------------------------------------------------------------|
F#---------------------------------5---5---5---5-------------------|
C#-0~~~~~~-0~~~~~~-0~~~~~~-0~~~~~~-5---5---5---5---x---x---x---x---|
G#-0~~~~~~-0~~~~~~-0~~~~~~-0~~~~~~-3---3---3---3---x---x---x---x---|
C#-0~~~~~~-0~~~~~~-0~~~~~~-0~~~~~~-----------------x---x---x---x---|

Guitar 2
D#-----------------------------------------------------------------|
A#-----------------------------------------------------------------|
F#---------------------------------5---5---5---5-------------------|
C#---------------------------------5---5---5---5---x---x---x---x---|
G#---------------------------------3---3---3---3---x---x---x---x---|
C#-------------------------------------------------x---x---x---x---|

===================================================================
===================================================================


Chorus

Guitar 1
D#-----------------------------------------------------------------|
A#-----------------------------------------------------------------|
F#-----------------------------------------------------------------|
C#-5---5---5---5---5---5---5---5---8---8---8---8---8---8---8---8---|
G#-5---5---5---5---5---5---5---5---8---8---8---8---8---8---8---8---|
C#-5---5---5---5---5---5---5---5---8---8---8---8---8---8---8---8---|

Guitar 2
D#-----------------------------------------------------------------|
A#-11--10--------------------------11--10--------------------------|
F#---------10--10--12----------------------10--10--12--------------|
C#-------------------------12------------------------------12------|
G#-----------------------------------------------------------------|
C#-----------------------------------------------------------------|

===================================================================

Guitar 1
D#-----------------------------------------------------------------|
A#-----------------------------------------------------------------|
F#---------------------------------5---5---5---5---5---5---5---5---|
C#-0---0---0---0---0---0---0---0---5---5---5---5---5---5---5---5---|
G#-0---0---0---0---0---0---0---0---3---3---3---3---3---3---3---3---|
C#-0---0---0---0---0---0---0---0-----------------------------------|

Guitar 2
D#---------------------------------------------10--12--------------|
A#-11--10--------------------------11--10--------------13--13------|
F#---------10--10--12----------------------12----------------------|
C#---------------------12--12--------------------------------------|
G#-----------------------------------------------------------------|
C#-----------------------------------------------------------------|

===================================================================

Guitar 1
D#-----------------------------------------------------------------|
A#-----------------------------------------------------------------|
F#-----------------------------------------------------------------|
C#-5---5---5---5---5---5---5---5---8---8---8---8---8---8---8---8---|
G#-5---5---5---5---5---5---5---5---8---8---8---8---8---8---8---8---|
C#-5---5---5---5---5---5---5---5---8---8---8---8---8---8---8---8---|

Guitar 2
D#-----------------------------------------------------------------|
A#-11--10--------------------------11--10----------------------10--|
F#---------10--10--12----------------------10--10--12--12--12------|
C#-------------------------12--------------------------------------|
G#-----------------------------------------------------------------|
C#-----------------------------------------------------------------|

===================================================================

Guitar 1
D#-----------------------------------------------------------------|
A#-----------------------------------------------------------------|
F#-----------------------------------------------------------------|
C#-----------------------------------------------------------------|
G#-----------------5---------------8---8---8---7---7---------------|
C#-0---0-0-0---0-------0-0-0---0-----------------------7---7---8---|

Guitar 2
D#-----12--13------13--15------15--17------17--18--17~~~~~~\~~~~~~-|
A#-15----------15----------15----------15--------------------------|
F#-----------------------------------------------------------------|
C#-----------------------------------------------------------------|
G#-----------------------------------------------------------------|
C#-----------------------------------------------------------------|

===================================================================


Guitar 1
D#-----------------------------------------------------------------|
A#-----------------------------------------------------------------|
F#-----------------------------------------------------------------|
C#-5---5---5---5---5---5---5---5---8---8---8---8---8---8---8---8---|
G#-5---5---5---5---5---5---5---5---8---8---8---8---8---8---8---8---|
C#-5---5---5---5---5---5---5---5---8---8---8---8---8---8---8---8---|

Guitar 2
D#-----------------------------------------------------------------|
A#-11--10--------------------------11--10--------------------------|
F#---------10--10--12----------------------10--10--12--------------|
C#-------------------------12------------------------------12------|
G#-----------------------------------------------------------------|
C#-----------------------------------------------------------------|

===================================================================

Guitar 1
D#-----------------------------------------------------------------|
A#-----------------------------------------------------------------|
F#---------------------------------5---5---5---5---5---5---5---5---|
C#-0---0---0---0---0---0---0---0---5---5---5---5---5---5---5---5---|
G#-0---0---0---0---0---0---0---0---3---3---3---3---3---3---3---3---|
C#-0---0---0---0---0---0---0---0-----------------------------------|

Guitar 2
D#---------------------------------------------10--12--------------|
A#-11--10--------------------------11--10--------------13--13------|
F#---------10--10--12----------------------12----------------------|
C#---------------------12--12--------------------------------------|
G#-----------------------------------------------------------------|
C#-----------------------------------------------------------------|

===================================================================

Guitar 1
D#-----------------------------------------------------------------|
A#-----------------------------------------------------------------|
F#-----------------------------------------------------------------|
C#-5---5---5---5---5---5---5---5---5---5---5---5---5---3---3---3---|
G#-5---5---5---5---5---5---5---5---5---5---5---5---5---3---3---3---|
C#-5---5---5---5---5---5---5---5---5---5---5---5---5---3---3---3---|

Guitar 2
D#-----------------------------------------------------------------|
A#-11--10--------------------------11--10--------------------------|
F#---------10--10--12----------------------10--10--12--------------|
C#-------------------------12------------------------------12------|
G#-----------------------------------------------------------------|
C#-----------------------------------------------------------------|

===================================================================

Guitar 1
D#-----------------------------------------------------------------|
A#-----------------------------------------------------------------|
F#-----------------------------------------------------------------|
C#-7---7---7---7---7---7---7---7-----------------------------------|
G#-7---7---7---7---7---7---7---7-----------------------------------|
C#-7---7---7---7---7---7---7---7---7b--7b--7b--7b--7b--7r--7r--2---|

Guitar 2
D#-----------------------------------------------------------------|
A#-11--10------10------11------------------------------------------|
F#---------10------10------10--10--7---10--7---10--6---9---6---9---|
C#-----------------------------------------------------------------|
G#-----------------------------------------------------------------|
C#-----------------------------------------------------------------|

===================================================================
===================================================================


Breakdown 3

Guitar 1
D#-----------------------------------------------------------------|
A#-3-------------------3---3-----------3---3-------3---3-------3---|
F#-2-------------------2---2-----------2---2-------2---2-------2---|
C#-0-------------------0---0-----------0---0-------0---0-------0---|
G#-0-------------------0---0-----------0---0-------0---0-------0---|
C#-0-------------------0---0-----------0---0-------0---0-------0---|

Guitar 2
D#-----------------------------------------------------------------|
A#-3-------------------3---3-----------3---3-------3---3-------3---|
F#-2-------------------2---2-----------2---2-------2---2-------2---|
C#-0-------------------0---0-----------0---0-------0---0-------0---|
G#-0-------------------0---0-----------0---0-------0---0-------0---|
C#-0-------------------0---0-----------0---0-------0---0-------0---|

===================================================================

Guitar 1
D#-----------------------------------------------------------------|
A#-3---------------3---3---3-----------3---3-------3---3-------3---|
F#-2---------------2---2---2-----------2---2-------2---2-------2---|
C#-0-----------x-x-0---0---0-----------0---0-------0---0-------0---|
G#-0-----------x-x-0---0---0-----------0---0-------0---0-------0---|
C#-0-----------x-x-0---0---0-----------0---0-------0---0-------0---|

Guitar 2
D#-----------------------------------------------------------------|
A#-3---------------3---3---3-----------3---3-------3---3-------3---|
F#-2---------------2---2---2-----------2---2-------2---2-------2---|
C#-0-------x-x-----0---0---0-----------0---0-------0---0-------0---|
G#-0-------x-x-----0---0---0-----------0---0-------0---0-------0---|
C#-0-------x-x-----0---0---0-----------0---0-------0---0-------0---|

===================================================================

Guitar 1
D#-----------------------------------------------------------------|
A#-3---------------------------------------------------------------|
F#-2---------------------------------------------------------------|
C#-0---x---x---x---0---0---0-------0---0---0-------0---0-------0---|
G#-0---x---x---x---0---0---0-------0---0---0-------0---0-------0---|
C#-0---x---x---x---0---0---0-------0---0---0-------0---0-------0---|
Pm                                                             .

Guitar 2
D#-----------------------------------------------------------------|
A#-3---3---3---3---------------------------------------------------|
F#-2---2---2---2---------------------------------------------------|
C#-0---0---0---0---0---0---0---0-------0---0-------0---0-------0---|
G#-0---0---0---0---0---0---0---0-------0---0-------0---0-------0---|
C#-0---0---0---0---0---0---0---0-------0---0-------0---0-------0---|
Pm                                                             .

===================================================================

Guitar 1
D#-----------------------------------------------------------------|
A#-----------------------------------------------------------------|
F#-----------------------------------------------------------------|
C#-0-----------0---0---0---0-----------0---0-------0---0-------0---|
G#-0-----------0---0---0---0-----------0---0-------0---0-------0---|
C#-0-----------0---0---0---0-----------0---0-------0---0-------0---|
Pm .           .   .   .   .           .   .       .   .       .

Guitar 2
D#-----------------------------------------------------------------|
A#-----------------------------------------------------------------|
F#-----------------------------------------------------------------|
C#-0---0---0-----------0---0-----------0---0-------0---0-------0---|
G#-0---0---0-----------0---0-----------0---0-------0---0-------0---|
C#-0---0---0-----------0---0-----------0---0-------0---0-------0---|
Pm .   .   .           .   .           .   .       .   .       .

===================================================================
===================================================================


Verse 2

Guitar 1 & 2
D#-----------------------------------------------------------------|
A#-----------------------------------------------------------------|
F#-----------------------------------------------------------------|
C#-----------------5-7---------4-------10--7-------9---------------|
G#-5-------------------7---4---------------------------0---8---7---|
C#-----8-8-5---7-------------------0-----------0-------------------|
Pm                                 .           .

===================================================================

Guitar 1
D#-------------------------------------------------------------------|
A#-------------------------------------------------------------------|
F#-------------------------------------------------------------------|
C#-----------------------------------0---0-0-0---0---0-0-0---0-0-0---|
G#---------------------------10--12--0---0-0-0---0---0-0-0---0-0-0---|
C#-0---12-12-8---0---8-8-7-----------0---0-0-0---0---0-0-0---0-0-0---|
Pm                                   .   . . .   .   . . .   . . .

Guitar 2
D#-------------------------------------------------------------------|
A#-------------------------------------------------------------------|
F#-------------------------------------------------------------------|
C#---------------------------10--12--0---0-0-0---0---0-0-0---0-0-0---|
G#-----------------------------------0---0-0-0---0---0-0-0---0-0-0---|
C#-0---12-12-8---0---8-8-7-----------0---0-0-0---0---0-0-0---0-0-0---|
Pm                                   .   . . .   .   . . .   . . .

===================================================================

Guitar 1
D#-----------------------------------------------------------------|
A#-----------------------------------------------------------------|
F#-------------------------------------10--7-------7-9-7---5-7-5---|
C#-----------------5-7---------4-------------------------9-------7-|
G#-5-------------------7---4---------------------------------------|
C#-----8-8-5---7-------------------0-----------0-------------------|
Pm                                 .           .

Guitar 2
D#-----------------------------------------------------------------------|
A#-----------------------------------------------------------------------|
F#-------------------------------------10--7-------10-12-10----9-10-9----|
C#-----------------5-7---------4----------------------------12--------11-|
G#-5-------------------7---4---------------------------------------------|
C#-----8-8-5---7-------------------0-----------0-------------------------|
Pm                                 .           .

===================================================================

Guitar 1
D#-----------------------------------------------------------------|
A#-----------------------------------------------------------------|
F#-----------------------------------------------------------------|
C#-------------------------------------------------7---7---7---7---|
G#-------------------------4-4-4-------5~/~12\~5~~-----------------|
C#-0---8-8-5---7---3-3-3-------------------------------------------|

Guitar 2
D#-----------------------------------------------------------------|
A#-----------------------------------------------------------------|
F#-----------------------------------------------------------------|
C#-----------------------------------------------------------------|
G#-------------------------4-4-4-----------------------------------|
C#-0---8-8-5---7---3-3-3-------------------------------------------|

===================================================================
===================================================================


Pre Chorus 2

Guitar 1
D#-----------------------------------------------------------------|
A#-----------------------------------------------------------------|
F#-----------------------------------------------------------------|
C#-0---0-0---0-0---0---0-0-0---0-0-0---0-0---0-0---0---0-0-0-----5-|
G#-0---0-0---0-0---0---0-0-0---0-0-0---0-0---0-0---0---0-0-0-------|
C#-0---0-0---0-0---0---0-0-0---0-0-0---0-0---0-0---0---0-0-0---0---|
Pm .   . .   . .   .   . . .   . . .   . .   . .   .   . . .

Guitar 2
D#-----------------------------------------------------------------|
A#-----------------------------------------------------------------|
F#-----------------------------------------------------------------|
C#---------------------------------------------------------------5-|
G------------------------------------------------------------------|
C#-0---8-7---8-5---10--10-8-7--7-8-0---8-7---8-5---10--10-8-7--0---|
Pm .   . .   . .   .   .  . .  . . .   . .   . .   .   .  . .

===================================================================

Guitar 1
D#-----------------------------------------------------------------|
A#-----------------------------------------------------------------|
F#-----------------------------------------------------------------|
C#-7~~-0-0---0-0---0---0-0-0---0-0-0---0-0---0-0---0---0-0-0-------|
G#-----0-0---0-0---0---0-0-0---0-0-0---0-0---0-0---0---0-0-0-------|
C#-----0-0---0-0---0---0-0-0---0-0-0---0-0---0-0---0---0-0-0---0-5-|
Pm     . .   . .   .   . . .   . . .   . .   . .   .   . . .

Guitar 2
D#-----------------------------------------------------------------|
A#-----------------------------------------------------------------|
F#-----------------------------------------------------------------|
C#-7~~-------------------------------------------------------------|
G------------------------------------------------------------------|
C#-----8-7---8-5---10--10-8-7--7-8-0---8-7---8-5---10--10-8-7--0-5-|
Pm     . .   . .   .   .  . .  . . .   . .   . .   .   .  . .

===================================================================

Guitar 1
D#-----------------------------------------------------------------|
A#-----------------------------------------------------------------|
F#-----------------------------------------------------------------|
C#-0---0-0---0-0---0---0-0-0---0-0-0---0-0---0-0---0---0-0-0---0-0-|
G#-0---0-0---0-0---0---0-0-0---0-0-0---0-0---0-0---0---0-0-0---0-0-|
C#-0---0-0---0-0---0---0-0-0---0-0-0---0-0---0-0---0---0-0-0---0-0-|

Guitar 2
D#-----------------------------------------------------------------|
A#-----------------------------------------------------------------|
F#-----------------------------------------------------------------|
C#-----------------------------------------------------------------|
G------------------------------------------------------------------|
C#-0---8-7---8-5---10--10-8-7--7-8-0---8-7---8-5---10--10-8-7--7-8-|

===================================================================

Guitar 1 & 2
D#-----------------------------------------------------------------|
A#-----------------------------------------------------------------|
F#-----------------2-------2---------------------------------------|
C#-1---1-1---------1---1-1-1---1-1-8\-------------/3---3---3---3---|
G#-1---1-1---------1---1-1-1---1-1-8\-------------/3---3---3---3---|
C#-1---1-1---------1---1-1-1---1-1-8\-------------/3---3---3---3---|
Pm     . .             . .     . .

===================================================================
===================================================================


Chorus

Guitar 1
D#-----------------------------------------------------------------|
A#-----------------------------------------------------------------|
F#-----------------------------------------------------------------|
C#-5---5---5---5---5---5---5---5---8---8---8---8---8---8---8---8---|
G#-5---5---5---5---5---5---5---5---8---8---8---8---8---8---8---8---|
C#-5---5---5---5---5---5---5---5---8---8---8---8---8---8---8---8---|

Guitar 2
D#-----------------------------------------------------------------|
A#-11--10--------------------------11--10--------------------------|
F#---------10--10--12----------------------10--10--12--------------|
C#-------------------------12------------------------------12------|
G#-----------------------------------------------------------------|
C#-----------------------------------------------------------------|

===================================================================

Guitar 1
D#-----------------------------------------------------------------|
A#-----------------------------------------------------------------|
F#---------------------------------5---5---5---5---5---5---5---5---|
C#-0---0---0---0---0---0---0---0---5---5---5---5---5---5---5---5---|
G#-0---0---0---0---0---0---0---0---3---3---3---3---3---3---3---3---|
C#-0---0---0---0---0---0---0---0-----------------------------------|

Guitar 2
D#---------------------------------------------10--12--------------|
A#-11--10--------------------------11--10--------------13--13------|
F#---------10--10--12----------------------12----------------------|
C#---------------------12--12--------------------------------------|
G#-----------------------------------------------------------------|
C#-----------------------------------------------------------------|

===================================================================

Guitar 1
D#-----------------------------------------------------------------|
A#-----------------------------------------------------------------|
F#-----------------------------------------------------------------|
C#-5---5---5---5---5---5---5---5---8---8---8---8---8---8---8---8---|
G#-5---5---5---5---5---5---5---5---8---8---8---8---8---8---8---8---|
C#-5---5---5---5---5---5---5---5---8---8---8---8---8---8---8---8---|

Guitar 2
D#-----------------------------------------------------------------|
A#-11--10--------------------------11--10----------------------10--|
F#---------10--10--12----------------------10--10--12--12--12------|
C#-------------------------12--------------------------------------|
G#-----------------------------------------------------------------|
C#-----------------------------------------------------------------|

===================================================================

Guitar 1
D#-----------------------------------------------------------------|
A#-----------------------------------------------------------------|
F#-----------------------------------------------------------------|
C#-----------------------------------------------------------------|
G#-----------------5---------------8---8---8---7---7---------------|
C#-0---0-0-0---0-------0-0-0---0-----------------------7---7---8---|

Guitar 2
D#-----12--13------13--15------15--17------17--18--17~~~~~~\~~~~~~-|
A#-15----------15----------15----------15--------------------------|
F#-----------------------------------------------------------------|
C#-----------------------------------------------------------------|
G#-----------------------------------------------------------------|
C#-----------------------------------------------------------------|

===================================================================


Guitar 1
D#-----------------------------------------------------------------|
A#-----------------------------------------------------------------|
F#-----------------------------------------------------------------|
C#-5---5---5---5---5---5---5---5---8---8---8---8---8---8---8---8---|
G#-5---5---5---5---5---5---5---5---8---8---8---8---8---8---8---8---|
C#-5---5---5---5---5---5---5---5---8---8---8---8---8---8---8---8---|

Guitar 2
D#-----------------------------------------------------------------|
A#-11--10--------------------------11--10--------------------------|
F#---------10--10--12----------------------10--10--12--------------|
C#-------------------------12------------------------------12------|
G#-----------------------------------------------------------------|
C#-----------------------------------------------------------------|

===================================================================

Guitar 1
D#-----------------------------------------------------------------|
A#-----------------------------------------------------------------|
F#---------------------------------5---5---5---5---5---5---5---5---|
C#-0---0---0---0---0---0---0---0---5---5---5---5---5---5---5---5---|
G#-0---0---0---0---0---0---0---0---3---3---3---3---3---3---3---3---|
C#-0---0---0---0---0---0---0---0-----------------------------------|

Guitar 2
D#---------------------------------------------10--12--------------|
A#-11--10--------------------------11--10--------------13--13------|
F#---------10--10--12----------------------12----------------------|
C#---------------------12--12--------------------------------------|
G#-----------------------------------------------------------------|
C#-----------------------------------------------------------------|

===================================================================

Guitar 1
D#-----------------------------------------------------------------|
A#-----------------------------------------------------------------|
F#-----------------------------------------------------------------|
C#-5---5---5---5---5---5---5---5---5---5---5---5---5---3---3---3---|
G#-5---5---5---5---5---5---5---5---5---5---5---5---5---3---3---3---|
C#-5---5---5---5---5---5---5---5---5---5---5---5---5---3---3---3---|

Guitar 2
D#-----------------------------------------------------------------|
A#-11--10--------------------------11--10--------------------------|
F#---------10--10--12----------------------10--10--12--------------|
C#-------------------------12------------------------------12------|
G#-----------------------------------------------------------------|
C#-----------------------------------------------------------------|

===================================================================

Guitar 1
D#-----------------------------------------------------------------|
A#-----------------------------------------------------------------|
F#-----------------------------------------------------------------|
C#-7---7---7---7---7---7---7---7-----------------------------------|
G#-7---7---7---7---7---7---7---7-----------------------------------|
C#-7---7---7---7---7---7---7---7---7---7---7---7---7---7---7---7---|

Guitar 2
D#-----------------------------------------------------------------|
A#-11--10------10------11------------------------------------------|
F#---------10------10------10--10--7---10--7---10--6---9---6---9---|
C#-----------------------------------------------------------------|
G#-----------------------------------------------------------------|
C#-----------------------------------------------------------------|

===================================================================
===================================================================


Interlude

Guitar 1
D#-----------------------------------------------------------------|
A#-----------------------------------------------------------------|
F#-----------------------------------------------------------------|
C#-7---------------7-----------7-----------7-----------------------|
G#-----------------------------------------------------------------|
C#---8-7-0-----------8-7-0-------8-7-0-------8-7-0-------8~~-8-8~~-|

Guitar 2
D#-----------------------------------------------------------------|
A#-----------------------------------------------------------------|
F#-------------------------2-3-2-0-------------0~~-2~~-0~~-2~~-0~~-|
C#-----0~~-0~~-----3~~~~~~---------0~~-2~~-3~~---------------------|
G#-3~~~~~~~~~~-7~~~~~~-7~~~----------------------------------------|
C#-----------------------------------------------------------------|

===================================================================

Guitar 1
D#-----------------------------------------------------------------|
A#-----------------------------------------------------------------|
F#-----------------------------------------------------------------|
C#-7---------------7-----------7-----------3-2-----------3~~-------|
G#---------------------------------------------3-5-----------------|
C#---8-7-0-----------8-7-0-------8-7-0-----------------------3-3~~-|

Guitar 2
D#-------------------------0~~-------------------------15~~~~~~\~~-|
A#-5-6-5---------------6~~~~~~-----------------11~~~~~-------------|
F#-------7-7---------------------------12~-14~~~~~-14~-------------|
C#-----------5-7~~-5~~-------------11~-----------------------------|
G#-----------------------------12~---------------------------------|
C#-----------------------------------------------------------------|

===================================================================

Guitar 1
D#-----------------------------------------------------------------|
A#-----------------------------------------------------------------|
F#-----------------------------------------------------------------|
C#-7---------------7-----------7-----------7-----------------------|
G#-----------------------------------------------------------------|
C#---8-7-0-----------8-7-0-------8-7-0-------8-7-0-------8~~-8-8~~-|

Guitar 2
D#-----------------------------------------------------------------|
A#-----------------------------------------------------------------|
F#-------------------------2-3-2-0-------------0~~-2~~-0~~-2~~-0~~-|
C#-----0~~-0~~-----3~~~~~~---------0~~-2~~-3~~---------------------|
G#-3~~~~~~~~~~-7~~~~~~-7~~~----------------------------------------|
C#-----------------------------------------------------------------|

===================================================================

Guitar 1
D#-----------------------------------------------------------------|
A#-----------------------------------------------------------------|
F#-----------------------------------------------------------------|
C#-7---------------7-----------7-----------3-2---------------------|
G#---------------------------------------------3-5-----------------|
C#---8-7-0-----------8-7-0-------8-7-0-----------------------------|

Guitar 2
D#-------------------------9~~-12~-12-13-12-10-----------------------------|
A#-5-6-5---------------8~~---------------------14-11-10----11~~~~~-11~~~~~-|
F#-------7-7--------------------------------------------12-----12~~~~~-12~-|
C#-----------5-8~~-7~~-----------------------------------------------------|
G#-------------------------------------------------------------------------|
C#-------------------------------------------------------------------------|

===================================================================
===================================================================


Breakdown 3

Guitar 1 & 2
D#-----------------------------------------------------------------|
A#-----------------------------------------------------------------|
F#-----------------------------------------------------------------|
C#-0-0-0-0---------0-0-0-0-----0-0-0-0-----0-0-0-0-----------------|
G#-0-0-0-0---------0-0-0-0-----0-0-0-0-----0-0-0-0-----------------|
C#-0-0-0-0---------0-0-0-0-----0-0-0-0-----0-0-0-0-----------------|
Pm . . . .         . . . .     . . . .     . . . .

===================================================================

Guitar 1 & 2
D#-----------------------------------------------------------------|
A#-----------------------------------------------------------------|
F#-----------------------------------------------------------------|
C#-0-0-0-0-----0-0-0---0-0-0-0-----0-0-0---0-0-0-0-----------------|
G#-0-0-0-0-----0-0-0---0-0-0-0-----0-0-0---0-0-0-0-----------------|
C#-0-0-0-0-----0-0-0---0-0-0-0-----0-0-0---0-0-0-0-----3---3b--3b--|
Pm . . . .     . . .   . . . .     . . .   . . . .

===================================================================

Guitar 1 & 2
D#-----------------------------------------------------------------|
A#-----------------------------------------------------------------|
F#-----------------------------------------------------------------|
C#-0-0-0-0~~~~~~~~-0-0-0-0~~~~-0-0-0-0~~~~-0-0-0-0~~~~~~~~~~~~~~~~-|
G#-0-0-0-0~~~~~~~~-0-0-0-0~~~~-0-0-0-0~~~~-0-0-0-0~~~~~~~~~~~~~~~~-|
C#-0-0-0-0~~~~~~~~-0-0-0-0~~~~-0-0-0-0~~~~-0-0-0-0~~~~~~~~~~~~~~~~-|
Pm . . . .         . . . .     . . . .     . . . .

===================================================================

Guitar 1 & 2
D#-----------------------------------------------------------------|
A#-----------------------------------------------------------------|
F#-----------------------------------------------------------------|
C#-0-0-0-0---------0-0-0-0-----0-0-0-0-----0-0-0-0-0---------------|
G#-0-0-0-0---------0-0-0-0-----0-0-0-0-----0-0-0-0-0---------------|
C#-0-0-0-0---------0-0-0-0-----0-0-0-0-----0-0-0-0-0---------------|
Pm . . . .         . . . .     . . . .     . . . . .

===================================================================
===================================================================


Pre Chorus 3

Guitar 1
D#-----------------------------------------------------------------|
A#-----------------------------------------------------------------|
F#-----------------------------------------------------------------|
C#-----------------------------------------------------------------|
G#-----------------------------------------------------------------|
C#-5~~~~~~-5---5---5---5---5---5---8---8---8---8---8---8---8---8---|

Guitar 2
D#-----------------------------------------------------------------|
A#-----------------------------------------------------------------|
F#-----------------------------------------------------------------|
C#-----------------------------------------------------------------|
G#-----------------------------------------5---------------5-------|
C#-----5---8---5-------5---8---5-------8-------8-------8-------8---|
Pm     .   .   .       .   .   .       .   .   .       .   .   .

===================================================================

Guitar 1
D#-----------------------------------------------------------------|
A#-----------------------------------------------------------------|
F#-----------------------------------------------------------------|
C#-----------------------------------------------------------------|
G#---------------------------------3---3---3---3---3---3---3---3---|
C#-0---0---0---0---0---0---0---0-----------------------------------|

Guitar 2
D#-----------------------------------------------------------------|
A#-----------------------------------------------------------------|
F#-----------------------------------------------------------------|
C#---------7---------------7-------------------------------7-------|
G#-----8-------8-------8-------8-----------7-----------8-------8---|
C#-------------------------------------10------10------------------|
Pm     .   .   .       .   .   .       .   .   .       .   .   .

===================================================================

Guitar 1
D#-----------------------------------------------------------------|
A#-----------------------------------------------------------------|
F#-----------------------------------------------------------------|
C#-----------------------------------------------------------------|
G#-----------------------------------------------------------------|
C#-5~~~~~~-5---5---5---5---5---5---8---8---8---8---8---8---8---8---|

Guitar 2
D#-----------------------------------------------------------------|
A#-----------------------------------------------------------------|
F#-----------------------------------------------------------------|
C#-----------------------------------------------------------------|
G#-----------------------------------------5---------------5-------|
C#-----5---8---5-------5---8---5-------8-------8-------8-------8---|
Pm     .   .   .       .   .   .       .   .   .       .   .   .

===================================================================

Guitar 1
D#-----------------------------------------------------------------|
A#-----------------------------------------------------------------|
F#-----------------------------------------------------------------|
C#-----------------------------------------------------------------|
G#-----------------------------------------------------------------|
C#-0~~~~~~~~~~~~~~~~~~~~~~~~~~~~~~~~~~~~~~~~~~~~~~~~~~~~~~~~~~~~~~-

Guitar 2 (Fade In)
D#-----------------------------------------------------------------|
A#-----------------------------------------------------------------|
F#-----------------------------------------------------------------|
C#-0~~~~~~~~~~~~~~~~~~~~~~~~~~~~~~~~~~~~~~~~~~~~~~~~~~~~~~~~~~~~~~-
G#-0~~~~~~~~~~~~~~~~~~~~~~~~~~~~~~~~~~~~~~~~~~~~~~~~~~~~~~~~~~~~~~-
C#-0~~~~~~~~~~~~~~~~~~~~~~~~~~~~~~~~~~~~~~~~~~~~~~~~~~~~~~~~~~~~~~-

===================================================================
===================================================================


Chorus

Guitar 1
D#-----------------------------------------------------------------|
A#-----------------------------------------------------------------|
F#-----------------------------------------------------------------|
C#-5---5---5---5---5---5---5---5---8---8---8---8---8---8---8---8---|
G#-5---5---5---5---5---5---5---5---8---8---8---8---8---8---8---8---|
C#-5---5---5---5---5---5---5---5---8---8---8---8---8---8---8---8---|

Guitar 2
D#-----------------------------------------------------------------|
A#-11--10--------------------------11--10--------------------------|
F#---------10--10--12----------------------10--10--12--------------|
C#-------------------------12------------------------------12------|
G#-----------------------------------------------------------------|
C#-----------------------------------------------------------------|

===================================================================

Guitar 1
D#-----------------------------------------------------------------|
A#-----------------------------------------------------------------|
F#---------------------------------5---5---5---5---5---5---5---5---|
C#-0---0---0---0---0---0---0---0---5---5---5---5---5---5---5---5---|
G#-0---0---0---0---0---0---0---0---3---3---3---3---3---3---3---3---|
C#-0---0---0---0---0---0---0---0-----------------------------------|

Guitar 2
D#---------------------------------------------10--12--------------|
A#-11--10--------------------------11--10--------------13--13------|
F#---------10--10--12----------------------12----------------------|
C#---------------------12--12--------------------------------------|
G#-----------------------------------------------------------------|
C#-----------------------------------------------------------------|

===================================================================

Guitar 1
D#-----------------------------------------------------------------|
A#-----------------------------------------------------------------|
F#-----------------------------------------------------------------|
C#-5---5---5---5---5---5---5---5---8---8---8---8---8---8---8---8---|
G#-5---5---5---5---5---5---5---5---8---8---8---8---8---8---8---8---|
C#-5---5---5---5---5---5---5---5---8---8---8---8---8---8---8---8---|

Guitar 2
D#-----------------------------------------------------------------|
A#-11--10--------------------------11--10----------------------10--|
F#---------10--10--12----------------------10--10--12--12--12------|
C#-------------------------12--------------------------------------|
G#-----------------------------------------------------------------|
C#-----------------------------------------------------------------|

===================================================================

Guitar 1
D#-----------------------------------------------------------------|
A#-----------------------------------------------------------------|
F#-----------------------------------------------------------------|
C#-----------------------------------------------------------------|
G#-----------------5---------------8---8---8---7---7---------------|
C#-0---0-0-0---0-------0-0-0---0-----------------------7---7---8---|

Guitar 2
D#-----12--13------13--15------15--17------17--18--17~~~~~~\~~~~~~-|
A#-15----------15----------15----------15--------------------------|
F#-----------------------------------------------------------------|
C#-----------------------------------------------------------------|
G#-----------------------------------------------------------------|
C#-----------------------------------------------------------------|

===================================================================


Guitar 1
D#-----------------------------------------------------------------|
A#-----------------------------------------------------------------|
F#-----------------------------------------------------------------|
C#-5---5---5---5---5---5---5---5---8---8---8---8---8---8---8---8---|
G#-5---5---5---5---5---5---5---5---8---8---8---8---8---8---8---8---|
C#-5---5---5---5---5---5---5---5---8---8---8---8---8---8---8---8---|

Guitar 2
D#-----------------------------------------------------------------|
A#-11--10--------------------------11--10--------------------------|
F#---------10--10--12----------------------10--10--12--------------|
C#-------------------------12------------------------------12------|
G#-----------------------------------------------------------------|
C#-----------------------------------------------------------------|

===================================================================

Guitar 1
D#-----------------------------------------------------------------|
A#-----------------------------------------------------------------|
F#---------------------------------5---5---5---5---5---5---5---5---|
C#-0---0---0---0---0---0---0---0---5---5---5---5---5---5---5---5---|
G#-0---0---0---0---0---0---0---0---3---3---3---3---3---3---3---3---|
C#-0---0---0---0---0---0---0---0-----------------------------------|

Guitar 2
D#---------------------------------------------10--12--------------|
A#-11--10--------------------------11--10--------------13--13------|
F#---------10--10--12----------------------12----------------------|
C#---------------------12--12--------------------------------------|
G#-----------------------------------------------------------------|
C#-----------------------------------------------------------------|

===================================================================

Guitar 1
D#-----------------------------------------------------------------|
A#-----------------------------------------------------------------|
F#-----------------------------------------------------------------|
C#-5---5---5---5---5---5---5---5---5---5---5---5---5---3---3---3---|
G#-5---5---5---5---5---5---5---5---5---5---5---5---5---3---3---3---|
C#-5---5---5---5---5---5---5---5---5---5---5---5---5---3---3---3---|

Guitar 2
D#-----------------------------------------------------------------|
A#-11--10--------------------------11--10--------------------------|
F#---------10--10--12----------------------10--10--12--------------|
C#-------------------------12------------------------------12------|
G#-----------------------------------------------------------------|
C#-----------------------------------------------------------------|

===================================================================

Guitar 1
D#-----------------------------------------------------------------|
A#-----------------------------------------------------------------|
F#-----------------------------------------------------------------|
C#-7---7---7---7---7---7---7---7---7---7---7---7---7---7---7---7---|
G#-7---7---7---7---7---7---7---7---7---7---7---7---7---7---7---7---|
C#-7---7---7---7---7---7---7---7---7---7---7---7---7---7---7---7---|

Guitar 2
D#-----------------------------------------------------------------|
A#-11--10------10------11------------------------------------------|
F#---------10------10------10--10--7---10--7---10--6---9---6---9---|
C#-----------------------------------------------------------------|
G#-----------------------------------------------------------------|
C#-----------------------------------------------------------------|

===================================================================
===================================================================


Bridge

Guitar 1 & 2
D#-----------------------------------------------------------------|
A#-----------------------------------------------------------------|
F#-----------------------------------------------------------------|
C#-0~~~~~~~~~~~~~~~~~~~~~~~~~~~~~~~~~~~~~~~~~~~~~~~~~~~~~~~~~~~~~~-
G#-0~~~~~~~~~~~~~~~~~~~~~~~~~~~~~~~~~~~~~~~~~~~~~~~~~~~~~~~~~~~~~~-
C#-0~~~~~~~~~~~~~~~~~~~~~~~~~~~~~~~~~~~~~~~~~~~~~~~~~~~~~~~~~~~~~~-

===================================================================

Guitar 1
D#-13~~~~~~~~~~~~~~~~~~~~~~~~~~~~~---------------------------------|
A#---15~~~~~~~~~~~~~~~~~~~~~~~~~~~---------------------------------|
F#-----14~~~~~~~~~~~~~~~~~~~~~~~~~---------------------------------|
C#-------0~~~~~~~~~~~~~~~~~~~~~~~~-0---0---0---0---0----0----0-----|
G#---------0~~~~~~~~~~~~~~~~~~~~~~-0---0---0---0---0----0----0-----|
C#-----------0~~~~~~~~~~~~~~~~~~~~-0---0---0---0---0----0----0-----|
Pm                                 .   .   .   .   .    .    .

Guitar 2
D#-13~~~~~~~~~~~~~~~~~~~~~~~~~~~~~---------------------------------|
A#---15~~~~~~~~~~~~~~~~~~~~~~~~~~~---------------------------------|
F#-----14~~~~~~~~~~~~~~~~~~~~~~~~~---------------------------------|
C#-------0~~~~~~~~~~~~~~~~~~~~~~~~---------------------------------|
G#---------0~~~~~~~~~~~~~~~~~~~~~~---------------------------------|
C#-----------0~~~~~~~~~~~~~~~~~~~~---------------------------------|

===================================================================
===================================================================


Outro

Guitar 1
D#-----------------------------------------------------------------|
A#-----------------------------------------------------------------|
F#-----------------------------------------------------------------|
C#-0---0-0---0-0---0---0-0-0---0-0-0---0-0---0-0---0---0-0-0-------|
G#-0---0-0---0-0---0---0-0-0---0-0-0---0-0---0-0---0---0-0-0-------|
C#-0---0-0---0-0---0---0-0-0---0-0-0---0-0---0-0---0---0-0-0---0-5-|
Pm .   . .   . .   .   . . .   . . .   . .   . .   .   . . .

Guitar 2
D#-----------------------------------------------------------------|
A#-11~~~-10~~~---------------------11~~~-10~~~---------------------|
F#-----------------------------------------------------------------|
C#-------------12~~~~~~~~~~~~~~~~~-------------12~~~~~~~~~~~~~~~~~-|
G#-----------------------------------------------------------------|
C#-----------------------------------------------------------------|

===================================================================

Guitar 1
D#-----------------------------------------------------------------|
A#-----------------------------------------------------------------|
F#-----------------------------------------------------------------|
C#-0---0-0---0-0---0---0-0-0---0-0-0---0-0---0-0---0---0-0-0---0-0-|
G#-0---0-0---0-0---0---0-0-0---0-0-0---0-0---0-0---0---0-0-0---0-0-|
C#-0---0-0---0-0---0---0-0-0---0-0-0---0-0---0-0---0---0-0-0---0-0-|
Pm .   . .   . .   .   . . .   . . .   . .   . .   .   . . .

Guitar 2
D#-----------------------------------------------------------------|
A#-11~~~-10~~~---------------------11~~~-10~~~---------------------|
F#-----------------------------------------------------------------|
C#-------------12~~~~~~~~~~~~~~~~~-------------12~~~~~~~~~~~~~-0-0-|
G#-------------------------------------------------------------0-0-|
C#-------------------------------------------------------------0-0-|

===================================================================

Guitar 1 & 2
D#-----------------------------------------------------------------|
A#-----------------------------------------------------------------|
F#-----------------------------------------------------------------|
C#-0---------------------------------------------------------------|
G#-0---------------------------------------------------------------|
C#-0---------------------------------------------------------------|

===================================================================
===================================================================
===================================================================


Tab Legend
h  - hammer-on
p  - pull-off
/  - slide up
\  - slide down
ps/- pickslide up
ps\- pickslide down
~  - let ring
pm.- palm mute
b  - bend
r  - return from bend
t  - finger tapping
*  - harmonic
x  - dead note
^  - Whammy bar
^\ - Whammy bar (hold down)

That’s it! I hope this helped, and be sure to check out my cover if you are
having problems with the tab. Thanks, oh and one last thing... ROCK OUT!!!!
comments
print report bad tab
I want to post or [tab]
guest
You may want to rate the tab now too:
select rating
Please do not post tabs as comments. Select "correction" instead!