Oops, an error
Loading. Please wait.

Finally Home Bass Tab

259 views 3 this week
no commentswrite comment
1 2 3 4 5
please rate
add to favorites launch autoscroll
font size
0
reset
Autoscroll
+/-
esc
set tempo
stop
Contributor
Difficulty
WARNING: You are trying to view
                                    content from Ultimate-Guitar.com
                                    in an unauthorized application,
                                    which is prohibited.

                                    Please use an official Ultimate
                                    Guitar Tabs application for iPhone,
                                    iPad or Android to access legitimate
                                    chords, guitar, bass, and drum tabs
                                    from Ultimate-Guitar.com database.

                                    Type "ultimate guitar tabs" in Apple
                                    App Store's or Android Market's
                                    search to find the application.
Haven't seen a Bass tab for this song yet, so as my first tab I am doing this one. Great 
song btw!

Tuning: Standard

All notes are quarter notes!

INTRO:

G|-------------------------------------------------|
D|-------------------------------------------------| 2X
A|0--0--0--0--0--0--0--0---------------------------|
E|------------------------0--0--0--0--0--0--0--0---|

Verse 1:

G|-------------------------------------------------|
D|-------------------------------------------------| 2X
A|4--4--4--4--0--0--0--0---------------------------|
E|------------------------0--0--0--0--0--0--0--0---|

Pre-Chorus:

G|-------------------------------------------------|
D|-------------------------------------------------|
A|2--2--2--2--0--0--0--0---------------------------|
E|------------------------0--0--0--0--0--0--0--0---|

Chorus:

G|-------------------------------------------------|
D|-------------------------------------------------|
A|0--0--0--0--0--0--0--0--7--7--7--7--7--7--7--7---|
E|-------------------------------------------------|

G|-------------------------------------------------|
D|-------------------------------------------------|
A|0--0--0--0--0--0--0--0---------------------------|
E|------------------------0--0--0--0--0--0--0--0---|

Verse 2:

G|-------------------------------------------------|
D|-------------------------------------------------| 2X
A|4--4--4--4--0--0--0--0---------------------------|
E|------------------------0--0--0--0--0--0--0--0---|

Pre-Chorus 2:

G|-------------------------------------------------|
D|-------------------------------------------------|
A|2--2--2--2--0--0--0--0---------------------------|
E|------------------------0--0--0--0--0--0--0--0---|

Chorus:

G|-------------------------------------------------|
D|-------------------------------------------------|
A|0--0--0--0--0--0--0--0--7--7--7--7--7--7--7--7---|
E|-------------------------------------------------|

G|-------------------------------------------------|
D|-------------------------------------------------|
A|0--0--0--0--0--0--0--0---------------------------|
E|------------------------0--0--0--0--0--0--0--0---|

Bridge:

G|-------------------------------------------------|
D|-------------------------------------------------| 2X
A|2--2--2--2--0--0--0--0---------------------------|
E|------------------------0--0--0--0--0--0--0--0---|

Chorus:

G|-------------------------------------------------|
D|-------------------------------------------------|
A|0--0--0--0--0--0--0--0--7--7--7--7--7--7--7--7---|
E|-------------------------------------------------|

G|-------------------------------------------------|
D|-------------------------------------------------|
A|0--0--0--0--0--0--0--0---------------------------|
E|------------------------0--0--0--0--0--0--0--0---|

Outro:

G|-----------------------------------------|
D|-----------------------------------------| END
A|0--0--0--0--0--0--0--0--7----------------|
E|-----------------------------------------|



Thanks for viewing this! You could play this song all on the E string, but I changed it 
up a little. Novice!

BTW, for the chorus the second note (7) on the A string or (0) on the E string can be 
played high or low, depends on how you like it.
I just made the tab how I play it.

Have a great day!
comments
We did not receive enough feedback on this tab! Please rate:
print report bad tab
1 2 3 4 5
I want to post or [tab]
guest
You may want to rate the tab now too:
select rating
Please do not post tabs as comments. Select "correction" instead!