Oops, an error
Loading. Please wait.

Dont Break The Oath Tab

3,628 views 6 this week
no commentswrite comment
1 2 3 4 5
excellent!
x 2
Autoscroll
+/-
esc
set tempo
stop
Contributor
Difficulty
advanced
Hey! There's an official Ultimate Guitar app which is ideal
for learning songs when you're away from computer. Get the app
WARNING: You are trying to view
                                    content from Ultimate-Guitar.com
                                    in an unauthorized application,
                                    which is prohibited.

                                    Please use an official Ultimate
                                    Guitar Tabs application for iPhone,
                                    iPad or Android to access legitimate
                                    chords, guitar, bass, and drum tabs
                                    from Ultimate-Guitar.com database.

                                    Type "ultimate guitar tabs" in Apple
                                    App Store's or Android Market's
                                    search to find the application.
Band: Mercyful Fate
Album: Don't Break the Oath

Track Listing:
1. A Dangerous Meeting
2. Nightmare
3. Desecration of Souls
4. Night of the Unborn
5. The Oath
6. Gypsy
7. Welcome Princes of Hell
8. To One Far Away
9. Come to the Sabbath

----------------------------------

1. A Dangerous Meeting

e-|--------------|-----------------|-----------------|
B-|--------------|-----------------|-----------------|
G-|--------------|-----------------|-----------------|
D-|--------------|-----------------|-----------------|
A-|--------------|-----------------|-----------------|
E-|-12\----------|-0-0-0-0-0-0-0-0-|-0-0-0-0-0-0-0-0-|
        long slide
e-|-----------------|---------------|--------------|
B-|-----------------|---------------|--------------|
G-|-----------------|---------------|--------------|
D-|-----------------|---------------|---------4~~~-|          
A-|-----------------|---------------|---------5----|
E-|-0-0-0-0-0-0-0-0-|--0-0-0-0-3~~~-|-0-0-0-0------|
                    |1.             |2.
e-|--------------------------------------|---------------|---|
B-|--------------------------------------|---------------|---|
G-|--------------------------------------|---------------|---|
D-|--9-7---------7-6--------12-11--------|-14-12---------|-7-|
A-|--7-5---------5-4--------10-9---------|-12-10---------|-5-|
E-|------0-0-0-0-----0-0-0-0-----0-0-0-0-|-------0-0-0-0-|---| 
                                         |1.             |2.

Main Riff:(play 3 times under solo)
e-|---------------------|-------------------------------------|
B-|---------------------|-------------------------------------|
G-|-----------------0-0-|-------------------------------------|
D-|-2-----2-----2---0-0-|-2-----2-----2-----------------------|
A-|-2-----2-----2---x-x-|-2-----2-----2---------0-2-3-2-0-----|
E-|-0-0-0-0-0-0-0-0-3-3-|-0-0-0-0-0-0-0-0-3-2-3---------------|
      ' '   ' '   '         ' '   ' '   ' ' ' ' ' ' ' ' '

   (Play 4 times with lyrics)
e-|---------------------|-------------------------------------|
B-|---------------------|-------------------------------------|
G-|-----------------0-0-|-------------------------------------|
D-|-2-----2-----2---0-0-|-2-----2-----2-----------------------|
A-|-2-----2-----2---x-x-|-2-----2-----2---------0-2-3-2-0-----|
E-|-0-0-0-0-0-0-0-0-3-3-|-0-0-0-0-0-0-0-0-3-2-3---------------|
      ' '   ' '   '         ' '   ' '   ' ' ' ' ' ' ' ' '
    Tonight   the    Circle is  Meeting Again......
    Who will  be  the  first to fall in trance.....
    In here     nobody   is   sensing the  Rain.... 
    Tonight   a    Spirit   will   glance........


e-|--------------------------------------|---------------|---|
B-|--------------------------------------|---------------|---|
G-|--------------------------------------|---------------|---|
D-|--9-7---------7-6--------12-11--------|-14-12---------|-7-|
A-|--7-5---------5-4--------10-9---------|-12-10---------|-5-|
E-|------0-0-0-0-----0-0-0-0-----0-0-0-0-|-------0-0-0-0-|---| 
                                         |1.             |2.

   (Play 4 times with lyrics)
e-|---------------------|-------------------------------------|
B-|---------------------|-------------------------------------|
G-|-----------------0-0-|-------------------------------------|
D-|-2-----2-----2---0-0-|-2-----2-----2-----------------------|
A-|-2-----2-----2---x-x-|-2-----2-----2---------0-2-3-2-0-----|
E-|-0-0-0-0-0-0-0-0-3-3-|-0-0-0-0-0-0-0-0-3-2-3---------------|
      ' '   ' '   '         ' '   ' '   ' ' ' ' ' ' ' ' '
    So as    they're  approaching  Ghostly Hour.... 
    Seven  People  here    are joining  Hands..... 
    They think  they  know the Spirit to appear... 
    Contact,  the   Table   starts to  dance......
  
   
e-|-{Guitar-1}-------|-------|---------------------|-----------|
B-|------------------|-------|---------------------|-----------|
G-|-5----------------|-2-----|-----------5---------|--7--------|
D-|-5----------------|-2-----|--5--------5---------|--7--------|
A-|-3----------------|-0-----|--5--------3---------|--5--------|
E-|------------------|-------|--3------------------|-----------|
  | Time is standing still It's a dangerous Meeting... 
e-|-{guitar-2}-{pinch harmonics on all notes}----|------------|
B-|-----------------|-----------|---------8~-7-8-|-7~~-7------|
G-|-4-5~~-4h5p4-----|-4-5p4--4-5|-----7~~--------|--------8~~-|
D-|-------------7-5-|------7----|-5~~------------|------------|
A-|-----------------|-----------|----------------|------------|
E-|-----------------|-----------|----------------|------------|


e-|----------------------------------------------------|
B-|----------------------------------------------------|
G-|-7----9----7------9----9----7----9------------------|
D-|-7----9----7------9----9----7----9------------------|
A-|-5----7----5------7----7----5----7------------------|
E-|----------------------------------------------------|
   They're gonna get themselves killed 

 rythm under solo (4x)
e-|------------------------------------------|-----------------|
B-|------------------------------------------|-----------------|
G-|--9--9--7--9------------------------------|-----------------|
D-|--9--9--7--9---------9----10-----7-7---5--|--10-9-9--7-9-7--|
A-|--7--7--5--7---------9----10-----7-7---5--|--10-9-9--5-7-5--|
E-|-------------0-0-0-0-7-0-0-8-0-0-5-5-0-3--|---8-7-7---------|
                ' ' ' '   ' '   ' '     '    |1.,2.,3.  ' ' ' 

e-|----------------------|---------------|
B-|----------------------|---------------|
G-|----------------------|---------------|
D-|-10-9-----------------|--2p0----------|
A-|-10-9-9-9-9-9-9-9-9-9-|------2p0------|
E-|--8-7-7-7-7-7-7-7-7-7-|----------2p0--|
  |4.    ' ' ' ' ' ' ' '

e-|-------------------------------------------------------------|
B-|-------------------------------------------------------------|
G-|-------------------------------------------------------------|
D-|--9-7-------7-6--------12-11-------14-12-------9-7------7-6--|
A-|--7-5-------5-4--------10-9--------12-10-------7-5------5-4--|
E-|------0-0---------0-0--------0-0----------0-0-------0-0------| 
                                                      

e-|----3p0-----------------------|------------------------------|
B-|--------3-3h5p3h5p3h5-(trill)-|-10-8-------------------------|
G-|------------------------------|------9-8-7-------------------|
D-|------------------------------|------------9-5---------------|
A-|------------------------------|----------------7-6-5---------|
E-|-5~~--------------------------|----------------------7-6-5-3-|
  |1.                            |2.                    ' ' ' '

e-|---------------------------------|-----------------------|
B-|---------------------------------|-----------------------|
G-|-----------------0-----------0-0-|-----------------------|
D-|-2-----2-----2---0-----------0-0-|-2-----2-----2---------|
A-|-2-----2-----2---x--x-x-x-x--x-x-|-2-----2-----2---------|
E-|-0-0-0-0-0-0-0-0-3--x-x-x-x--3-3-|-0-0-0-0-0-0-0--3-2-3--|
      ' '   ' '   '                     ' '   ' '   

e-|----------------|
B-|----------------|
G-|----------------|
D-|----------------|
A-|-0-2-3-2--------|
E-|---------3-2-0--|


e-|---------------------|-------------------------------------|
B-|---------------------|-------------------------------------|
G-|-----------------0-0-|-------------------------------------|
D-|-2-----2-----2---0-0-|-2-----2-----2-----------------------|
A-|-2-----2-----2---x-x-|-2-----2-----2---------0-2-3-2-0-----|
E-|-0-0-0-0-0-0-0-0-3-3-|-0-0-0-0-0-0-0-0-3-2-3---------------|
      ' '   ' '   '         ' '   ' '   ' ' ' ' ' ' ' ' '
    Tonight    the    Circle   is    broken Forever.. 
    Seven   People    dead   within  a    Trance ....
    In  here   nobody   is  sensing  the   Rain .....
    Tonight    seven   Souls  are   reaching  Hell...

e-|-{Guitar-1}-------|-------|---------------------|-----------|
B-|------------------|-------|---------------------|-----------|
G-|-5----------------|-2-----|-----------5---------|--7--------|
D-|-5----------------|-2-----|--5--------5---------|--7--------|
A-|-3----------------|-0-----|--5--------3---------|--5--------|
E-|------------------|-------|--3------------------|-----------|
  | Time is standing still    the    meeting    is over... 
e-|-{guitar-2}-{pinch harmonics on all notes}----|------------|
B-|-----------------|-----------|---------8~-7-8-|-7~~-7------|
G-|-4-5~~-4h5p4-----|-4-5p4--4-5|-----7~~--------|--------8~~-|
D-|-------------7-5-|------7----|-5~~------------|------------|
A-|-----------------|-----------|----------------|------------|
E-|-----------------|-----------|----------------|------------|


e-|--------------|----------------------(2 times)-|
B-|--------------|--------------------------------|
G-|-(7)-4-4-4-4--|--------------------------------|
D-|-(7)-4-4-4-4--|--------------------------------|
A-|-(5)-2-2-2-2--|---2-0----------7p5---7--10-----|
E-|--------------|-0-----3-0-3~~0-----7-5-0-8-----|
        ' ' ' '                           '
   ...Their Journey is on (noise........)

e-|---(3 times)-----------------------|------------------------|
B-|-----------------------------------|------------------------|
G-|-----------------------------------|------------------------|
D-|------5------4------5-------5------|------5-----4-4---------|
A-|------7------5------7-7p5----------|------7-----5-5-----3-0-|
E-|-0-0-0--0-0-0--0-0-0------7---3~~0-|-0-0-0-0-0-0---3-4-5----|
e-|-----------------------------------|
B-|-----------------------------------|
G-|------------------------------2--2-|
D-|-------5-------4-4------------3--3-|
A-|-------7-------5-5-------3-0-------|
E-|-0-0-0---0-0-0-----3-4-5-----------|

e-|-(play 4x)-----------------|-----------|---------------------|
B-|---------------------------|-----------|---------------------|
G-|---------------------------|-----------|---------------------|
D-|---------------------------|-----------|---------------------|
A-|--------7-------7-------7--|-7p5-------|---------------------|
E-|--0-0-0---0-0-0---0-0-0----|-----7-6-5-|---5--7-7-7-7--5--3--|
     ' ' '   ' ' '   ' ' '    |1.         |2. '  ' ' ' '  '  '
   Oh, they should have known 
   Not to play with the Powers of Hell 

e-|--(play 2x)-------------------|------------------------------|
B-|------------------------------|------------------------------|
G-|----------2--4--------------4-|----------2--4-----------5--4-|
D-|-2--4--5--2--4--2--2--4--5--4-|-2--4--5--2--4--2--2--4--5--4-|
A-|-2--4--5--0--2--2--2--4--5--2-|-2--4--5--0--2--2--2--4--3--2-|
E-|-0--2--3--------0--0--2--3----|-0--2--3--------0--0--2-------|


e-|---------------------|-------------------------------------|
B-|---------------------|-------------------------------------|
G-|-----------------0-0-|-------------------------------------|
D-|-2-----2-----2---0-0-|-2-----2-----2-----------------------|
A-|-2-----2-----2---x-x-|-2-----2-----2---------0-2-3-2-0-----|
E-|-0-0-0-0-0-0-0-0-3-3-|-0-0-0-0-0-0-0-0-3-2-3---------------|
      ' '   ' '   '         ' '   ' '   ' ' ' ' ' ' ' ' '
     
e-|---------------------|-------------------------------------|
B-|---------------------|-------------------------------------|
G-|-----------------0-0-|-------------------------------------|
D-|-2-----2-----2---0-0-|-2-----2-----2-----------------------|
A-|-2-----2-----2---x-x-|-2-----2-----2---------0-2-3-2-0-----|
E-|-0-0-0-0-0-0-0-0-3-3-|-0-0-0-0-0-0-0-0-3-2-3---------------|
      ' '   ' '   '         ' '   ' '   ' ' ' ' ' ' ' ' '
     Some    People   have    lost    their   Way... 
     Some    People  have     lost    their  Mind.. 
e-|-----------------------------------|----------------------|
B-|-----------------------------------|----------------------|
G-|-------------------------2-4-5-4-2-|-5--4--2-(guitar-1)---|
D-|--------2-4-5-4-2-5-4-5--0-2-3-2-0-|-7--5--4-(guitar-2)---|
A-|-5-4-5--0-2-3-2-0-3-2-3------------|----------------------|
E-|-3-2-3-----------------------------|----------------------|
  ..their mind

e-|----------------------------|
B-|----------------------------|
G-|--5--4--2-------------------|
D-|--3--2--0---5--4--2---------|
A-|------------3--2--0---5--2--|
E-|----------------------3--0--|

----------------------------------------

2. Nightmare

Tuning:  Standard


Riff 1
e|----------------------------|
B|----------------------------|
G|----------------------------|
D|-2-2-2--2---7--2-2-2--------|
A|-0-0-0--0---5--0-0-0--3-5-6-|
E|----------3-----------------|

e|------------------------------|
B|------------------------------|
G|------------------------------|
D|-2-2-2--2---7--2-2-2----------|
A|-0-0-0--0---5--0-0-0--3-5-----|
E|----------3---------------3-4-|


Riff 2
e|-------------------------|
B|-------------------------|
G|-------------------------|
D|-------------5-3-------3-|
A|-33333333...-----5-4-3-1-|
E|-------------------------|
   ********
  "Am I awake..."
e|----------------------------|
B|----------------------------|
G|----------------------------|
D|-2-2-2--2---7--2-2-2--------|
A|-0-0-0--0---5--0-0-0--3-5-6-|
E|----------3-----------------|
  "...dream..."
e|-------------------------|
B|-------------------------|
G|-------------------------|
D|-------------5-3-------3-|
A|-33333333...-----5-4-3-1-|
E|-------------------------|
   ********
  "I had a nightmare..."
e|------------------------------|
B|------------------------------|
G|------------------------------|
D|-2-2-2--2---7--2-2-2----------|
A|-0-0-0--0---5--0-0-0--3-5-----|
E|----------3---------------3-4-|
  "..vision..."


Riff 3
e|--------------|
B|--------------|
G|--------------|
D|--------------|
A|-4-4-4--4-2-7-|
E|-2-2-2--2-0-5-|
   "I was stuck..."


Riff 2a
e|-------------------------|
B|-------------------------|
G|-------------------------|
D|-------------5-3-------3-|
A|-33333333...-----5-4-3-1-|
E|-------------------------|
   ********
  "The lights were dim..."
e|------------------------------|
B|------------------------------|
G|------------------------------|
D|-2-2-2--2---7--2-2-2----------|
A|-0-0-0--0---5--0-0-0--3-5-----|
E|----------3---------------3-4-|
  "...daylight..."


Play Riff 3   "Eyes of fire..."


Riff 4                      x2
e|---------------------------|
B|---------------------------|
G|---------------------------|
D|-4-2-------2--------2--3-4-|
A|-----4-3-2-0--2--4--0--1-2-|
E|--------------0--2---------|

                            x2
e|---------------------------|
B|---------------------------|
G|---------------------------|
D|-7-5-------5--------5--6-7-|
A|-----7-6-5-3--5--7--3--4-5-|
E|--------------3--5---------|

Guitar 1
e|----------------|
B|----------------|
G|----------------|
D|-7--8-9---------|
A|-5--6-7--2--3-4-|
E|---------0--1-2-|

Guitar 2
e|----------------|
B|----------------|
G|----------------|
D|-4--5-6--6--7-8-|
A|----------------|
E|----------------|


Play Riff 1   Solo Rhythm


Riff 5 (Solo Rhythm)
               x4
e|--------------|
B|--------------|
G|--------------|
D|-9-9-9--9---7-|
A|-7-7-7--7-5---|
E|--------------|

               x4
e|--------------|
B|--------------|
G|--------------|
D|-4-4-4--4-----|
A|-4-4-4--4-----|
E|----------0-5-|

e|-----------------|
B|-----------------|
G|-----------------|
D|-2p0-------5-5-2-|
A|-----3p2p0-3-3-0-|
E|-----------------|


Riff 6
e|-----------------------------------|
B|-----------------------------------|
G|------------5-5----------------7-7-|
D|------5h7---5-5-5h7------5h7---7-7-|
A|-0000-0---0-----0---0000-0---0-----|
E|-----------------------------------|
   ****     *         ****     * 

Normal ending
e|-----------------------------------|
B|-----------------------------------|
G|----------------5-5----------------|
D|-5h7------5h7---5-5-5h7--------7-8-|
A|-0---0000-0---0-----0---0000-5-5-6-|
E|-----------------------------3-----|
       ****     *         **** 

Right before Riff 7:
e|---------------------------------|
B|---------------------------------|
G|----------------5-5--------------|
D|-5h7------5h7---5-5-5h7--------7-|
A|-0---0000-0---0-----0---0000-5-5-|
E|-----------------------------3---|
       ****     *         **** 


Riff 7
e|-------------------------|
B|-------------------------|
G|-------------------------|
D|-10-----10--5------------|
A|--8------8--3----5-5-5-5-|
E|-----------------3-3-3-3-|
   "They do the sign...


Play Riff 6   "I'm in the middle..."
Play Riff 7   "Only we know..."


Riff 8 (Solo Rhythm)              x4
e|---------------------------------|
B|---------------------------------|
G|---------------------------------|
D|-9-------9-------9-------9--7--7-|
A|-7-7-7-7-7-7-7-7-7-7-7-7-7--5--5-|
E|---------------------------------|
     * * *   * * *   * * *        
                                  x2
e|---------------------------------|
B|---------------------------------|
G|---------------------------------|
D|-5-------5-------5-------5--7--7-|
A|-3-3-3-3-3-3-3-3-3-3-3-3-3--5--5-|
E|---------------------------------|
     * * *   * * *   * * * 
                                  x2
e|---------------------------------|
B|---------------------------------|
G|---------------------------------|
D|-9-------9-------9-------9--7--7-|
A|-7-7-7-7-7-7-7-7-7-7-7-7-7--5--5-|
E|---------------------------------|
     * * *   * * *   * * *        


Solo
Guitar 1
e|----------------------------------------------------------|
B|----12-----12---------------------------------------------|
G|-12-----14-----12-14--11-12----11-12-14-12h14p12-11----11-|
D|----------------------------14----------------------14----|
A|----------------------------------------------------------|
E|----------------------------------------------------------|

Guitar 2
e|----------------------------------------------------------|
B|-12-15--13-15--12-13-----12-------12-13-12h13p12----------|
G|----------------------14----12-14----------------14-12-14-|
D|----------------------------------------------------------|
A|----------------------------------------------------------|
E|----------------------------------------------------------|

End Solo


Riff 9                                        
e|--------------------------------|
B|--------------------------------|
G|--------------------------------|
D|-------10-10-10-----------------|
A|--------8--8--8---------8--8--8-|
E|-0-0000----------0-0000-6--6--6-|
   * ****          * ****
e|-----------------------------|
B|-----------------------------|
G|-------10-10-10--------------|
D|--------9--9--9--7-7-7-------|
A|--------8--8--8--5-5-5-6-6-6-|
E|-0-0000----------------4-4-4-|
   * **** 


Riff 10
e|-----------------|
B|-----------------|
G|-----------------|
D|-4----6----4-5-6-|
A|-2----4----2-3-4-|
E|-----------------|
   "Night after night..."


Play Riff 9    "...I hear them sing..."
Play Riff 10   "Night after night..."
Play Riff 9    "...this dream..."


Riff 11
e|-------------------------------------|
B|----------------------7--------------|
G|------------------------7------------|
D|--7----7----9----7--------7------7/9-|
A|--5----5----7----5----------5----5/7-|
E|-------------------------------------|
   "...you are insane..."
e|------------------------------------------------|
B|------------------------------------------------|
G|------------------------------------------------|
D|------------------------------------------------|
A|------------------------------------------------|
E|-00000-00000-00000-00000-00000-00000-00000-0000-|
   ***** ***** ***** ***** ***** ***** ***** ****
   "...your fate..."


Riff 12
e|-------------------------|
B|-------------------------|
G|-------------------------|
D|-2-3--3--------2-3--3----|
A|-0-1--1--3--2--0-1--1--3-|
E|---------1--0----------1-|



Riff 13 (Solo Rhythm)             x3
e|---------------------------------|
B|---------------------------------|
G|---------------------------------|
D|-9-------9-------9-------9-10-10-|
A|-7-7-7-7-7-7-7-7-7-7-7-7-7--8--8-|
E|---------------------------------|
     * * *   * * *   * * * 
e|--------------------------------|
B|--------------------------------|
G|--------------------------------|
D|-9-------9-------9-------9--7-7-|
A|-7-7-7-7-7-7-7-7-7-7-7-7-7--5-5-|
E|--------------------------------|
     * * *   * * *   * * *  
e|--------------------------------|
B|--------------------------------|
G|--------------------------------|
D|-5-------5-------5-------5--5-5-|
A|-3-3-3-3-3-3-3-3-3-3-3-3-3--3-3-|
E|--------------------------------|
     * * *   * * *   * * * 
e|--------------------------------|
B|--------------------------------|
G|--------------------------------|
D|--------------------------------|
A|-5-------5-------5-------5--5-5-|
E|-3-3-3-3-3-3-3-3-3-3-3-3-3--3-3-| 
     * * *   * * *   * * * 
e|--------------------------------|
B|--------------------------------|
G|--------------------------------|
D|--------------------------------|
A|-6-------6-------6-------6--6-6-|
E|-4-4-4-4-4-4-4-4-4-4-4-4-4--4-4-|
     * * *   * * *   * * * 
e|--------------------------------|
B|--------------------------------|
G|--------------------------------|
D|--------------------------------|
A|-7-------7-------7-------7--5-5-|
E|-5-5-5-5-5-5-5-5-5-5-5-5-5--3-3-|
     * * *   * * *   * * *
e|--------------------------------|
B|--------------------------------|
G|--------------------------------|
D|--------------------------------|
A|-4-------4-------4-------4--4-4-|
E|-2-2-2-2-2-2-2-2-2-2-2-2-2--2-2-|
     * * *   * * *   * * * 
e|--------------------------------|
B|--------------------------------|
G|--------------------------------|
D|--------------------------------|
A|-3-------3-------3-------3--3-3-|
E|-1-1-1-1-1-1-1-1-1-1-1-1-1--1-1-|
     * * *   * * *   * * *
e|--------------------------------|
B|--------------------------------|
G|--------------------------------|
D|-5-------5-------5-------5--5-5-|
A|-3-3-3-3-3-3-3-3-3-3-3-3-3--3-3-|
E|--------------------------------|
     * * *   * * *   * * * 
                                 x3 
e|--------------------------------|
B|--------------------------------|
G|--------------------------------|
D|-7-------7-------7-------7--7-7-|
A|-5-5-5-5-5-5-5-5-5-5-5-5-5--5-5-|
E|--------------------------------|
     * * *   * * *   * * *

e|------|
B|------|
G|------|
D|--9\--|
A|--7\--|
E|------|

-----------------------------------------------

3. Desecration of Souls

Intro
e|-------|
B|-------|
G|-------|
D|-------|
A|--7\2--|
E|-------|


Riff 1
e|----------------|
B|----------------|
G|----------------|
D|-----------9--8-|
A|-2---------7--6-|
E|-0----/8-7------|

e|-----------------------------------|
B|-----------------------------------|
G|-----------------------------------|
D|--------5---------7---------4------|
A|--------3---------5---------2------|
E|-3-2-0-----3-2-0-----3-2-0-------3-|



Riff 2
e|-----------------------------------------------|
B|-----------------------------------------------|
G|-----------------------------------------------|
D|------9-9--------------------------------------|
A|------7-7-------5tr7-5-7-8-7-5h7p5-3-2-0-------|
E|-0000------0000--------------------------3-2-1-|
   ****      ****                               


Riff 3
e|----------------------------------------|
B|----------------------------------------|
G|----------------------------------------|
D|------9-9------10-10-------9-9------7-7-|
A|------7-7-------8--8-------7-7------5-5-|
E|-0000-----0000--------0000-----0000-----|
   ****     ****        ****     ****
e|------------------------------------------|
B|------------------------------------------|
G|------------------------------------------|
D|------9-9------10-10-------9-9------------|
A|------7-7-------8--8-------7-7--x-x-x-xxx-|
E|-0000-----0000--------0000------x-x-x-xxx-|
   ****     ****        ****


Riff 4 (Solo Rhythm)
e|------------------------------------|
B|------------------------------------|
G|------------------------------------|
D|------9-9---------------9-9---------|
A|------7-7-----4-3-------7-7-----5-5-|
E|-0000-----000-6-5--0000-----000-3-3-|
   ****     ***      ****     ***


Play Riff 4   "Magic circles..."

Riff 5
e|------------------------------------------|
B|------------------------------------------|
G|------9-9----------------9-9--------------|
D|------7-7-----12-7-------7-7--------------|
A|-0000-----000-10-5--0000------3-2-3-5-3-5-|
E|------------------------------------------|
   ****     ***       ****   
   "It's desecration of souls..."


Riff 4a
e|--------------------------------------|
B|--------------------------------------|
G|--------------------------------------|
D|------9-9---------------9-9-----12-12-|
A|------7-7-----4-3-------7-7-----10-10-|
E|-0000-----000-6-5--0000-----000-------|
   ****     ***      ****     ***  
   "...lair..."


Riff 6
e|------------------------------------|
B|------------------------------------|
G|------------------------------------|
D|------------------------------------|
A|----------33333333-22222222-55555---|
E|-22222222-------------------------3-|
   ******** ******** ******** *****


Riff 7 (Guitar 2 plays top notes at end)
e|----------------------------------------------------------|
B|--------------------------------------------12-12-12-10~~-|
G|--------------------------------------------12-12-12-11~~-|
D|------9-9---------------9-9--12-12-12-11------------------|
A|------7-7-----4-3-------7-7--10-10-10--9------------------|
E|-0000-----000-6-5--0000-----------------------------------|
   ****     ***      ****


Play Riff 4   Solo Rhythm
Play Riff 4   "Copulation..."
Play Riff 5   "It's desecration of souls..."
Play Riff 4   "...lair..."

Riff 8
e|--------------------------------------|
B|--------------------------------------|
G|--------------------------------------|
D|--------------------------------------|
A|-33333333-555555555----------22222222-|
E|--------------------33333333----------|
   ******** ********* ******** ********
    "So I say again..."
e|------------------|
B|------------------|
G|------------------|
D|------------------|
A|-33333333-55555---|
E|----------------3-|
   ******** *****


Riff 9
e|------------------------------------------|
B|------------------------------------------|
G|------------------------------------------|
D|------9-9------11-11-------12-12------7-7-|
A|------7-7-------9--9-------10-10------5-5-|
E|-0000-----0000--------0000-------0000-----|
   ****     ****        ****       ****
   "...souls..."
e|-----------------------------------------|
B|-----------------------------------------|
G|-----------------------------------------|
D|------9-9------11-11-------12-12-9-9-9-2-|
A|------7-7-------9--9-------10-10-7-7-7-0-|
E|-0000-----0000--------0000---------------|
   ****     ****        ****


Riff 10 (Solo Rhythm)                x4
e|------------------------------------|
B|------------------------------------|
G|------------------------------------|
D|------9-9---------------9-9---------|
A|------7-7-----5-5-------7-7-----4-3-|
E|-0000-----000-3-3--0000-----000-6-5-|
   ****     ***      ****     ***
                                                   x3
e|--------------------------------------------------|
B|--------------------------------------------------|
G|--------------------------------------------------|
D|--------------------------------------------------|
A|----------------------------------------------7-7-|
E|-0-2-2-2-5-2--0-2-2-2-5-2--0-2-2-2-5-2--0-2-2-5-5-|

e|---------------------------------------|
B|---------------------------------------|
G|---------------------------------------|
D|---------------------------------------|
A|---------------------------------------|
E|-0-2-2-2-5-2--0-2-2-2-5-2--0-2-2-2-5-2-|

e|-----------------------------------------------|
B|-----------------------------------------------|
G|-----------------------------------------------|
D|-----------------------------------------------|
A|-----------------------------------------------|
E|-0-2-0--2-3-2--3-5-3--5-7-5--7-8-7--8-10-8--10-|


Riff 11 (Solo Rhythm)        x2
e|----------------------------|
B|----------------------------|
G|----------------------------|
D|-9--9-9-11-12---------------|
A|-7--7-7--9-10-10--10-10--12-|
E|---------------8---8--8--10-|

1st ending
e|----------------------------------------------------|
B|----------------------------------------------------|
G|----------------------------------------------------|
D|-9--9-9-11-12---------------------------------------|
A|-7--7-7--9-10-12--12-12-12-9--9-9--7-9-10--10-10-12-|
E|--------------10--10-10-10-7--7-7--5-7--8---8--8-10-|

2nd ending
e|---------------------------------------------------|
B|---------------------------------------------------|
G|---------------------------------------------------|
D|-9--9-9-11-12--------------------------------------|
A|-7--7-7--9-10-12--12-12-12-9--9-9--7-9-10-10-12-12-|
E|--------------10--10-10-10-7--7-7--5-7--8--8-10-10-|


Riff 7a
e|-----------------------------------------|
B|-----------------------------------------|
G|-----------------------------------------|
D|------9-9---------------9-9--12-12-12-11-|
A|------7-7-----4-3-------7-7--10-10-10--9-|
E|-0000-----000-6-5--0000------------------|
   ****     ***      ****


Play Riff 4   "Dying flowers..."
Play Riff 5   "It's desecration of souls..."
Play Riff 4a
Play Riff 8   "So I say again..."


Riff 9a
e|------------------------------------------|
B|------------------------------------------|
G|------------------------------------------|
D|------9-9------11-11-------12-12------7-7-|
A|------7-7-------9--9-------10-10------5-5-|
E|-0000-----0000--------0000-------0000-----|
   ****     ****        ****       ****
   "...souls..."
e|---------------------------------|
B|---------------------------------|
G|---------------------------------|
D|------9-9------11-11-------12-12-|
A|------7-7-------9--9-------10-10-|
E|-0000-----0000--------0000-------|
   ****     ****        ****
e|-------------------------------------|
B|-------------------------------------|
G|-------------------------------------|
D|-------------------------------------|
A|-7-5-4-5-7---7-5---5-3-2--3-2-0------|
E|-----------3-----3--------------3--2-|

e|------------------------|
B|------------------------|
G|------------------------|
D|-77777777...------------|
A|-55555555...-[fade out]-|
E|------------------------|

------------------------------------------------

4. Night of the Unborn

Tuning: Standard

Intro solo - here's some of it.....use a lot of whammy bar!
e|-------------------------------------------------------|
B|-------------------------------------------------------|
G|-19^^----19^^-19^^-~~~--19^^-19^^-19^^-----------------|
D|-----------------------------------------15h17~~-19-17-|
A|-------------------------------------------------------|
E|-------------------------------------------------------|
           
e|------------------------------|
B|------------------------------|
G|------------------------------|
D|-19--17-----------------------|
A|---------19-18-17-16----------|
E|----------------------15-16~~-|

then:
Riff 1
e|--------------------------------------------|
B|---------------------------------------12\--|
G|--------------------------9~~----------12\--|
D|--------------------------------------------|
A|-------------5h7----------------------------|
E|-0-0-0-0-5h7-----0-0-0-0-------0-0-0-0------|
   * * * *         * * * *  ah   * * * *                               
         
e|--------------------------------------------------------|
B|--------------------------------------------------------|
G|--------------------------------------------------------|
D|--------------------------------------------------------|
A|---------7-5-----------------------10p7~---------12p10~-|
E|-0-0-0-0-----7\6~--0-3-4~--0-0-0-0-------0-0-0-0--------|
   * * * *                   * * * *       * * * *

1st ending
e|----------------------|
B|---------12-14-12-9\--|
G|---------12-14-12-9\--|
D|----------------------|
A|----------------------|
E|-0-0-0-0--------------|
   * * * * 

2nd ending
e|------------------------|
B|---------12-14-12--14^--|
G|---------12-14-12--14^--|
D|------------------------|
A|------------------------|
E|-0-0-0-0----------------|
   * * * * 
 
Riff 2
e|-------------------------------------------------------|
B|-------------------------------------------------------|
G|-------------------------------------------------------|
D|------------------------------------------4-2-------2--|
A|----------------------------------------------4-3-2-0--|
E|-2-2-2-2-5-2~--2-2-2-2-5-4~--2-2-2-2-5-2~--------------|
   * * * *       * * * *       * * * *

e|---------------------------------------------------------------|
B|---------------------------------------------------------------|
G|---------------------------------------------------------------|
D|------------------------------------------4-2-------2-------4--|
A|----------------------------------------------4-3-2-0--4-2--2--|
E|-2-2-2-2-5-2~--2-2-2-2-5-4~--2-2-2-2-5-2~--------------2-0-----|
   * * * *       * * * *       * * * *

Riff 3
e|---------------------------------|
B|---------------------------------|
G|-------------------------------7-|
D|-----------------------------5-7-|
A|-5h7---------5h7---------5h7-----|
E|-0---0-0-0-0-0---0-0-0-0-0-------|
       * * * *     * * * * 
  "I........"

e|------------------------------------------|
B|------------------------------------------|
G|-------------------------------7--------5-|
D|-----------------------------5-7------5-5-|
A|-5h7---------5h7---------5h7------5h7-----|
E|-0---0-0-0-0-0---0-0-0-0-0--------0-------|
       * * * *     * * * * 
  "....forbid you entrance here...."

Riff 4
e|--------------------------------------|
B|--------------------------------------|
G|-5---------5---------5---------7-5----|
D|-5---------5---------5---------7-5-7--|
A|---0-0-0-0---0-0-0-0---0-0-0-0-----7--|
E|--------------------------------------|
     * * * *   * * * *   * * * * 
  "..ground......"

e|------------------------------------|
B|------------------------------------|
G|-5---------5------------------------|
D|-5---------5---------7-6-5-7-5------|
A|---0-0-0-0---0-0-0-0-------7-5---5~-|
E|-------------------------------8----|
     * * * *   * * * *   * * * * 
  "...don't you see this chapel? "  

Play Riff 3  "Shut up!  Hold your tongue"
Play Riff 4  "..unborn..........tonight is the night..."

Lead in to the chorus
e|-----------|
B|-----------|
G|-----------|
D|-----------|
A|-------3-5-|
E|-3--5------|

Riff 5 (chorus)
e|-----------------------------------------------|
B|-----------------------------------------------|
G|-----------------------------------------------|
D|--------7-7--9-7-9---4-5-7--7-5---2-4-5-5-7--5-|
A|-5-3-5--5-5--7-5-7---2-3-5--5-3---0-2-3-3-5--3-|
E|-3-1-3-----------------------------------------|
  "The spirits of the unborn......."

Riff 6                          x2
e|-------------------------------|
B|-------------------------------|
G|-------------------------------|
D|-7/9-----------9--7/9----------|
A|-5/7-----------7--5/7------5-5-|
E|-----0-000-000--------0-00-3-3-|
       * *** ***        * **
   "tonight.............."

Riff 7                          x2
e|-------------------------------|
B|-------------------------------|
G|-------------------------------|
D|-------------------------------|
A|-0h2-2222222222-0h2-2222222222-|
E|-------------------------------|
   * * ********** * * **********
  "They will dance around the Chapel......"

Play Riff 6  
Play Riff 7  "They will make a fool......"
Play riff 6  

Riff 8
e|-----------------------------------------|
B|-----------------------------------------|
G|-----------------------------------------|
D|-5----5----5----5----5----5----5----5-7--|
A|-3-33-3-33-3-33-3-33-3-33-3-33-3-33-3-5--|
E|-----------------------------------------|
     **   **   **   **   **   **   **
  "A song for the dead....."

e|------------------------------------|
B|------------------------------------|
G|------------------------------------|
D|-5----5----5----5----5----5----5--7-|
A|-3-33-3-33-3-33-3-33-3-33-3-33-3--5-|
E|------------------------------------|
     **   **   **   **   **   **
  "To whom Life ........."

Play Riff 6  "...just begun....."
Play Riff 8  "Ahhhhhhhhh   Ahhhhhhhh"
Play riff 6  ".....this ones for the unborn"

Lead in to the solo rhythm
e|-------|
B|-------|
G|-------|
D|-7/9-9-|
A|-5/7-7-|
E|-------|
     

Play Riff 2 twice (solo rhythm)

Play Riff 6  "Did you know....."

Play last bar of riff 6 like this:
e|-------------------------------------|
B|-------------------------------------|
G|-------------------------------------|
D|-7/9-----------9--7/9---------5----7-|
A|-5/7-----------7--5/7---------3----5-|
E|-----0-000-000--------0-00--0----0---|
       * *** ***        * **  *    * 
        "...the first of June...."

Play Riff 5    "The spirits of the unborn....."
Repeat Riff 5  (solo starts)

Solo Rhythm (all the bars are laid out)

                                 x2
e|--------------------------------|
B|--------------------------------|
G|--------------------------------|
D|--------------------------------|
A|-2h4-44444444444-2h4-4444444444-|
E|--------------------------------|     
                                            x2 
e|-------------------------------------------|-----|
B|-------------------------------------------|-----|
G|-------------------------------------------|-----|
D|------------2----5-4---4-2--4-2------------|--7--|
A|-2-4--2-4---0-4--3-2---2-0--2-0---2-4--2-4-|--5--|
E|-0-2--0-2-----2-------------------0-2--0-2-|-----|


e|--------------------------------------|
B|--------------------------------------|
G|--------------------------------------|
D|-9----9----9----9----9----9----9----9-|
A|-7-77-7-77-7-77-7-77-7-77-7-77-7-77-7-|
E|--------------------------------------|

e|-------------------------------------|
B|-------------------------------------|
G|-------------------------------------|
D|-7-----7----7----7-4-----4----4----4-|
A|-5--55-5-55-5-55-5-2--22-2-22-2-22-2-|
E|-------------------------------------|

e|---------------------------------------|
B|---------------------------------------|
G|---------------------------------------|
D|-9-----9----9----9----9----9----9----9-|
A|-7--77-7-77-7-77-7-77-7-77-7-77-7-77-7-|
E|---------------------------------------|

e|-------------------------------------|
B|-------------------------------------|
G|-------------------------------------|
D|-7-----7----7----7-5-----5----5----5-|
A|-5--55-5-55-5-55-5-3--33-3-33-3-33-3-|
E|-------------------------------------|

e|--------------------------------|
B|--------------------------------|
G|--------------------------------|
D|------------------------------4-| -----------|
A|-4--------------------------4---|            |
E|-2--222-222-222-222-222-222-----|            |
      *** *** *** *** *** ***                  |
                                               |---- Play twice
e|--------------------------------|            |
B|--------------------------------|            |
G|--------------------------------|            |
D|--------------------------------| -----------|
A|-4--------------------------4---|
E|-2--222-222-222-222-222-222-2---|
      *** *** *** *** *** ***

e|--------------------------------------|
B|--------------------------------------|
G|--------------------------------------|
D|-5----5----5----5----5----5----5----5-|
A|-3-33-3-33-3-33-3-33-3-33-3-33-3-33-3-|
E|--------------------------------------|

e|--------------------------------------|
B|--------------------------------------|
G|--------------------------------------|
D|-7----7----7----7----7----7----7----7-|
A|-5-55-5-55-5-55-5-55-5-55-5-55-5-55-5-|
E|--------------------------------------|

e|---------------------------------------|
B|---------------------------------------|
G|---------------------------------------|
D|-4h5-55555555555555-7h9-99999999999999-|
A|---------------------------------------|
E|---------------------------------------|

e|----------------------------------------------|
B|---------------------11h12121212121212121212\-|
G|-7h9-99999999999999---------------------------|
D|----------------------------------------------|
A|----------------------------------------------|
E|----------------------------------------------|

                                x2
e|-------------------------------|
B|-------------------------------|
G|-------------------------------|
D|-------------------------------|
A|-0h2-2222222222-0h2-2222222222-|
E|-------------------------------|
   * * ********** * * *********

                                x2
e|-------------------------------|
B|-------------------------------|
G|-------------------------------|
D|-------------------------------|
A|-5p3-3333333333-5p3-3333333333-|
E|-------------------------------|
     * **********   * **********

Ending
e|------------------------------------------------|
B|------------------------------------------------|
G|------------------------------------------------|
D|------------------------------------------------|
A|------------------------------------------------|
E|-0-0-2~--0-0-3~--0-0-5~--0-0-6~--0-0-8~--0-0-9~-|

e|-------------------------|
B|-------------------------|
G|-------------------------|
D|-----------------------4-|
A|-----------------------4-|
E|-0-0-10~--0-0-12~--0-0-2-|

--------------------------------------------------

5. The Oath

Tuning:  Standard

Intro
e|----------|
B|----------|
G|----------|
D|-7-7--6-6-|
A|-5-5--4-4-|
E|----------|


Riff 1
Both guitars
e|-------------------------------------------|
B|-------------------------------------------|
G|-------------------------------------------|
D|-------------7---------------7-9-7-7-------|
A|-7-9-9-9-7-9----9--7-7-9-9-9---------9-7~--|
E|-------------------------------------------|

e|---------------------------------|
B|---------------------------------|
G|---------------------------------|
D|-------------7-------7--7--6--6--|
A|-7-9-9-9-7-9----9--7-5--5--4--4--|
E|---------------------------------|

Guitar 2 (2nd time)
e|------------------------------------------|
B|------------------------------------------|
G|------------------------------------------|
D|-------------7-------------7----------7---|
A|-7-9-9-9-7-9----9--7-7-9-9------7-9-9-----|
E|------------------------------------------|

e|---------------------------------|
B|---------------------------------|
G|---------------------------------|
D|-------9----------9--7--7--6--6--|
A|-7-9-9------7-9-9----5--5--4--4--|
E|---------------------------------|

Bass
G|---------------------------------------------------|
D|---------------------------------------------------|
A|----------------------------------------5--5--44-4-|
E|-222222222222-222222222222-222222222222------------|

G|---------------------------------------------------|
D|---------------------------------------------------|
A|----------------------------------------55-5--44-4-|
E|-222222222222-555555555555-777777777777------------|



Riff 2
e|-------------------------------------------|
B|-------------------------------------------|
G|-------------------------------------------|
D|-5---------------------5---------5---------|
A|-3---------------------3---------3---------|
E|----0-0-0-0-0--0-0-0-0---0-0-0-0---0-0-0-0-|
      * * * * *  * * * *   * * * *   * * * 
   "I deny Jesus..."
e|----------------------------------------|
B|----------------------------------------|
G|----------------------------------------|
D|----------------------------------------|
A|-4----------4----------4----------4-4-4-|
E|-2--2-2-2-2-2--2-2-2-2-2--2-2-2-2-2-2-2-|
      * * * * *  * * * *    * * * * 
   "...Christ..."
e|-------------------------------------------|
B|-------------------------------------------|
G|-------------------------------------------|
D|-5---------------------5---------5---------|
A|-3---------------------3---------3---------|
E|----0-0-0-0-0--0-0-0-0---0-0-0-0---0-0-0-0-|
      * * * * *  * * * *   * * * *   * * * 
   "...the deceiver..."
e|------------------------------------------|
B|------------------------------------------|
G|------------------------------------------|
D|------------------------------------------|
A|-4----------4----------4----------4-------|
E|-2--2-2-2-2-2--2-2-2-2-2--2-2-2-2-2-2-2-2-|
      * * * * *  * * * *    * * * *   * * *


Guitar fill over Riff 2
#1
e|-12^^~~-14--------------|
B|---------------10-------|
G|-------------9----11~---|
D|------------------------|
A|------------------------|
E|------------------------|

#2
e|-20^~~-20--19-17-16h17-16---------|
B|--------------------------19^r\---|
G|----------------------------------|
D|----------------------------------|
A|----------------------------------|
E|----------------------------------|


Play Riff 1
Play Riff 2   "And I abjure the Christian faith..."


Lead into next section:
e|------------------|
B|------------------|
G|------------------|
D|-4--5--5--4--5--4-|
A|-2--3--3--2--3--2-|
E|------------------|
   "...all of it's works."


Riff 3 (Solo Rhythm)                                  x2
e|-----------------------------------------------------|
B|-----------------------------------------------------|
G|-----------------------------------------------------|
D|-------9-8--------9-8--5--------9-8--------7-5-------|
A|-------7-6--------7-6--3--------7-6------------8-7-8-|
E|-3-5-0------3-5-0---------3-5-0------3-5-0-----------|
   * * *      * * *         * * *      * * *

e|---------------------------------|
B|---------------------------------|
G|---------------------------------|
D|---4-5-5-4-5-4-------------------| ----|
A|-0-2-3-3-2-3-2--0--4-----4-----4-|     |
E|-------------------2-2-2-2-2-2-2-|     |
                       * *   * *         |--- Play 2x
e|---------------------------------|     |
B|---------------------------------|     |
G|---------------------------------|     |
D|---4-5-5-4-5-4-------------------| ----|
A|-0-2-3-3-2-3-2--0--4-----5-----4-|
E|-------------------2-2-2-3-3-3-2-|
                       * *   * *   
e|--------------------------------|
B|--------------------------------|
G|--------------------------------|
D|---4-----5-----4---9-----10-----|
A|-0-2-2-2-3-3-3-2-2-7-7-7--8-8-8-|
E|--------------------------------|
       * *   * *   *   * *    * *


Riff 4 
Guitar 1                      x2
e|-----------------------------|
B|-----------------------------|
G|-----------------------------|
D|-----------------------------|
A|---10-9---10-9---10-9-7-9-10-|
E|-0------0------0-------------|
                              x2
e|-----------------------------|
B|-----------------------------|
G|-----------------------------|
D|---10-9---10-9---10-9-7-9-10-|
A|-0------0------0-------------|
E|-----------------------------|
                              x2
e|-----------------------------|
B|-----------------------------|
G|-----------------------------|
D|-----------------------------|
A|---10-9---10-9---10-9-7-9-10-|
E|-0------0------0-------------|


Guitar 2
e|--------------------|
B|--------------------|
G|--------------------|
D|--------------------|
A|-2--2--2----2--2--2-|
E|-0--0--0----0--0--0-|

e|----------------------|
B|----------------------|
G|----------------------|
D|-2-2--2--2----2--2--2-|
A|-0-0--0--0----0--0--0-|
E|----------------------|

e|----------------------|
B|----------------------|
G|----------------------|
D|----------------------|
A|-2-2--2--2----2--2--2-|
E|-0-0--0--0----0--0--0-|



Riff 5
e|-------------------------------|
B|-------------------------------|
G|-------------9-----------------|
D|---10---9-10------10---10-9----| ----|
A|-0----0---------0----0------10-|     |
E|-------------------------------|     |
   *    *         *    *               |---> Play 3x
e|-------------------------------|     |
B|-------------------------------|     |
G|-------------9-----------------| ----|    
D|---10---9-10---10-9----9-10-12-|
A|-0----0-------------10---------|
E|-------------------------------|
   *     *                  

e|-------------------------------|
B|-------------------------------|
G|-------------9-----------------|
D|---10---9-10------10---10-9----|
A|-0----0---------0----0------10-|
E|-------------------------------|
   *    *         *    *          
e|---------------------------------|
B|---------------------------------|
G|---------------------------------|    
D|---10---9-10-12--7---------------|
A|-0----0----------5--5--4-3-2-2-2-|
E|--------------------3--2-1-0-0-0-|
   *     *                  



Riff 6
e|----------------------------------|
B|----------------------------------|
G|----------------------------------|
D|---------------12------------7--5-|
A|-----7h8p7-----10------7h8p7-5--3-|
E|-000-------000-----000------------|
   ***       ***     *** 
e|-------------------------------|
B|-------------------------------|
G|-------------------------------|
D|---------------12------------4-|
A|-----7h8p7-----10------7h8p7-5-|
E|-000-------000-----000---------|
   ***       ***     ***



Riff 7
e|------------------------------|
B|------------------------------|
G|------------------------------|
D|--------4-5-----------------2-|
A|-222222-2-3-----------------0-|
E|-------------0h2-2222-0h2-2---|
   ******      * * **** * * *
   "To it's lawful master..."
e|-------------------------------|
B|-------------------------------|
G|-------------------------------|
D|--------4-5--------------------|
A|-222222-2-3--------------------|
E|-------------0h2-2222-0h2-2222-|
   ******      * * **** * * ****
   "...to worship Him..."
e|------------------------------|
B|------------------------------|
G|------------------------------|
D|--------4-5-----------------2-|
A|-222222-2-3-----------------0-|
E|-------------0h2-2222-0h2-2---|
   ******      * * **** * * *
  "Our Lord Satan..."
e|------------|
B|------------|
G|------------|
D|--------4-5-|
A|-222222-2-3-|
E|------------|
   ******     
  "...and no other..."

Play Riff 6   "In the name of Satan..."
Play Riff 7   "By these names..."


Riff 8 (Solo Rhythm)
e|---------------------------------------------|
B|---------------------------------------------|
G|---------------------------------------------|
D|-------------------------------------5--7--9-|
A|-4--4--2-4--4------3-2-0--4--4--2-4--3--5--7-|
E|-2--2--0-2--2--0-2--------2--2--0-2----------|
   "...the goat."
e|---------------------------------------------|
B|---------------------------------------------|
G|---------------------------------------------|
D|-------------------------------------9--8--7-|
A|-4--4--2-4--4------3-2-0--4--4--2-4--7--6--5-|
E|-2--2--0-2--2--0-2--------2--2--0-2----------|


Riff 9 (Solo Rhythm)
e|-------------------------|
B|-------------------------|
G|-------------------------|
D|--------------9----8-9-8-|
A|-444444444444-7----6-7-6-|
E|-------------------------|
   ************ 
e|--------------------------|
B|--------------------------|
G|--------------------------|
D|--------------------------|
A|-444444444444---7-----9---|
E|--------------5---5-7---7-|
   ************


Riff 10
e|--------------------------------|
B|--------------------------------|
G|--------------------------------|
D|-7-7-7-7-7-7-7----7-7-7-7-7-7-7-|
A|-5-5-5-5-5-5-5----5-5-5-5-5-5-5-|
E|--------------------------------|


Play Riff 9


Riff 11
e|------------------------------------------------|
B|------------------------------------------------|
G|------------------------------------------------|
D|-------4p2p0-4~~----------4p2p0-4~~----7-7--6-6-|
A|---------------------------------------5-5--4-4-|
E|-2-2-2--------------2-2-2-----------------------|
   * * *              * * *
   "To the furtherance..."


Riff 1a
Guitar 1
e|---------------------|---------------------|---------------------|
B|---------------------|-------------7-------|---------------------|
G|-------------6-----6-|-7-7-7-7-6-7----7----|-------------6-------|
D|-6-7-7-7-6-7----7----|-------------------6-|-7-7-7-7-6-7----7--6-|
A|---------------------|---------------------|---------------------|
E|---------------------|---------------------|---------------------|
Guitar 2
e|---------------------|---------------------|---------------------|
B|---------------------|---------------------|---------------------|
G|---------------------|-------------7-------|---------------------|
D|-------------7-----7-|-9-9-9-9-7-9----9----|-------------7-------|
A|-7-9-9-9-7-9----9----|-------------------7-|-9-9-9-9-7-9----9--7-|
E|---------------------|---------------------|---------------------|

1st time
Both
e|------------|
B|------------|
G|------------|
D|-7--7--6--6-|
A|-5--5--4--4-|
E|------------|
2nd time gtr 2 plays this:
e|------------|
B|------------|
G|------------|
D|------------|
A|-9--9--8--8-|
E|------------|



Play Riff 2   "Do what thou wilt..."


Riff 1b
Guitar 1
e|---------------------|---------------------|---------------------|
B|---------------------|-------------7-------|---------------------|
G|-------------6-------|-7-7-7-7-6-7----7-6--|-------------6-------|
D|-6-7-7-7-6-7----7-6--|---------------------|-7-7-7-7-6-7----7--6-|
A|---------------------|---------------------|---------------------|
E|---------------------|---------------------|---------------------|
Guitar 2
e|---------------------|---------------------|---------------------|
B|---------------------|---------------------|---------------------|
G|---------------------|-------------7-------|---------------------|
D|-------------7-------|-9-9-9-9-7-9----9-7--|-------------7-------|
A|-7-9-9-9-7-9----9-7--|---------------------|-9-9-9-9-7-9----9--7-|
E|---------------------|---------------------|---------------------|
Both
e|------------|
B|------------|
G|------------|
D|-7--7--6--6-|
A|-5--5--4--4-|
E|------------|



Riff 12
Both guitars
e|----------------------|
B|----------------------|
G|----------------------|
D|-11-11--9-9--7-7--6-6-|
A|--9--9--7-7--5-5--4-4-|
E|----------------------|

e|--------------------------|
B|--------------------------|
G|--------------------------|
D|-11--9--7--6--11--9--7--6-|
A|--9--7--5--4---9--7--5--4-|
E|--------------------------|
   "As it was in the beginning..."

Guitar 1
e|-------------------|
B|-------------------|
G|-------------------|
D|-11----9----7----6-|
A|--9----7----5----4-|
E|-------------------|
   "...is now..."

Guitar 2
e|--------------------|
B|--------------------|
G|--------------------|
D|--4~---6~---7~---9~-|
A|--------------------|
E|--------------------|



Riff 13 (Solo Rhythm)
e|-------------------------------|
B|-------------------------------|
G|-------------------------------|
D|-9-9-xxx-12-12-xxx-5-5-xxx-7-7-|
A|-7-7-xxx-10-10-xxx-3-3-xxx-5-5-|
E|-------------------------------|

Final time
e|--------------------------------------|
B|--------------------------------------|
G|--------------------------------------|
D|-9-9-xxx-12-12-xxx-5-5-xxx-7-7-7-9-9\-|
A|-7-7-xxx-10-10-xxx-3-3-xxx-5---5-7-7\-|
E|--------------------------------------|


Solo
e|---/Full\-----------------------------------------------------------|
B|-15-(17)-r---13--12-13-12----12---------/Full\----------------------|
G|--------------------------14----14-12-14-(16)-r---12--14~-----------|
D|--------------------------------------------------------------------|
A|--------------------------------------------------------------------|
E|--------------------------------------------------------------------|

e|------------------------------------/Full--/Full--/Full\------------|
B|-------------10--12--13p12p10~----15(17)-15(17)-15(17)--r(15)~~-----|
G|-9---11--12---------------------------------------------------------|
D|--------------------------------------------------------------------|
A|--------------------------------------------------------------------|
E|--------------------------------------------------------------------|

e|-----------------------------------------10~------------------------|
B|--------------10----10-12-10-12-13-12-13-----13~--12h13~-10~~-------|
G|-11--12-11-12----12-------------------------------------------------|
D|--------------------------------------------------------------------|
A|--------------------------------------------------------------------|
E|--------------------------------------------------------------------|
      / Full  \
e|-17--(19)---r--15---14---15---17---15~----14h15p14~~----------------|
B|--------------------------------------------------------------------|
G|--------------------------------------------------------------------|
D|--------------------------------------------------------------------|
A|--------------------------------------------------------------------|
E|--------------------------------------------------------------------|

e|-0--12p10p0-14p12p0-17p12p0-15p12p0-14p12p0-15p12p0-14p12p0---------|
B|--------------------------------------------------------------------|
G|--------------------------------------------------------------------|
D|--------------------------------------------------------------------|
A|--------------------------------------------------------------------|
E|--------------------------------------------------------------------|

e|-------------------------------------/Full---------sl---------------|
B|----------12~------------12~----15----(17)~~----17-/-19~~-----------|
G|----------12~------------12~---------*------------------------------|
D|-14-14-14-------14-14-14--------------------------------------------|
A|--------------------------------------------------------------------|
E|--------------------------------------------------------------------|
*  --> First hit the note and a little later bend it.


e|-15-12-14-10-12-8-10-7-8-5-7--5h7h8~-7~--5h7-2h3p2h3p2h3p2h3--------|
B|--------------------------------------------------------------------|
G|--------------------------------------------------------------------|
D|--------------------------------------------------------------------| Guitar 1
A|--------------------------------------------------------------------|
E|--------------------------------------------------------------------|
                                                                      |
e|--------------------------------------------------------------------|
B|--------------------------------------------------------------------|
G|-16-12-14-11-12-9-11-7-9-5-7--5h7h9~-7~--5h7-2h4p2h4p2h4p2h4--------| Harmony Gtr.
D|--------------------------------------------------------------------|
A|--------------------------------------------------------------------|
E|--------------------------------------------------------------------|

e|-3---2---3---5---7---8---7---5h7p5h7---2---3---2--------------------|
B|---------------------------------------------------5--5\------------|
G|--------------------------------------------------------------------| Guitar 1
D|--------------------------------------------------------------------|
A|--------------------------------------------------------------------|
E|--------------------------------------------------------------------|
                                                                      |
e|--------------------------------------------------------------------|
B|---------------------------------------------------5--5\------------|
G|-4---2---4---5---7---9---7---5h7p5h7---2---4---2--------------------| Harmony Gtr.
D|--------------------------------------------------------------------|
A|--------------------------------------------------------------------|
E|--------------------------------------------------------------------|

End Solo

------------------------------------------------------

6. Gypsy

Tuning: Standard


Intro
e|-----|
B|-----|
G|-----|
D|--3--|
A|--1--|
E|-----|

e|-------------------------------|
B|-------------------------------|
G|-------------------------------|
D|-----------4----5----------7-6-|
A|---------------------------5-4-|
E|-2-2-2-2-2----2----2-2-2-2-----|
   * * * * *    *    * * * * 


Riff 1
e|-------------------------------|
B|-------------------------------|
G|-------------------------------|
D|-----------4----5----------2---|
A|---------------------------0-2-|
E|-2-2-2-2-2----2----2-2-2-2---0-|
   * * * * *    *    * * * * 
   "This magic winter night..."
e|-------------------------------|
B|-------------------------------|
G|-------------------------------|
D|-----------4----5----------7-6-|
A|---------------------------5-4-|
E|-2-2-2-2-2----2----2-2-2-2-----|
   * * * * *    *    * * * * 
   "...again I hear..."


Riff 2
Both guitars
e|-------------------------------|
B|-------------------------------|
G|-------------------------------|
D|-----------4----5----------5-4-|
A|---------------------------3-2-|
E|-2-2-2-2-2----2----2-2-2-2-----|
   * * * * *    *    * * * * 

Guitar 1
e|-------------------------------|
B|-------------------------------|
G|-------------------------------|
D|-5-4----5-4--------------------|
A|-3-2----3-2----2-3-2h3p2p0-----|
E|---------------------------3-0-|
   "Oh no no no, oh my brain..."

Guitar 2
e|-------------------------------|
B|-------------------------------|
G|-------------------------------|
D|-5-4---------------------------|
A|-3-2----7-6----2-3-2h3p2p0-----|
E|---------------------------3-0-|



Riff 1a
e|-------------------------------|
B|-------------------------------|
G|-------------------------------|
D|-----------4----5----------7-6-|
A|---------------------------5-4-|
E|-2-2-2-2-2----2----2-2-2-2-----|
   * * * * *    *    * * * * 
   "Ah..."
e|-------------------------------|
B|-------------------------------|
G|-------------------------------|
D|-----------4----5----------2---|
A|---------------------------0-2-|
E|-2-2-2-2-2----2----2-2-2-2---0-|
   * * * * *    *    * * * * 
   "I see them gypsy wagons..."


Riff 3
e|----------------------|
B|----------------------|
G|----------------------|
D|-3----2----3----3-3-3-|
A|-1----0----1----1-1-1-|
E|----------------------|
   "Gypsy woman let me inside..."


Riff 4 (Solo Rhythm)
e|-------------------------------|
B|-------------------------------|
G|-------------------------------|
D|-----------6----7----------9-8-|
A|---------------------------7-6-|
E|-4-4-4-4-4----4----4-4-4-4-----|
   * * * * *    *    * * * * 
e|-------------------------------|
B|-------------------------------|
G|-------------------------------|
D|-----------6----7----------4---|
A|---------------------------2-4-|
E|-4-4-4-4-4----4----4-4-4-4---2-|
   * * * * *    *    * * * * 


Play Riff 1a  "Ah..."
Play Riff 3   "Gypsy woman..."


Riff 5                                    x4
e|-----------------------------------------|
B|-----------------------------------------|
G|-----------------------------------------|
D|---7--9----------------5---------------7-|
A|---5--7---------7-5-7----7~------------5-|
E|-0-------3-3-0---------------8-7-5-7-8---|


Riff 3a
e|----------------------|
B|----------------------|
G|----------------------|
D|-3----2----3----3-3-3-|
A|-1----0----1----1-1-1-|
E|----------------------|
  "Oh my son you were never..."
e|-------------------------------|
B|-------------------------------|
G|-------------------------------|
D|-----------4----5----------2---|
A|---------------------------0-2-|
E|-2-2-2-2-2----2----2-2-2-2---0-|
   * * * * *    *    * * * * 
  "...gone..."
e|----------------------|
B|----------------------|
G|----------------------|
D|-3----2----3----3-3-3-|
A|-1----0----1----1-1-1-|
E|----------------------|
   "You are the Devil's child, and so am I..."


Play Riff 5   Solo Rhythm


Lead into next section:
e|-----|
B|-----|
G|-----|
D|--4--|
A|--2--|
E|-----|


Play Riff 1a   Solo Rhythm


Riff 6 (Solo Rhythm)
e|-------------------------------|
B|-------------------------------|
G|-----------6----7----------9-8-|
D|---------------------------7-6-|
A|-4-4-4-4-4----4----4-4-4-4-----|
E|-------------------------------|
   * * * * *    *    * * * * 
e|-------------------------------|
B|-------------------------------|
G|-----------6----7----------4---|
D|---------------------------2-4-|
A|-4-4-4-4-4----4----4-4-4-4---2-|
E|-------------------------------|
   * * * * *    *    * * * * 
e|-------------------------------|
B|-------------------------------|
G|-----------6----7----------9-8-|
D|---------------------------7-6-|
A|-4-4-4-4-4----4----4-4-4-4-----|
E|-------------------------------|
   * * * * *    *    * * * * 
e|-----------------------------|
B|-----------------------------|
G|-----------6----7------------|
D|---------------------------3-|
A|-4-4-4-4-4----4----4-4-4-0-1-|
E|-----------------------------|
   * * * * *    *    * * * * 
   

Ending:
Both guitars
e|-------------------------------|
B|-------------------------------|
G|-------------------------------|
D|-----------4----5----------7-6-|
A|---------------------------5-4-|
E|-2-2-2-2-2----2----2-2-2-2-----|
   * * * * *    *    * * * * 
   "Ah..."
e|-------------------------------|
B|-------------------------------|
G|-------------------------------|
D|-----------4----5----------2---|
A|---------------------------0-2-|
E|-2-2-2-2-2----2----2-2-2-2---0-|
   * * * * *    *    * * * * 
   "Gypsy now I know..."
e|-------------------------------|
B|-------------------------------|
G|-------------------------------|
D|-----------4----5----------7-6-|
A|---------------------------5-4-|
E|-2-2-2-2-2----2----2-2-2-2-----|
   * * * * *    *    * * * * 
   "You are a part of my soul..."
e|-------------------------------|
B|-------------------------------|
G|-------------------------------|
D|-----------4----5----------5-4-|
A|---------------------------3-2-|
E|-2-2-2-2-2----2----2-2-2-2-----|
   * * * * *    *    * * * * 
   "...see..."

Guitar 1
e|---------------------------------|
B|---------------------------------|
G|---------------------------------|
D|-5-4----5-4----------------------|
A|-3-2----3-2----2-3-2h3p2p0-------|
E|---------------------------3-0-2-|
   "Oh no no no, I am you, Gypsy you're inside of me!"

Guitar 2
e|---------------------------------|
B|---------------------------------|
G|---------------------------------|
D|-5-4-----------------------------|
A|-3-2----7-6----2-3-2h3p2p0-------|
E|---------------------------3-0-2-|

------------------------------------------------

7. Welcome Princes of Hell

Tuning: Standard


Riff 1
e|--------------------------|
B|--------------------------|
G|--------------------------|
D|-2-----------2------------|
A|-0--4---4----0--4---4---4-|
E|----2-0-2--x----2-0-2-0-2-|
      * *         * * * *  

Riff 2
e|--------------------------------|
B|--------------------------------|
G|--------------------------------|
D|-5------------------------------|
A|-3--3-3-3-3-3-3-3-3-3-3-3-3-3-3-|
E|--------------------------------|
      * * * * * * * * * * * * * *   


Riff 3
Guitar 1
e|-----------------------------|
B|-----------------------------|
G|-----------------------------|
D|-5~------------5~------------|
A|-----7-5-7~--------7-5-7-5-7-|
E|-----------------------------|
   "I turn off the lights..."

Guitar 2 (comes in the last time)
e|-----------------------------|
B|-----------------------------|
G|-4~------------4~------------|
D|-----5-4-5~--------5-4-5-4-5-|
A|-----------------------------|
E|-----------------------------|


Play Riff 2   "Even in the night..."


Riff 4                            x2
e|---------------------------------|
B|---------------------------------|
G|---------------------------------|
D|-9--9-9-9-9-9-9------------------|
A|-7--7-7-7-7-7-7------------------|
E|----------------5/7--0-0-0-0-0-0-|
                       * * * * * * 
   "I see the light..."
e|------------------------------------|
B|------------------------------------|
G|------------------------------------|
D|-7--7-7-7-7-7-7--7--7-7-7-7-7-7-7-7-|
A|-5--5-5-5-5-5-5--4--4-4-4-4-4-4-4-4-|
E|------------------------------------|
   "I'm alone with my..."


Play Riff 1   "...friends..."
Play Riff 2
Play Riff 3   "Now I see you clear..."
Play Riff 2   "Even in the night..."
Play Riff 4   "I see the light..."


Riff 5
Guitar 1
e|---------------------------------|
B|---------------------------------|
G|---------------------------------|
D|-7-----9-----7-----9-----7---9---|
A|-5-----7-----5-----7-----5---7---|
E|---0-0---0-0---0-0---0-0---0---0-|
     * *   * *   * *   * *   *   *
   "...friends!"

Guitar 2
e|--------------------|
B|--------------------|
G|--------------------|
D|-12----11----5----7-|
A|-10-----9----3----5-|
E|--------------------|


Riff 5a
e|---------------------------------|
B|---------------------------------|
G|---------------------------------|
D|-7-----9-----7-----9-----7---9---|
A|-5-----7-----5-----7-----5---7---|
E|---0-0---0-0---0-0---0-0---0---0-|
     * *   * *   * *   * *   *   *
    

Riff 6
e|---------------------------------|
B|---------------------------------|
G|---------------------------------|
D|-0-----2-----0-----2-----0---2---|
A|-0-----2-----0-----2-----0---2---|
E|---0-0---0-0---0-0---0-0---0---0-|
     * *   * *   * *   * *   *   *
    "I will bring in here my crystal ball..."


Play Riff 5a   Solo Rhythm

Lead into next section:
e|-----------|
B|-----------|
G|-----------|
D|-2----5tr7-|
A|-0---------|
E|-----------|


Play Riff 6   Solo Rhythm
Play Riff 5a  Solo Rhythm
Play Riff 6   "I'm amazed..."


Riff 7
e|-------------------------------------------------|
B|-------------------------------------------------|
G|-------------------------------------------------|
D|-5--5-5-5-5-5-5-5-5-5-5-5-5--7--7-7-7-7-7-7-7--7-|
A|-3--3-3-3-3-3-3-3-3-3-3-3-3--5--5-5-5-5-5-5-5--5-|
E|-------------------------------------------------|
   "Welcome Princess of hell..."
                                    x3
e|-----------------------------------|
B|-----------------------------------|
G|-----------------------------------|
D|--------------5--------------------|
A|---------5-7----7~----7-6-5-2h5p2~-|
E|-0-0-0-0------------0--------------|
   * * * *            *
e|---------------------------------|
B|---------------------------------|
G|---------------------------------|
D|--------------5------------------|
A|---------5-7----7~----7-6-5-2----|
E|-0-0-0-0------------0---------3--|
   * * * *            *


Lead into next section:
e|---------------------------------|
B|---------------------------------|
G|---------------------------------|
D|-5-----7-----5-----7-----5---7---|
A|-5-----7-----5-----7-----5---7---|
E|---0-0---0-0---0-0---0-0---0---0-|
     * *   * *   * *   * *   *   *


Play Riff 6   "Never will I break the oath I gave..."
Play Riff 3   "Even in the night..."
Play Riff 4   "I see the light..."
Play Riff 1   "We will be back..."


Ending:
e|----------------------------|
B|----------------------------|
G|----------------------------|
D|-2-----------2--------------|
A|-0--4---4----0--4---4-2-3-4-|
E|----2-0-2--x----2-0-2-0-1-2-|
      * *         * * *    
   "We will be back..."

----------------------------------------

8. To One Far Away

Tuning: Standard


Rhythm throughout

(Acoustic)
e|----2-----2-------2---2-----------0------0-----|
B|----3-------3-----2-----2---------3--------3---|
G|----4---------4---4-------4-------4----------4-|
D|----4-------------4---------4-----4------------|
A|-2----(2)---------2-----------2-0----(0)-------|
E|-----------------------------------------------|

e|0--0-----------------------------------|
B|2----2----------0--0-------------0-----|
G|4------4--------0----0-------------0---|
D|4--------4------0------0------0------0-|
A|-----------0----2-----------0----------|
E|-------------3------------2------------|

e|---------------------------------|
B|-------0--0------------0---------|
G|-------0----0--------0---0-------|
D|-------2------2----2-------0-----|
A|-------2-----------------------0-|
E|-3-2-0----------0------------0---|

e|----2-----2-------2---2-----------0------0-----|
B|----3--------3----2-----2---------3--------3---|
G|----4-------------4-------4-------4----------4-|
D|----4-------------4---------4-----4------------|
A|-2----(2)---------2-----------2-0----(0)-------|
E|-----------------------------------------------|

e|-0--0-------------------------------------------|
B|-2----2---------------0----------------0--------|
G|-4------4---------------0------------0---0------|
D|-4--------4-------0-------0--------0-------0----|
A|------------0---2-----------2----0-----------0--|
E|--------------3---------------3-2--------------2|

e|---------------------------------|
B|---------0---------------0-------|
G|-------0---0-----------0---0-----|
D|-----2-------2-------2-----------|
A|---2-----------2---2---------2-0-|
E|-0---------------0---------------|

End Rhythm


Solo
e|-------------------------------------------|
B|-------------------------------------------|
G|------------6-7----------6-7------6-7------|
D|-7-9~~----9-----9~~----9-----9~~------7~~--|
A|-------------------------------------------|
E|-------------------------------------------|

e|----------------------------------------------|
B|----------------------------------------------|
G|-6-7------------------------------------------|
D|-----4~-(4)b5r4~---4-5-4---------------2------|
A|-------------------------7-6-4-2-0-2-4---/5~~-|
E|----------------------------------------------|

Guitar 2 plays top notes
e|---------------10-12-14-/15-14h15p14-12---9-10~~---9h10--9~~-|
B|-10b12-10~~----12-14-15-/17-15h17p15-14--10-12~~--10h12-10~~-|
G|-------------------------------------------------------------|
D|-------------------------------------------------------------|
A|-------------------------------------------------------------|
E|-------------------------------------------------------------|

e|-------------------------------------------------------|
B|-10-8-10p8---------10-8-10p8---------10-8-10p8---------|
G|-----------9-7---------------9-7---------------9-7-6-7-|
D|---------------7~----------------9~--------------------|
A|-------------------------------------------------------|
E|-------------------------------------------------------|

e|-----------------------------------------------------------|
B|-----------------------------------------------------------|
G|-6h7p6--------------------------------7-9b11--7-6-7--6h7p6-|
D|-------9-7--------------------------7----------------------|
A|-----------10-9-7-5-4-4-4/5~----7-9------------------------|
E|-----------------------------------------------------------|

e|-------------------------------------------------------|
B|-------------------------------------------------------|
G|-------------------------------------------9-----9-11--|
D|-9-8-8/9~----7-9~--7-9/11~--9-11-12--11-12----12-------|
A|-------------------------------------------------------|
E|-------------------------------------------------------|

e|------------------------------------------------------|
B|------10-----10-12--10-12-14--12-14-15-14-15-17-17b19-|
G|-9-11-----11------------------------------------------|
D|------------------------------------------------------|
A|------------------------------------------------------|
E|------------------------------------------------------|

e|------------------------------------------|
B|-15-17-15h17p15-14--15-14--12-14-12-12~~~-|
G|------------------------------------------|
D|------------------------------------------|
A|------------------------------------------|
E|------------------------------------------|

e|-14-17-15-14-----15-14----------------------------|
B|-------------17---------17~--15-14h15p14----------|
G|-----------------------------------------16-14-12-|
D|--------------------------------------------------|
A|--------------------------------------------------|
E|--------------------------------------------------|

e|-------------------------------------------|
B|-------------------------------------------|
G|-------------------------------------------|
D|-16-14-12-11-11h12p11-9-8-9~~--[fades out]-|
A|-------------------------------------------|
E|-------------------------------------------|

------------------------------------------------------

9. Come to the Sabbath

Tuning: Standard


Riff 1
e|--------------------------|
B|--------------------------|
G|--------------------------|
D|-7-9----9-7----7-5----5-4-|
A|-5-7----7-5----5-3----3-2-|
E|--------------------------|
   "Come, come to the Sabbath..."


Riff 2 (The final notes are played with an acoustic)
e|----------------------------0-|
B|--------------------------6---|
G|------------------------7-----|
D|----------------------0-------|
A|-2-2----2-2----2-2------------|
E|-0-0----0-0----0-0------------|

Final time
e|------------|
B|------------|
G|------------|
D|------------|
A|-2-2----2-2-|
E|-0-0----0-0-|


Riff 3
e|--------------------------------|
B|--------------------------------|
G|--------------------------------|
D|-----------5p4------------3-2---|
A|-0--2-3--5-----5--0--2-3------3-|
E|--------------------------------|


Riff 4
e|--------------------------|
B|--------------------------|
G|--------------------------|
D|--------5-4---------9-8-7-|
A|-4-4-4--3-2--4-4-4--7-6-5-|
E|-2-2-2-------2-2-2--------|


Play Riff 3


Riff 5
e|--------------------------------------|
B|--------------------------------------|
G|--------------------------------------|
D|-2----5--4-------------------4----5-4-|
A|-0----3--2-------------------2----3-2-|
E|------------3333333333333333----------|
              ****************
   "At first we light up a fire..."
e|-----------------------------|
B|-----------------------------|
G|-----------------------------|
D|-----------------------------|
A|------------------5-------7--|
E|-0000000000000000-3--0000-5--|
   ****************    **** 
   "Two candles..."
e|------------------------------|
B|------------------------------|
G|------------------------------|
D|--------------------------5-4-|
A|------------------5-------3-2-|
E|-0000000000000000-3--0000-----|
   ****************    **** 
   "...are placed upon the altar..."

Riff 6
e|----------------------------|
B|----------------------------|
G|----------------------------|
D|------------------------8-7-|
A|---------6-5-6----------6-5-|
E|-0-0-0-0-7-6-7--0-0-0-0-----|
   * * * *        * * * *      
                     "Ah ah..."
e|-------------------------|
B|-------------------------|
G|-------------------------|
D|----------------5----5-7-|
A|---------6-5-6--3----3-5-|
E|-0-0-0-0-7-6-7-----------|
   * * * *    
               "Come to the sabbath..."


Play Riff 3
Play Riff 5   "The ceremony's proceeding..."
Play Riff 6   "Ah ah, come to the sabbath..."


Riff 7 (Solo Rhythm)
e|----------------------------------|
B|----------------------------------|
G|----------------------------------|
D|----------------------------------|
A|----------------------------2-3-4-|
E|-0h2-2222-0h2-2222-0h2-2222-------|
       ****     ****     ****
e|-------------------------------|
B|-------------------------------|
G|-------------------------------|
D|-------------------4-3-2-------|
A|-------------------------0-1-2-|
E|-0h2-2222-0h2-2222-------------|
       ****     **** 

Riff 8 (Solo Rhythm)
e|------------------------------------|
B|------------------------------------|
G|----------------------------------0-|
D|------------------------------------|
A|-0h2-2222-0h2-2222-0h2-2222-0h2h5---|
E|------------------------------------|
       ****     ****     ****
e|-----------------------------|
B|-----------------------------|
G|-----------------------------|
D|--------------------9-7--9---|
A|-0h2-2222-0h2-2222--7-5--7-7-|
E|---------------------------5-|
       ****     ****

Play Riff 7   Solo Rhythm

Solo (Hank Shermann)
e|---21---19h21p19\----12--14--16------------------------| 
B|-------------------------------------------------------| 
G|-------------------------------------------------------| 
D|-------------------------------------------------------| 
A|-------------------------------------------------------| 
E|-------------------------------------------------------| 

e|---14--12---12h14---16p14p12~--------------------------| 
B|-------------------------------------------------------| 
G|-------------------------------------------------------| 
D|-------------------------------------------------------| 
A|-------------------------------------------------------| 
E|-------------------------------------------------------| 

e|--------------------------------------------------------| 
B|---12b14r12p10------------------------------------------| 
G|-----------------------11~------------------------------| 
D|--------------------------------------------------------| 
A|--------------------------------------------------------| 
E|--------------------------------------------------------| 

e|---21---19h21p19\----12--14--16--------------------------| 
B|---------------------------------------------------------| 
G|---------------------------------------------------------| 
D|---------------------------------------------------------| 
A|---------------------------------------------------------| 
E|---------------------------------------------------------| 

e|---14--12---12h14---16p14p12~----------------------------| 
B|---------------------------------------------------------| 
G|---------------------------------------------------------| 
D|---------------------------------------------------------| 
A|---------------------------------------------------------| 
E|---------------------------------------------------------| 

e|----------------------------------------------------------| 
B|---12b14r12p10---10~--------------------------------------| 
G|----------------------------------------------------------| 
D|----------------------------------------------------------| 
A|----------------------------------------------------------| 
E|----------------------------------------------------------| 

e|----------------------------------------------------------| 
B|----------------------------------------------------------| 
G|---11--9h11--11--9h11---9h11---11p9~----------------------| 
D|----------------------------------------------------------| 
A|----------------------------------------------------------| 
E|----------------------------------------------------------| 

e|---14p11---------------------------------------------------| 
B|-------------10h11--11---10h11---13--15--------------------| 
G|-----------------------------------------------------------| 
D|-----------------------------------------------------------| 
A|-----------------------------------------------------------| 
E|-----------------------------------------------------------| 

e|-----------------------------------------------------------| 
B|---15b17-----13h15----13h15p13-----------------------------| 
G|-----------------------------------------------------------| 
D|-----------------------------------------------------------| 
A|-----------------------------------------------------------| 
E|-----------------------------------------------------------| 

e|--------------------16--15----14h15p14--------------------| 
B|------------------------------------------------16--15~\--| 
G|---12--11h12----------------------------------------------| 
D|----------------------------------------------------------| 
A|----------------------------------------------------------| 
E|----------------------------------------------------------| 

e|--------------------------------------------------------------| 
B|---12h14--14-12---12h14--14-12-12-----------------------------| 
G|--------------------------------------------------------------| 
D|--------------------------------------------------------------| 
A|--------------------------------------------------------------| 
E|--------------------------------------------------------------| 

e|---17b19r17p15-------------------12--14b15r14p12----| 
B|----------------------17--15------------------------| 
G|----------------------------------------------------| 
D|----------------------------------------------------| 
A|----------------------------------------------------| 
E|----------------------------------------------------| 

e|---12--14b15r14p12----12--14b15r14p12--------------------------| 
B|---------------------------------------------------------------| 
G|---------------------------------------------------------------| 
D|---------------------------------------------------------------| 
A|---------------------------------------------------------------| 
E|---------------------------------------------------------------| 

e|---12--14b15r14p12----12--14b15r14p12---------------------------| 
B|----------------------------------------------------------------| 
G|----------------------------------------------------------------| 
D|----------------------------------------------------------------| 
A|----------------------------------------------------------------| 
E|----------------------------------------------------------------| 

e|---12--14b15r14p12----------------------------------------------| 
B|-----------------------------12h14p12h14------------------------| 
G|----------------------------------------------------------------| 
D|----------------------------------------------------------------| 
A|----------------------------------------------------------------| 
E|----------------------------------------------------------------| 

e|---15--14--12------------------12--14--16-/-19\----------------| 
B|------------------14-------------------------------------------| 
G|----------------------15--14~----------------------------------| 
D|---------------------------------------------------------------| 
A|---------------------------------------------------------------| 
E|---------------------------------------------------------------| 

e|---16--14---12h14\---10--9h10h12---12-/-19\--------------------| 
B|---------------------------------------------------------------| 
G|---------------------------------------------------------------| 
D|---------------------------------------------------------------| 
A|---------------------------------------------------------------| 
E|---------------------------------------------------------------| 

e|----------------------------------------17---------------------| 
B|---12p10h12h13h14h15h17----------------------------------------| 
G|---------------------------------------------------------------| 
D|---------------------------------------------------------------| 
A|---------------------------------------------------------------| 
E|---------------------------------------------------------------| 
                                                let last note ring out... 
e|---19b21-19---19h21p19h21---14--16--14~------------------------| 
B|---------------------------------------------------------------| 
G|---------------------------------------------------------------| 
D|---------------------------------------------------------------| 
A|---------------------------------------------------------------| 
E|---------------------------------------------------------------| 


End Solo



Lead into next section:
e|-----------------------------|
B|-----------------------------|
G|-4-3-2-----------------------|
D|-------0-1-2--4-3-2-0-2-0--6-|
A|---------------------------4-|
E|-----------------------------|


Riff 9
Harpsichord (arranged for guitar)
                    x2                  
e|-8-5-0--8-5-0--8-0-|-7-5-0--7-5-0--7-0-|-7-4-0--7-4-0--7-0-|
B|-------------------|-------------------|-------------------|
G|-------------------|-------------------|-------------------|
D|-------------------|-------------------|-------------------|
A|-------------------|-------------------|-------------------|
E|-------------------|-------------------|-------------------|


Guitar 1 (5 times, then ending)                                                         
                    x2                                       Ending
e|-8-5-0--8-5-0--8-0-|-7-5-0--7-5-0--7-0-|-7-4-0--7-4-0--7-0-|-5tr7-|
B|-------------------|-------------------|-------------------|------|
G|-------------------|-------------------|-------------------|------|
D|-------------------|-------------------|-------------------|------|
A|-------------------|-------------------|-------------------|------|
E|-------------------|-------------------|-------------------|------|

Guitar 2 (5 times, then ending) 
                       x2                                           Ending
e|-12-8-0--12-8-0--10-0-|-10-8-0--10-8-0--8-0-|-10-7-0--10-7-0--7-0-|-8tr10-|
B|----------------------|---------------------|---------------------|-------|
G|----------------------|---------------------|---------------------|-------|
D|----------------------|---------------------|---------------------|-------|
A|----------------------|---------------------|---------------------|-------|
E|----------------------|---------------------|---------------------|-------|


Riff 10                    x2
e|--------------------------|
B|--------------------------|
G|--------------------------|
D|-------2-3-4--------------|
A|----4------------4--3-2---|
E|-2------------2---------5-|

e|--------------------------------------|
B|--------------------------------------|
G|--------------------------------------|
D|-------2-3-4--------------------------|
A|----4------------4--3-2------4--3-2---|
E|-2------------2---------5-----------5-|


Riff 10a                   x2
e|--------------------------|
B|--------------------------|
G|--------------------------|
D|-------2-3-4--------------|
A|----4------------4--3-2---|
E|-2------------2---------5-|
                               x2
e|------------------------------|
B|------------------------------|
G|------------------------------|
D|------------------------3-2-0-|
A|-2--0-2-0-2-3--2--0-2-0-------|
E|------------------------------|

e|--------------------------------------|
B|--------------------------------------|
G|--------------------------------------|
D|-------2-3-4--------------------------|
A|----4------------4--3-2------4--3-2---|
E|-2------------2---------5-----------5-|
                           x2
e|--------------------------|
B|--------------------------|
G|--------------------------|
D|-------2-3-4--------------|
A|----4------------4--3-2---|
E|-2------------2---------5-|


Riff 11
e|-------------------------|
B|-------------------------|
G|-------------------------|
D|-7---10-10-10-7----------|
A|-5----8--8--8-5----5-4-3-|
E|-------------------------|
   "If you say Heaven..."
                           x2
e|--------------------------|
B|--------------------------|
G|--------------------------|
D|-------2-3-4--------------|
A|----4------------4--3-2---|
E|-2------------2---------5-|

e|-------------------------|
B|-------------------------|
G|-------------------------|
D|-7---10-10-10-7----------|
A|-5----8--8--8-5----5-4-3-|
E|-------------------------|
   "You say forgive him..."
                           x2
e|--------------------------|
B|--------------------------|
G|--------------------------|
D|-------2-3-4--------------|
A|----4------------4--3-2---|
E|-2------------2---------5-|

e|---------------------------|
B|---------------------------|
G|---------------------------|
D|-7---10-10-10-7------------|
A|-5----8--8--8-5----5-4-3-4-|
E|-------------------------2-|
   "Oh my sweet Satan, you are the one!"

notation:
^   =  bend [ ^ = half, ^^ = whole, etc. ]
^r  =  bend and release
x   =  mute with fret-hand
*   =  mute with palm-hand
X\\ =  pick slide
h   =  hammer-on
p   =  pull-off
~   =  vibrato
t   =  tap-on
/   =  slide up
\   =  slide down
h.  =  harmonics
ah  =  artificial harmonic
(9) =  ghost note
tm  =  trem picking
tr  =  trill

comments
We did not receive enough feedback on this tab! Please rate:
print report bad tab
1 2 3 4 5
I want to post or [tab]
guest
You may want to rate the tab now too:
select rating
Please do not post tabs as comments. Select "correction" instead!