Oops, an error
Loading. Please wait.

Melissa Tab

ver1
ver1

Album

Whole song

More versions @911Tabs.com
4,149 views 9 this week
no commentswrite comment
1 2 3 4 5
excellent!
x 4
Autoscroll
+/-
esc
set tempo
stop
Contributor
WARNING: You are trying to view
                                    content from Ultimate-Guitar.com
                                    in an unauthorized application,
                                    which is prohibited.

                                    Please use an official Ultimate
                                    Guitar Tabs application for iPhone,
                                    iPad or Android to access legitimate
                                    chords, guitar, bass, and drum tabs
                                    from Ultimate-Guitar.com database.

                                    Type "ultimate guitar tabs" in Apple
                                    App Store's or Android Market's
                                    search to find the application.
Band: Mercyful Fate
Album: Melissa

Track Listing:
1. Evil
2. Curse of the Pharoahs
3. Into the Coven
4. At the Sound of the Demon Bell
5. Black Funeral
6. Satan's Fall
7. Melissa

-----------------------------------

1. Evil

Tuning: Standard

Intro
e|-------------------------------|
B|-------------------------------|
G|-------------------------------|
D|-5--5--5--5-5-5--5--5--5-5---2-|
A|-3--3--3--3-3-3--3--3--3-3---0-|
E|---------------------------3---|
      
      
Riff 1
Guitar 1
e|-----------------------------|
B|-----------------------------|
G|-----------------------------|
D|-----------------------------|
A|-----------------------------|
E|-5-3-0-5-3-0-5-3-0-5-3-0-...-|

Guitar 2 (Comes in later)
e|-----------------------------|
B|-----------------------------|
G|-5-4-2-5-4-2-5-4-2-5-4-2-...-|
D|-----------------------------|
A|-----------------------------|
E|-----------------------------|

Guitar 3 (Comes in later)
e|---------------------|
B|---------------------|
G|---------------------|
D|-9----9----9----9----|
A|-7----7----7----7----|
E|---------------------|


Lead into next section:
e|-----------------------------|
B|-----------------------------|
G|-----------------------------|
D|-5--5--5--5-5-5--5--5--------|
A|-3--3--3--3-3-3--3--3--5-4-2-|
E|-----------------------3-2-0-|


Riff 2
e|----------------------------------------------|
B|----------------------------------------------|
G|----------------------------------------------|
D|----/12-12-9-----/12-12-9-----/12-12--7-9-7-9-|
A|-77-/10-10-7--77-/10-10-7--77-/10-10--5-7-5-7-|
E|----------------------------------------------|
   **           **           **

Final time 
e|----------------------------------------------|
B|----------------------------------------------|
G|----------------------------------------------|
D|----/12-12-9-----/12-12-9-----/12-12--7-9-7-4-|
A|-77-/10-10-7--77-/10-10-7--77-/10-10--5-7-5-2-|
E|----------------------------------------------|
   **           **           **       
                                      

Riff 3
e|-------------------------------|
B|-------------------------------|
G|-------------------------------|
D|-4-4-4-4-4-4-4-4-4-4-4-4---4-7-|
A|-2-2-2-2-2-2-2-2-2-2-2-2-0-2-5-|
E|-------------------------------|
   "I was born in a cemetary..."
e|-------------------------------|
B|-------------------------------|
G|-------------------------------|
D|-4-4-4-4-4-4-4-4-4-4-4-4---4-7-|
A|-2-2-2-2-2-2-2-2-2-2-2-2-0-2-5-|
E|-------------------------------|
   "Under the sign of the moon..."
e|-------------------------------|
B|-------------------------------|
G|-------------------------------|
D|---------------------------4-7-|
A|-5-5-5-5-5-5-5-5-5-5-5-5-0-2-5-|
E|-3-3-3-3-3-3-3-3-3-3-3-3-------|
   "Raised from the grave..."

1st Ending
e|-------------------------------|
B|-------------------------------|
G|-------------------------------|
D|-4-4-4-4-4-4-4-4-4-4-4-4---4-7-|
A|-2-2-2-2-2-2-2-2-2-2-2-2-0-2-5-|
E|-------------------------------|
   "...by the dead..."

1st Ending
e|-----------------------------|
B|-----------------------------|
G|-----------------------------|
D|-4-4-4-4-2-------------------|
A|-2-2-2-2-0--5--5-5-5-5-4-3-2-|
E|------------3--3-3-3-3-2-1-0-|
   "...I'm insane..."


Play Riff 2  but use this ending:
e|----------------------------------------------|
B|----------------------------------------------|
G|----------------------------------------------|
D|----/12-12-9-----/12-12-9-----/12-12--7-9-7---|
A|-77-/10-10-7--77-/10-10-7--77-/10-10--5-7-5-4-|
E|--------------------------------------------2-|
   **           **           **       


Riff 4
e|---------------------------|
B|---------------------------|
G|---------------------------|
D|-------------------------7-|
A|-------------------------5-|
E|-222-222-222-222-222-222---|
   *** *** *** *** *** ***
   "You know..."
e|-----------------------------|
B|-----------------------------|
G|-----------------------------|
D|-5-------------------------4-|
A|-3-333-333-333-333-333-333-2-|
E|-----------------------------|
     *** *** *** *** *** ***
   "...my only pleasure..."
e|-------------------------------|
B|-------------------------------|
G|-------------------------------|
D|-2-------------------------4-5-|
A|-0-000-000-000-000-000-000-2-3-|
E|-------------------------------|
     *** *** *** *** *** ***
   "...is to hear you cry..."
e|---------------------------------|
B|---------------------------------|
G|---------------------------------|
D|-6-------------------------7-8-9-|
A|-4-444-444-444-444-444-444-5-6-7-|
E|---------------------------------|
     *** *** *** *** *** ***
   "...cry..."


Play Riff 2  but use this ending:
e|----------------------------------------------|
B|----------------------------------------------|
G|----------------------------------------------|
D|----/12-12-9-----/12-12-9-----/12-12--7-9-7---|
A|-77-/10-10-7--77-/10-10-7--77-/10-10--5-7-5-4-|
E|--------------------------------------------2-|
   **           **           **      
   "I love to feel you die..."

Play Riff 4   "And I'll be the first..."

Play Riff 2  but use this ending:
e|----------------------------------------------|
B|----------------------------------------------|
G|----------------------------------------------|
D|----/12-12-9-----/12-12-9-----/12-12--7-9-7---|
A|-77-/10-10-7--77-/10-10-7--77-/10-10--5-7-5-7-|
E|--------------------------------------------5-|
   **           **           **


Riff 5 
e|----------------------------------------------|
B|----------------------------------------------|
G|----------------------------------------------|
D|----------------------------------------------|
A|----/10-10-7-----/10-10-7-----/10-10--5-7-5-7-|
E|-55-/-8--8-5--55-/-8--8-5--55-/-8--8--3-5-3-5-|
   **           **           **
e|--------------------------------------------|
B|--------------------------------------------|
G|--------------------------------------------|
D|--------------------------------------------|
A|----/10-10-7-----/10-10-7-----/10-10--5-7-5-|
E|-55-/-8--8-5--55-/-8--8-5--55-/-8--8--3-5-3-|
   **           **           **

Riff 6
e|---------------------------|
B|---------------------------|
G|---------------------------|
D|-----------7-5-----------5-|
A|-7-7--5-7--5-3--5-5-3-3--3-|
E|-5-5--3-5-------3-3-1-1----|
             "And when you're down..."
e|---------------------------|
B|---------------------------|
G|---------------------------|
D|-----------7-5-------------|
A|-7-7--5-7--5-3--5-5---3-3--|
E|-5-5--3-5-------3-3---1-1--|
   "...beyond the grave..."
e|---------------------------|
B|---------------------------|
G|---------------------------|
D|-----------7-5-----------5-|
A|-7-7--5-7--5-3--5-5-3-3--3-|
E|-5-5--3-5-------3-3-1-1----|
   "I'll dig up your body..."
e|---------------------------|
B|---------------------------|
G|---------------------------|
D|-----------7-5-----------5-|
A|-7-7--5-7--5-3--5-5-3-3--3-|
E|-5-5--3-5-------3-3-1-1----|
   "...and make love to shame..."


Riff 7
e|-------------------------------|
B|-------------------------------|
G|-------------------------------|
D|-------------5-----------------|
A|-3-3--x-x--3-3-5-7-7--x-x-xxxx-|
E|-1-1--x-x--1---3-5-5--x-x-xxxx-|

e|----------------------------|
B|----------------------------|
G|----------------------------|
D|-7-7------5-5----3-3----5-7-|
A|-5-5-5555-3-3-33-1-1----3-5-|
E|----------------------------|
   "You gotta say goodbye..."
e|---------------------------------|
B|---------------------------------|
G|---------------------------------|
D|-------------5-------------------|
A|-3-3--x-x--3-3-5-7-7--xxx-x-xxxx-|
E|-1-1--x-x--1---3-5-5--xxx-x-xxxx-|

e|----------------------------|
B|----------------------------|
G|----------------------------|
D|-7-7------5-5----3-3----5-7-|
A|-5-5-5555-3-3-33-1-1----3-5-|
E|----------------------------|
   "Cause I will eat your mind..."


Riff 8 (Solo Rhythm)
e|---------------------|
B|---------------------|
G|---------------------|
D|----------7----------|
A|-5-5----5-5-7-9-9----|
E|-3-3----3---5-7-7----|

e|----------------------------|
B|----------------------------|
G|----------------------------|
D|-9-9------7-7----5-5----9-7-|
A|-7-7-7777-5-5-55-3-3----7-5-|
E|----------------------------|

Final time
e|----------------------------|
B|----------------------------|
G|----------------------------|
D|-9-9------7-7----5-5----9---|
A|-7-7-7777-5-5-55-3-3----7-9-|
E|--------------------------7-|

Solo over Riff 8
transcribed by: 
David Le Roux (odelo1@hotmail.com) http://homestead.com/_odelo/M.html

                                                               pick
e|---------------------------------------------------|-------------------------------------|
B|--13^^--13^^--13^^--12------12--13--12h13p12-------|-------------------------------------|
G|--14^^--14^^--14^^------14--12----------------14~--|--14--14--14^^-14^^r--14h16--14--14--|
D|---------------------------------------------------|-------------------------------------|
A|---------------------------------------------------|-------------------------------------|
E|---------------------------------------------------|-------------------------------------|

e|-------------------12--14--12----------------------------|
B|--/12--12h13---15-------------15--13--12-----------------|
G|-----------------------------------------14-12--11-11~---|
D|---------------------------------------------------------|
A|---------------------------------------------------------|
E|---------------------------------------------------------|

e|--10/12-------------------15^^r------------14~-----------|
B|--12/13--12h13p12---------15^^r--15--15^^--15~--\--------|
G|------------------14--12---------------------------------|
D|---------------------------------------------------------|
A|---------------------------------------------------------|
E|---------------------------------------------------------|

e|-----------------------------------------------------------------------------------|
B|--13p12----------------------------------------------------------------------------|
G|--------14-12--11h12--11--11--------11--11-----------------------------------------|
D|------------------------14--14-12-14--14--14-12-14-12-10-12-12-12------------------|
A|-----------------------------------------------------------------10-12-10----------|
E|--------------------------------------------------------------------------12p10\3--|

e|-----------------------------------------|
B|--------15-14----------------------------|
G|--15-16-16-15-16-16-15h16-16-15h16-16~---|
D|-----------------------------------------|
A|-----------------------------------------|
E|-----------------------------------------|

e|---------12-14-12h14p12------------------------------------------------------------|
B|-15-15^^---------------15-12-13-15-12-13--12----------------------------12-13-15~--|
G|----------------------------------------14--12-14-11-12--11-----11-12-14-----------|
D|-------------------------------------------------------14--12-14-------------------|
A|-----------------------------------------------------------------------------------|
E|-----------------------------------------------------------------------------------|

e|-----------------------------------------------------------------------------------|
B|-15^^r-13-15-13h15p13-12-13-12\-----------------12-12-13-12h13p12--12--------------|
G|----------------------------------------12-12-14-----------------14--14^^r-12------|
D|--------------------------------12-12-14-------------------------------------------|
A|-----------------------------------------------------------------------------------|
E|-----------------------------------------------------------------------------------|

e|--------------------------------|
B|--------------------------------|
G|--14-12h14p12-11-12-11~~--\-2---|
D|--------------------------\-2---|
A|----------------------------0---|
E|--------------------------------|

End Solo



Riff 9
e|---------------------------------|
B|---------------------------------|
G|---------------------------------|
D|-2------5------5------5--------5-|
A|-0----5-3----5-3----5-3----3-5-3-|
E|------3------3------3------1-3---|

e|----------------------------------|
B|----------------------------------|
G|----------------------------------|
D|-5-3-5----5-3-5----5-3-5----5-4-2-|
A|-3-1-3----3-1-3----3-1-3----3-2-0-|
E|----------------------------------|


Riff 10 (Solo Rhythm)                                       
e|------------------|
B|------------------|
G|----------------5-|
D|--------------5-3-|
A|-555555555555-3---|
E|------------------|
   ************


Riff 11 (Solo Rhythm)
e|--------------------------------|
B|--------------------------------|
G|------------------------------5-|
D|--------------7---------------3-|
A|-222222222222-5--222222222222---|
E|--------------------------------|
   ************    ************
e|------------------------------|
B|------------------------------|
G|------------------------------|
D|--------------7---------------|
A|-222222222222-5-------------3-|
E|-----------------0--2-3--5----|
   ************  
e|--------------------------------|
B|--------------------------------|
G|------------------------------5-|
D|--------------7---------------3-|
A|-222222222222-5--222222222222---|
E|--------------------------------|
   ************    ************
e|------------------------------|
B|------------------------------|
G|------------------------------|
D|--------------7---------------|
A|-222222222222-5-------------3-|
E|-----------------0--2-3--5----|
   ************  

                      
Drum and lead solo


Riff 12 (Solo Rhythm)
e|---------------------------------|
B|---------------------------------|
G|---------------------------------|
E|---------------------------6-----|
A|-4444444444444444444444444-4-5-5-|
E|-----------------------------3-3-|
   *************************
e|--------------------------------|
B|--------------------------------|
G|--------------------------------|
E|---------------------------6--4-|
A|-4444444444444444444444444-4--2-|
E|--------------------------------|
   *************************
E|--------------------------------|
B|--------------------------------|
G|--------------------------------|
D|---------------------------2--5-|
A|-0000000000000000000000000-0--3-|
E|--------------------------------|
   ************************* 


Riff 11a (Solo Rhythm)
e|--------------------------------|
B|--------------------------------|
G|------------------------------5-|
D|-4------------7--4------------3-|
A|-2-222-222-22-5--2-222-222-22---|
E|--------------------------------|
     *** *** **      *** *** **
e|------------------------------|
B|------------------------------|
G|------------------------------|
D|-4------------7---------------|
A|-2-222-222-22-5-------------3-|
E|-----------------0--2-3--5----|
     *** *** **  
e|--------------------------------|
B|--------------------------------|
G|------------------------------5-|
D|--------------7---------------3-|
A|-222222222222-5--222222222222---|
E|--------------------------------|
   ************    ************
e|------------------------------|
B|------------------------------|
G|------------------------------|
D|--------------7---------------|
A|-222222222222-5-------------2-|
E|-----------------0--2-3--5----|
   ************  

Ending:
e|-----------------|
B|-----------------|
G|-----------------|
D|-----------------|
A|-0--2-3--2-3-----|
E|-------------3-5-|

---------------------------------------

2. Curse of the Pharoahs

Tuning: Standard

 Intro
E|---------------------------------|-------------------------------|---------
B|---------------------------------|-------------------------------|---------
G|-----------------5---------7b8r7-|---------4-------------5---5-4-|---------
D|-----7-----5-----5-----7---7b8r7-|-----5---4-5-----7-----7---7-5-|-----7---
A|-0-0---0-0-0-0-0---0-0-0-0-------|-0-0-0-0---0-0-0-0-0-0---0-----|-0-0---0-
E|---------------------------------|-------------------------------|---------



                                                     Gtr 2 Does the Slide

E|-----------------------|------------------------------------------|---
B|-----------------------|------------------------------------------|---
G|---------5-------7b8--r|-----------4-----------0-----0------------|---
D|---5-----5-----7-7b8--r|---------5-4-5-------2-----0--------------|---
A|-0-0-0-0---0-0-0-------|-----0-0-0---0-0-0-3-----2----------------|-0-
E|-----------------------|-------------------------------3~-(-17\)--|---



          Gtr 2 Harmony In Parenthesis Play Previous Riff 3X

E|----------------------------------|---|---|---|-----------------------
B|-------------------(-6-)-(-5tr6-)-|---|---|---|-----------------------
G|---7-5-----------4---7-----5tr7---|-%-|-%-|-%-|---------7-5-----------
D|---7-5-----7-----4----------------|---|---|---|---------7-5-----7-----
A|-0-----0-0-0-0-0------------------|---|---|---|-----0-0-----0-0-0-0-0-
E|----------------------------------|---|---|---|-----------------------


            E5 F#5                                       E5 F#5 A5 F#5
      Riff A  Solo Riff

E|--------|-------------------------------------------------------------
B|--------|-------------------------------------------------------------
G|-4--7-5-|-------------------------------------------------------------
D|-4--7-5-|--------------------------------------------------2----------
A|--------|-2--4-4-4--4-4-4--4-4-4--4-4-4--4-4-4--4-4-4--2-4-0------4-4-
E|--------|-0--2-2-2--2-2-2--2-2-2--2-2-2--2-2-2--2-2-2--0-2--------2-2-


                                         E5         E5 F#5
                                               Riff B Verse Riff

E|--------------------------------------------|---|--------------------
B|--------------------------------------------|---|--------------------
G|--------------------------------------------|-%-|--------------------
D|--------------------------------------------|---|--------------------
A|-4--4-4-4--4-4-4--4-4-4--4-4-4--4-4-4--2--2-|---|-2--4-4-4--4-4-4--4-
E|-2--2-2-2--2-2-2--2-2-2--2-2-2--2-2-2--0--0-|---|-0--2-2-2--2-2-2--2-


                                    A5 F#5


E|---------------------------------------------------------------------
B|---------------------------------------------------------------------
G|---------------------------------------------------------------------
D|----------------------------------2----------------------------------
A|-4-4---4-4-4-4-4-4--4-4-4--4-4-4--0--4-4-4--4-4-4--4-4-4--4-4-4--4-4-
E|-2-2---2-2-2-2-2-2--2-2-2--2-2-2-----2-2-2--2-2-2--2-2-2--2-2-2--2-2-


             E5       F#5


E|---------------------------------------------------------------------
B|---------------------------------------------------------------------
G|---------------------------------------------------------------------
D|---------------------------------------------------------------------
A|-4--4-4-4--2--2---2--4-4-4-4-4-4--4-4-4--4-4-4--4-4-4--4-4-4--4-4-4--
E|-2--2-2-2--0--0---0--2-2-2-2-2-2--2-2-2--2-2-2--2-2-2--2-2-2--2-2-2--


   A5 F#5                                             G#5


E|---------------------------------------------------------------------
B|---------------------------------------------------------------------
G|---------------------------------------------------------------------
D|-2-------------------------------------------------------------------
A|-0--4-4-4--4-4-4--4-4-4--4-4-4--4-4-4----4-4-4--4-4--6------6------6-
E|----2-2-2--2-2-2--2-2-2--2-2-2--2-2-2----2-2-2--2-2--4--4-4-4--4-4-4-


           A5          B5 C#5 B5                   C#5


E|-----------------------------------------------------------------------
B|-----------------------------------------------------------------------
G|-----------------------------------------------------------------------
D|-----------------------------------------------------------------------
A|------6--7------7--7-9-11-9------9------9------9--11--------11------11-
E|--4-4-4--5--5-5-5--5-7--9-7--7-7-7--7-7-7--7-7-7---9----9-9--9--9-9--9-


       F#5 E5 F#5 A5 C5 B5 C5 B5 A5 E5 F#5 E5 F#5 A5 D5 C#5 D5 C#5 E5 A5
    Riff C Chorus Riff

E|----|-----------------------------------------------------|---|------
B|----|-----------------------------------------------------|---|------
G|----|-----------------------------------------------------|-%-|------
D|----|-------2---5-4--5-4--2------------2---7-6--7-6-----2-|---|------
A|----|-4-2-4-0-0-3-2--3-2--0--2---4-2-4-0-0-5-4--5-4--2--0-|---|------
E|--9\|-2-0-2------------------0---2-0-2---------------0----|---|------


  D5                                                         F5      D5
Riff D Solo Riff

E----------------------------------------------------------------------
B----------------------------------------------------------------------
G----------------------------------------------------------------------
D-7------7------7------7------7------7------7------7------7--10------7-
A-5--5-5-5--5-5-5--5-5-5--5-5-5--5-5-5--5-5-5--5-5-5--5-5-5---8--5-5-5-
E----------------------------------------------------------------------


                                       C5            D5


E|------------------------------------------|---------------------------
B|------------------------------------------|---------------------------
G|------------------------------------------|---------------------------
D|------7------7------7------7------7--5--5-|-5------7------7------7----
A|--5-5-5--5-5-5--5-5-5--5-5-5--5-5-5--3--3-|-3--5-5-5--5-5-5--5-5-5--5-
E|------------------------------------------|---------------------------


                               F5      D5


E|----------------------------------------------------------------------
B|----------------------------------------------------------------------
G|----------------------------------------------------------------------
D|---7------7------7------7----10------7------7------7------7------7----
A|-5-5--5-5-5--5-5-5--5-5-5-----8--5-5-5--5-5-5--5-5-5--5-5-5--5-5-5--5-
E|----------------------------------------------------------------------


        E5             F#5 E5 F#5 A5 D5 C#5 E5 D#5 E5 F#5  F#5 G5
 Repeat Riff B 1X and Riff C 1.5X             Riff E Play 4X

E|-----------|--------|-----------------------|------------------------
B|-----------|--------|-----------------------|------------------------
G|-----------|--------|-----------------------|------------------------
D|---7-------|--------|-------2----7-6---9--8-|------x-x-x-------x-x-x-
A|-5-5--2--2-|--------|-4-2-4-0-0--5-4---7--6-|-2-4--x-x-x--4-5--x-x-x-
E|------0--0-|--------|-2-0-2-----------------|-0-2--x-x-x--2-3--x-x-x-


    A5 F#5     B5 A5                C#5                          A5 B5
                                  Riff G Solo Riff

E|-----------------|---|---|---|---|---------------------------------|-
B|-----------------|---|---|---|---|---------------------------------|-
G|-----------------|-%-|-%-|-%-|-%-|---------------------------------|-
D|--2----x-x-x-4-2-|---|---|---|---|-6-6--x-x-x--6-6--x-x-x-6-6--2-4-|-
A|--0-4--x-x-x-2-0-|---|---|---|---|-4-4--x-x-x--4-4--x-x-x-4-4--0-2-|-
E|----2--x-x-x-----|---|---|---|---|------x-x-x-------x-x-x----------|-


                  D5 B5 E5 B5 F5 B5 E5 B5  A5 F#5   B5 F#5   C5 F#5 B5 F#5
                  Riff G

E---|---|---|---|--------------------|---|----------------------------|-
B---|---|---|---|--------------------|---|----------------------------|-
G-%-|-%-|-%-|-%-|-2----4----5----4---|-%-|----------------------------|-
D---|---|---|---|-0-4--2-4--3-4--2-4-|---|-2---<4>--4---<4>--5----4---|-
A---|---|---|---|---2----2----2----2-|---|-0-4------2-4------3-4--2-4-|-
E---|---|---|---|--------------------|---|---2--------2--------2----2-|-


   A5 F#5 B5 F#5 C5 F#5 B5 F#5 E5 D5 D5 C#5 C5 B5


E|--------------------------------------|-------------------------------
B|--------------------------------------|-------------------------------
G|--------------------------------------|-------------------------------
D|-2----4---<4>-5----4-------7--7-6-5-4-|-----4------4------4------4----
A|-0-4--2-4-----3-4--2-4--2--5--5-4-3-2-|-2-2-2--2-2-2--2-2-2--2-2-2--2-
E|---2----2-------2----2--0-------------|-------------------------------


               A5 B5 D5    B5                                     A5 B5


E|-------------------|------------------------------------------------|-
B|-------------------|------------------------------------------------|-
G|-----------------2-|------------------------------------------------|-
D|---4------4--2-4-0-|-----4-------4------4------4------4------4--2-4-|-
A|-2-2--2-2-2--0-2---|-2-2-2---2-2-2--2-2-2--2-2-2--2-2-2--2-2-2--0-2-|-
E|-------------------|------------------------------------------------|-


          F#5
Repeat Riff B1X and Riff C 2X

E|-------|-----*|-
B|-------|-----*|-
G|-------|-----*|-
D|-------|-----*|-
A|-------|-4-4-*|-
E|-------|-2-2-*|-

------------------------------------------

3. Into the Coven

Tuning: Standard

Intro (Acoustic, Solo Rhythm)    
e|--------------------(3-1)-------------------------|
B|-----------------------0-3---------------6--8-----|
G|------5-----4-----0--0----------5-----4--------5--|
D|----5-----5-----2-------------5-----5----3--5-----|
A|--3-----2-----3-------------3-----2------------3--|
E|--------------------------------------------------|

e|--------------------(2-0)-------------------------|
B|-------------------------3---------------6--8-----|
G|------5-----4-----0--0-4--------5-----4--------5--|
D|----5-----5-----2-------------5-----5----3--5-----|
A|--3-----2-----3-------------3-----2------------3--|
E|--------------------------------------------------|

e|------------------------------------------------|
B|--1---3----0---1-----------1--1-1---3--3-3------|
G|------------------1--1-1------------------------|
D|------------------------------------------------|
A|--0--------2---0-----------3--3-3---2--2-2------|
E|------3-----------0--0-0------------------------|

e|-------------------------------------------------|
B|--5--5-5-----------------------------------------|
G|----------1--1-1--4--4-5-7----9--9-9---2-2--2-2--|
D|-------------------------------------------------|
A|--3--3-3----------2--2-3-5----7--7-7---0-0--0-0--|
E|----------0--0-0---------------------------------|

e|-----------------------------|
B|--3-3-0-0---1--1--0---0--1---|
G|--------------------1----2---|
D|--0-0---------2--------------|
A|------2-2---3-----2------0---|
E|-----------------------------|


Solo (Distortion)
e|-12-13-15-13-12---------------------------------------|
B|----------------15-13~----12-13-15-13h15p13-12--------|
G|-----------------------------------------------14-12~-|
D|------------------------------------------------------|
A|------------------------------------------------------|
E|------------------------------------------------------|

e|--------------------------------------------------|
B|-------13-12--------------------------------------|
G|-12-14-------14-12--------------------------------|
D|-------------------15-14-14--15-14h15p14----------|
A|----------------------------------------17-15-15~-|
E|--------------------------------------------------|

e|-------------------12--12-13-12h13p12---------|
B|-/13-----15--------------------------15-13-12-|
G|-----12-----12-12-----------------------------|
D|----------------------------------------------|
A|----------------------------------------------|
E|----------------------------------------------|

e|--------------------------------------|
B|-13--------15---------12-13--12--13~\-|
G|----12-12-----12-12-------------------|
D|--------------------------------------|
A|--------------------------------------|
E|--------------------------------------|

e|-----5--------------------------------------|
B|-------8--6-5---5-6-5h6p5-------------------|
G|-4-5----------7-----------7--5-4--4-4h5p4---|
D|------------------------------------------7-|
A|--------------------------------------------|
E|--------------------------------------------|

e|----------------------------------------------|
B|----------------------------------------------|
G|----------------------------------------------|
D|-6-6-6-7-9/10-10-10/14-14-14-12-12-14^r-14-14-|
A|----------------------------------------------|
E|----------------------------------------------|

e|---------------------------------------------|
B|-------------------12-12~---12-13-12h13p12---|
G|-14-14-14-13------------------------------14-|
D|-------------14-14---------------------------|
A|---------------------------------------------|
E|---------------------------------------------|

e|---------------------------------------------|
B|-------12-13-12----12-13-12-13-15-15^^r-15^r-|
G|-13-14----------14---------------------------|
D|---------------------------------------------|
A|---------------------------------------------|
E|---------------------------------------------|

e|---------------------------------------------|
B|--13-15-15--13-12-12--13-15-13p15p13--12-13--|
G|---------------------------------------------|
D|---------------------------------------------|
A|---------------------------------------------|
E|---------------------------------------------|

e|---------------------------------------|
B|-13h15p13p12----12-13p12---------------|
G|-------------14----------14~-----------|
D|---------------------------------------|
A|---------------------------------------|
E|---------------------------------------|

e|-------------8------7h8-7~~-----8~~~---/12--10tr12-|
B|-8h10~--8-10---10~---------------------------------|
G|---------------------------------------------------|
D|---------------------------------------------------|
A|---------------------------------------------------|
E|---------------------------------------------------|

End solo


Riff 1
e|-----------------------------------|
B|-----------------------------------|
G|-----------------5-----------5-5-4-|
D|-7-----7-----5-7-5-7-----7---7-6-5-|
A|-0-0-0-0-0-0-0-0---0-0-0-0-0-------|
E|-----------------------------------|
     * *   * *         * *   *
e|----------------------------|
B|----------------------------|
G|-----4-----4---5------------|
D|-----5-----5---3-----5------|
A|-0-0---0-0---0---0-0-3--5-5-|
E|------------------------3-3-|
   * *   * *   *   * *
e|-----------------------------------|
B|-----------------------------------|
G|-----------------5-----------5-5-4-|
D|-7-----7-----5-7-5-7-----7---7-6-5-|
A|-0-0-0-0-0-0-0-0---0-0-0-0-0-------|
E|-----------------------------------|
     * *   * *         * *   *
e|--------------------------|
B|--------------------------|
G|-----4-----4---5----------|
D|-----5-----5---3-----5--7-|
A|-0-0---0-0---0---0-0-3--5-|
E|--------------------------|
   * *   * *   *   * *


Riff 1a
e|-----------------------------------|
B|-----------------------------------|
G|-----------------5-----------5-5-4-|
D|-7-----7-----5-7-5-7-----7---7-6-5-|
A|-0-0-0-0-0-0-0-0---0-0-0-0-0-------|
E|-----------------------------------|
     * *   * *         * *   *
e|--------------------------|
B|--------------------------|
G|-----4-----4---5----------|
D|-----5-----5---3-----5--7-|
A|-0-0---0-0---0---0-0-3--5-|
E|--------------------------|
   * *   * *   *   * *



Riff 2
E|-------------------------|
B|-------------------------|
G|-------------------------|
D|-10-7-7--5-7-5-7-7-7-8-8-|
A|--8-5-5--3-5-3-5-5-5-6-6-|
E|-------------------------|

E|------------------------|
B|------------------------|
G|------------------------|
D|-10-7-7--5-7-5-7-8-9-10-|
A|--8-5-5--3-5-3-5-6-7--8-|
E|------------------------|


Play Riff 1  "Howl like..."

Riff 3
E|------------------------------|
B|------------------------------|
G|------------------------------|
D|------------------------------|
A|-5-4-4-4-4-4-4-4-4-4-4-4-4-5--|
E|-3-2-2-2-2-2-2-2-2-2-2-2-2-3--|
       * * * * * * * * * * *
E|------------------------------|
B|------------------------------|
G|------------------------------|
D|------------------------------|
A|-5-4-4-4-4-4-4-4---0-2-3-4-2--|
E|-3-2-2-2-2-2-2-2-2---------0--|
       * * * * * *
     "Come, come..."
E|------------------------------|
B|------------------------------|
G|------------------------------|
D|------------------------------|
A|-5-4-4-4-4-4-4-4-4-4-4-4-4-5--|
E|-3-2-2-2-2-2-2-2-2-2-2-2-2-3--|
       * * * * * * * * * * *
E|--------------------------|
B|--------------------------|
G|--------------------------|
D|-----------------2---2----|
A|-5-4-4-4-4-4-4-4-0---0-2--|
E|-3-2-2-2-2-2-2-2---2---0--|
       * * * * * *   *
    "...and become..."


Riff 4 (Solo Rhythm)
E|-------------------------------------|
B|-------------------------------------|
G|-------------------------------------|
D|-4-4-4-4-4-4-------4-4-4-4-4---4---4-|
A|-2-2-2-2-2-2-0-2-5-2-2-2-2-2-0-2-0-2-|
E|-------------------------------------|

E|-------------------------------|
B|-------------------------------|
G|-------------------------------|
D|-4-4-4-4-4-4-4-4-4-4-4-4-7--9--|
A|-2-2-2-2-2-2-2-2-2-2-2-2-5--7--|
E|-------------------------------|

E|-------------------------------------|
B|-------------------------------------|
G|-------------------------------------|
D|-4-4-4-4-4-4-------4-4-4-4-4---4---4-|
A|-2-2-2-2-2-2-0-2-5-2-2-2-2-2-0-2-0-2-|
E|-------------------------------------|

E|---------------------------------|
B|---------------------------------|
G|---------------------------------|
D|-4-4-4-4-4-4-4-4-4-4-4-4-4-4-4-4-|
A|-2-2-2-2-2-2-2-2-2-2-2-2-2-2-2-2-|
E|---------------------------------|


Solo
E|--------------------------------------------|
B|--------------------------------------------|
G|----------7---6-7-9-7h9p7-6-----------------|
D|--7h9-7-9---9---------------9-7-------------|
A|--------------------------------9-7----8b9--|
E|------------------------------------10------|

E|--------------------------------------------------|
B|--------------------------------------------------|
G|--------------------------------------------------|
D|-------------------------------------------7---7--|
A|--7-5h7p5---5--------5---5---7-5-7--9-7-9----9----|
E|----------7---7-5-7----7--------------------------|

E|---------------------|
B|---------------------|
G|---------------------|
D|--9b11-11r9p7-9-7-9--|
A|---------------------|
E|---------------------|

End Solo


Play Riff 1   "Undress..."
Play Riff 3


Riff 5 (Clean)
E|--------0------------0-------------------------------|
B|----------3------------3-----------------------------|
G|------4-----4------4-----4--------5----------7-----6-|
D|----4------------4--------------5---5------7-----6---|
A|--2------------0--------------5-------5--5-----4-----|
E|----------------------------3------------------------|

E|-------------------------------------|
B|--------7-----------9----------------|
G|------7---7-------9---9--------------|
D|----7-------7---9-------9------------|
A|--5-----------7------------0-2---0---|
E|-------------------------------3-----|


Solo (over Riff 5)
E|--------------------------7-------------7-9-10-12b14--|
B|------------------------7---10p7---7-10---------------|
G|-----6-7-6h7p6---7-9b11----------9--------------------|
D|-7-9-----------9--------------------------------------|
A|------------------------------------------------------|
E|------------------------------------------------------|

E|-14r12p10----------------------------|
B|----------12-10h12p10-8--------------|
G|------------------------9h11p9--...--|
D|-------------------------------------|
A|-------------------------------------|
E|-------------------------------------|

End Solo

Riff 6 (Solo Rhythm)
E|--------------------------------|
B|--------------------------------|
G|--------------------------------|
D|-------------------2----2-4-5-4-|
A|-4-----------------0--4-0-2-3-2-|
E|-2-2-2-2-2-2-2-2-2----2---------|
     * * * * * * * *    *
E|-------------------------------|
B|-------------------------------|
G|-------------------------------|
D|-------------------2---2-4-5-4-|
A|-------------------0-4-0-2-3-2-|
E|-5-2-2-2-2-2-2-2-2---2---------|
     * * * * * * * *   * 
E|-------------------------------|
B|-------------------------------|
G|-------------------2---2-4-5-4-|
D|-2-4---------------0-4-0-2-3-2-|
A|-0-2-2-2-2-2-2-2-2---2---------|
E|-------------------------------|
       * * * * * * *   *
E|------------------------------|
B|------------------------------|
G|------------------------------|
D|---4--------------7-6-5-4-3-2-|
A|-5-2-2-2-2-2-2-2--5-4-3-2-1-0-|
E|------------------------------|
       * * * * * * 
E|--------------------------------|
B|--------------------------------|
G|--------------------------------|
D|-------------------2----2-4-5-4-|
A|-4-----------------0--4-0-2-3-2-|
E|-2-2-2-2-2-2-2-2-2----2---------|
     * * * * * * * *    *
E|-----------------------------------|
B|-----------------------------------|
G|-----------------------------------|
D|-------------------------5-4-2---2-|
A|-------------------------3-2-0-5-0-|
E|-5-2-2-2-2-2-2-2-2-2-2-2-------3---|
     * * * * * * * * * * * 


Riff 7 (Solo Rhythm)                x3
E|-----------------------------------|
B|-----------------------------------|
G|-----------------------------------|
D|--4-4-----------------------7--2---|
A|--2-2-2-2-2-2-2-2-2-2-2-2-2-5--0---|
E|-----------------------------------|
        * * * * * * * * * * *
E|-----------------------------------|
B|-----------------------------------|
G|-----------------------------------|
D|--4-4------------------------------|
A|--2-2-2-2-2-2-2-2-2-2-2-2-2-2-2-2--|
E|-----------------------------------|
        * * * * * * * * * * * * * *


Riff 7a (Solo Rhythm)               x3
E|-----------------------------------|
B|-----------------------------------|
G|-----------------------------------|
D|--6-6-----------------------6--9---|
A|--4-4-4-4-4-4-4-4-4-4-4-4-4-4--7---|
E|-----------------------------------|
        * * * * * * * * * * * 
E|-------------------------------------|
B|-------------------------------------|
G|-------------------------------------|
D|--6-6-----------------------------9\-|
A|--4-4-4-4-4-4-4-4-4-4-4-4-4-4-4-4-7\-|
E|-------------------------------------| *whammy bar dive*


Play Riff 1

Riff 4.1 (Solo Rhythm)
E|---------------------------------------|
B|---------------------------------------|
G|---------------------------------------|
D|--6-6-6-6-6-6-----2-6-6-6-6-6-6-4-6----|
A|--4-4-4-4-4-4-2-4---4-4-4-4-4-4-2-4----|
E|---------------------------------------|
    1st end
E|---------------------------------|
B|---------------------------------|
G|---------------------------------|
D|--6-6-6-6-6-6-6-6-6-6-6-6--9-11--|
A|--4-4-4-4-4-4-4-4-4-4-4-4--7--9--|
E|---------------------------7--9--|
    2nd end
E|------------------------------------|
B|------------------------------------|
G|------------------------------------|
D|--6-6-6-6-6-6-6-6-6-6-6-6-6-6-6-6-4-|
A|--4-4-4-4-4-4-4-4-4-4-4-4-4-4-4-4-2-|
E|------------------------------------|


Solo (over riff 4.1)
E|----------------|---------------------------------------|
B|----------------|---------------------------------------|
G|----------9-----|--9-11-9-10-9-7-9-7-8-7-5-7-5-6-5------|
D|-11b-9-11---11b-|----------------------------------6b---|
A|----------------|---------------------------------------|
E|----------------|---------------------------------------|

E|----------------|---------------------------------------|
B|----------------|--9-11-9-10-9-7-9-7-8-7-5-7-5-6-5------|
G|----------9-----|----------------------------------7-6b-|
D|-11b-9-11---11b-|---------------------------------------|
A|----------------|---------------------------------------|
E|----------------|---------------------------------------|

End Solo


Play Riff 1   "Suck the..."
Play Riff 3   "Now..."

Ending
E|---------------------------|
B|---------------------------|
G|---------------------------|
D|-----------------2---------|
A|-5-4-------------0---0-2-3-|
E|-3-2-2-2-2-2-2-2---2-------|
       * * * * * *   *
E|-------------------------------------------|
B|-------------------------------------------|
G|-------------------------------------------|
D|-----------------------111111-----11-------|
A|-----4-5-----6-7-----8--9-9-9-...--9--4-4\-|
E|-2-3-----4-5-----6-7------------------2-2\-|

----------------------------------------------------

4. At the Sound of the Demon Bell

Tuning: Standard

Riff 1
e|-----------------------------------|
B|-----------------------------------|
G|-------2------------7--------------|
D|-------2------------7--------------|
A|----------0-0-0-0-0-0--0-0-0-0-0-0-|
E|-0-3-4-----------------------------|
            * * * * *    * * * * * *
e|--------------------------------|
B|--------------------------------|
G|-2-----4---0-2---5--------------|
D|-2-----4---0-2---5----------5-5-|
A|---0-0---0-----0---0-0-3--3-3-3-|
E|-----------------------1--1-----|
     * *   *     *   * * 


Riff 2
e|-----------------------------|
B|-----------------------------|
G|-2------------7--------------|
D|-2------------7--------------|
A|-0--0-0-0-0-0-0--0-0-0-0-0-0-|
E|-----------------------------|
      * * * * *    * * * * * *
e|--------------------------------|
B|--------------------------------|
G|-2-----4---0-2---5--------------|
D|-2-----4---0-2---5----------5-5-|
A|---0-0---0-----0---0-0-3--3-3-3-|
E|-----------------------1--1-----|
     * *   *     *   * * 

                                                                              
Riff 3                                                                           
e|--------------------------------|
B|--------------------------------|
G|--------------------------------|
D|--------------------------------|
A|-7-5------5-----5-----5-----5-7-|
E|-5-3--3-3-3-3-3-3-3-3-3-3-0-3-5-|
        * *   * *   * *   * * *
e|-------------------------------|
B|-------------------------------|
G|-------------------------------|
D|---------------------------5-5-|
A|-7-5------5-----5-----3--3-3-3-|
E|-5-3--3-3-3-3-3-3-3-3-1--1-----|
        * *   * *   * *  

Play Riff 2

Riff 4 (2 times)                                                                      
e|------------------------------------|
B|------------------------------------|
G|------------------------------------|
D|-11/12-----12\11-----11/12-----12---|
A|--9/10-----10\-9------9/10-----10---|
E|-------0-0-------0-0-------0-0----0-|
         * *       * *       * *    * 
     "Halloween!"
e|---------------------------|
B|---------------------------|
G|---------------------------|
D|-11-11/12-----12\11-----11-|
A|--9--9/10-----10\-9------9-|
E|----------0-0-------0-0----|
            * *       * * 
      "...is the night..."
e|------------------------------------------|
B|------------------------------------------|
G|------------------------------------------|
D|-----9---7---5-5-5-5-5-5-5-5-5-5-5-5-5-7--|
A|-----7---5---3-3-3-3-3-3-3-3-3-3-3-3-3-5--|
E|-0-0---0---0------------------------------|
   * *   *   * 
                 "The legend..."
e|---------------------------------------|
B|---------------------------------------|
G|---------------------------------------|
D|--12\7-9-9-9-9-9-9-9----------------7--|
A|--10\5-7-7-7-7-7-7-7-7h8p7----------5--|
E|---------------------------10-8-7-5----|
     "The ghost..."


Riff 5                                                                             
e|----------------------------|
B|----------------------------|
G|------7------7--------------|
D|--7-7-7--7-7-7--7-7-7-------|
A|--5-5-5--5-5-5--5-5-5-------|
E|----------------------5-3-0-|
    "At the sound..."
e|----------------------------|
B|----------------------------|
G|----------7------7----------|
D|--5/7-7-7-7--7-7-7--7-7-7-6-|
A|--3/5-5-5-5--5-5-5--5-5-5-4-|
E|----------------------------|
    "...everything will..."

                                                                               
RIFF 6 (2 times)                                                                             
e|-------------------------------------------------|
B|-------------------------------------------------|
G|-----------------7---7-6-----2-----4-----5p4-5p4-|
D|--------2---2----7---7-7-----2-----4-----5---5---|
A|--4---4-0---0--0---0-----0-0---0-0---0-0---------|
E|--2-0-2---2--------------------------------------|
    * * *   *    *   *     * *   * *   * * 
    "Rise, rise..."                                                                            
e|-----------------------10p9-10--9------------|
B|------6-----8------10--10---10-10------------|
G|------5-----7-------9------------------------|
D|------3-----5-------7----------------5-5-5-5-|
A|--0-0---0-0---0-0-0------------------3-3-3-3-|
E|---------------------------------------------|
    * *   * *   * * * 


RIFF 7                             x2                                             
e|----------------------------------|
B|----------------------------------|
G|----------------------------------|
D|-------------------------------7--|
A|-------------------------------5--|
E|-0-0-3-2~----0-0-0-0-0-0-0-0-0----|
   * *         * * * * * * * * *     
   "...rise..."                                                                               
                                   x2                                         
e|----------------------------------|
B|----------------------------------|
G|-------------------------------7--|
D|-------------------------------5--|
A|-0-0-3-2~----0-0-0-0-0-0-0-0-0----|
E|----------------------------------|
               * * * * * * * * * 
          "...with the powers..."
                                   x2                                         
e|----------------------------------|
B|----------------------------------|
G|----------------------------------|
D|-------------------------------7--|
A|-------------------------------5--|
E|-0-0-3-2~----0-0-0-0-0-0-0-0-0----|
   * *         * * * * * * * * *     
            "...an if you won't..."


Riff 8 (Guitar 2 plays notes in () )
e|----------------------------------------------|
B|----------------------------------------------|
G|----------------------------------------------|
D|-------------5----(4-5)-----(9-8-7~)----------|
A|-5-7--5-7~-----7---5-7~--(7)-7-6-5~--xxxx-5-7-|
E|-----------------7--------0----------xxxx-3-5-|

e|-------------------------------------------------|
B|-------------------------------------------------|
G|-------------------------------------------------|
D|-------------5----(4-5)-----(9-8-7~)-------------|
A|-5-7--5-7~-----7---5-7~--(7)-7-6-5~--x-x-x-x-5-7-|
E|-----------------7--------0----------x-x-x-x-3-5-|


RIFF 9 (Solo Rhythm)                                                                           
e|--------------------------------|
B|--------------------------------|
G|--------------------------------|
D|-----------7-7-7-7--------------|
A|---4---4-0-5-5-5-5-2-3--4--7-9--|
E|-0-2-0-2-----------0-1--2--5-7--|
                                                                               
                                                                               
Play Riff 8 


RIFF 10 (5 times)
e|----------------------------|
B|----------------------------|
G|----------------------------|
D|----------------------------|
A|----------------------------|
E|-777777777777777777-555-666-|
   ****************** *** ***
   "...bell..."
e|--------------------------|
B|--------------------------|
G|--------------10-9--7-9-7-|
D|--------------10-9--7-9-7-|
A|--------------------------|
E|-777777777777-------------|
   ************


RIFF 11 (Solo Rhythm)
e|----------------------------|
B|----------------------------|
G|----------------------------|
D|----------------------------|
A|----------------------------|
E|-999999999999999999-777-888-|
   ****************** *** ***
e|----------------------------|
B|----------------------------|
G|--------------12-11--9-11-9-|
D|--------------12-11--9-11-9-|
A|----------------------------|
E|-999999999999---------------|
   ************

                                                                               
RIFF 12
e|----------------------------|
B|----------------------------|
G|----------------------------|
D|----------------------------|
A|----------------------------|
E|-333333333333333333-111-222-|
   ****************** *** ***
e|-------------------------|
B|-------------------------|
G|--------------6-5--3-5-3-|
D|--------------6-5--3-5-3-|
A|-------------------------|
E|-333333333333------------|
   ************


Play Riff 10
Play Riff 11

RIFF 13 (4 times)                                                                          
e|----------------------------|
B|----------------------------|
G|----------------------------|
D|----------------------------|
A|-7-7-xxxx-xxxxx-xxxx-5-5-5--|
E|-5-5-xxxx-xxxxx-xxxx-3-3-3--|                                            
            "Upon...


RIFF 14 (4 times)  1,2,3       4th time ending           
e|-----------------|-----------|--------------|
B|-----------------|-----------|--------------|
G|-----------------|-----------|--------------|
D|-7---------------|-7-7-7-7-7-|--------------|
A|-5-7-7-7-7-7-7-7-|-5-5-5-5-5-|-7-5-----5-3--|
E|-----------------|-----------|-----8-5------|
     * * * * * * * 

                     
RIFF 15 (2 times)
Guitar 2 plays notes in ()
e|-------------------------------------|
B|-------------------------------------|
G|-------------------------------------|
D|-4-2-4-2---(4-3~)--7-6-4-2-4-------2-|
A|-2-0-2-0-2--5-4~-0-5-4-2-0-2-xxx-4-0-|
E|-----------------------------xxx-2---|
                                                                            
                                                                               
e|---------------------------------------|
B|---------------------------------------|
G|---------------------------------------|
D|-4-2-4-2---(4-3~)--7-6-4-2-4-------7-9-|
A|-2-0-2-0-2--5-4~-0-5-4-2-0-2-xxx-0-5-7-|
E|-----------------------------xxx-------|
                                                                            

Play Riff 7


Lead into next section: 
e|---------|
B|---------|
G|---------|
D|---4---4-|
A|-x-2-x-2-|
E|-x---x---|


Riff 18                                                                        
e|-------------------------------------------------|
B|-------------------------------------------------|
G|-------------------------------------------------|
D|-------------2-------------4---4---------------2-|
A|--4-4-2-4--x-0--4-4-2-4--x-2-x-2----4-4-2-4--x-0-|
E|--2-2-0-2--x----2-2-0-2--x---x------2-2-0-2--x---|
                       
e|----------------------|
B|----------------------|
G|----------------------|
D|-------------------7\-|
A|-------------------5\-|
E|-0-0-0-0-0-0-0-0-0----|
   * * * * * * * * * 

e|---------|
B|---------|
G|---------|
D|---4---4-|
A|-x-2-x-2-|
E|-x---x---|

e|-------------------------------------------------|
B|-------------------------------------------------|
G|-------------------------------------------------|
D|-------------2-------------4---4---------------2-|
A|--4-4-2-4--x-0--4-4-2-4--x-2-x-2----4-4-2-4--x-0-|
E|--2-2-0-2--x----2-2-0-2--x---x------2-2-0-2--x---|

e|----------------------|
B|----------------------|
G|----------------------|
D|-------------------7\-|
A|-------------------5\-|
E|-0-0-0-0-0-0-0-0-0----|
   * * * * * * * * *

-------------------------------------------------

5. Black Funeral

Tuning: Standard

Riff 1
Guitar 1                                 x2
e|----------------------------------------|--------|
B|----------------------------------------|--------|
G|----------------------------------------|--------|
D|------7---------------------------------|-----4--|
A|--7---5---6----6----6----6----6----6----|--2--2--|
E|--5-------4-44-4-44-4-44-4-44-4-44-4-44-|--0-----|
              **   **   **   **   **   **                                        

Guitar 2
e|-----10-----------------------------------------|
B|-10-------9~~~~~~-------------------------------|
G|------------------------------------------------|
D|------------------------------------------------|
A|------------------------------------------------|
E|--------------------------------X\\\------------|



Riff 2                                 x3
e|--------------------------------------|
B|--------------------------------------|
G|--------------------------------------|
D|--3----3----3----3----3----3--------4-|
A|--1-11-1-11-1-11-1-11-1-11-1-11--2--2-|
E|---------------------------------0----|
      **   **   **   **   **   **
   Bring....the black box to the altar...
e|------------------------------------------|
B|------------------------------------------|
G|------------------------------------------|
D|--3----3----3----3----3----3----3----5----|
A|--1-11-1-11-1-11-1-11-1-11-1-11-1-11-3-33-|
E|------------------------------------------|
      **   **   **   **   **   **   **   **
    And do the sign.....   
e|-------------------------------------|
B|-------------------------------------|
G|-------------------------------------|
D|--7----7----7----7----7----7---------|
A|--5-55-5-55-5-55-5-55-5-55-5-55------|
E|--------------------------------4-3--|
      **   **   **   **   **   **
   All hail Satan.....
e|--------------------------------------|
B|--------------------------------------|
G|--------------------------------------|
D|--7----7----7----7----7----7--------4-|
A|--5-55-5-55-5-55-5-55-5-55-5-55--2--2-|
E|---------------------------------0----|
      **   **   **   **   **   **
   Yes hail Satan....
e|--------------------------------------|
B|--------------------------------------|
G|--------------------------------------|
D|--3----3----3----3----3----3--------4-|
A|--1-11-1-11-1-11-1-11-1-11-1-11--2--2-|
E|---------------------------------0----|
      **   **   **   **   **   **
    Lay down your swords
e|-------------------------------------|
B|-------------------------------------|
G|-------------------------------------|
D|--3----3----3----3----3----3----3--5-|
A|--1-11-1-11-1-11-1-11-1-11-1-11-1--3-|
E|-------------------------------------|
      **   **   **   **   **   **   
    The evil star.....
e|--------------------------------------|
B|--------------------------------------|
G|--------------------------------------|
D|--7----7----7----7----7----7-----3----|
A|--5-55-5-55-5-55-5-55-5-55-5-55--1--3-|
E|------------------------------------1-|
      **   **   **   **   **   **
    ahhhhhhhhh......
e|-------------------------------------|
B|-------------------------------------|
G|-------------------------------------|
D|--5----5----5----5----5----5----5--7-|
A|--3-33-3-33-3-33-3-33-3-33-3-33-3--5-|
E|-------------------------------------|
      **   **   **   **   **   **
    ahhhhhhh........
e|----------------------------------------|
B|----------------------------------------|
G|----------------------------------------|
D|--9----9----9----9----9----9----9-----5-|
A|--7-77-7-77-7-77-7-77-7-77-7-77-7-77--3-|
E|----------------------------------------|
      **   **   **   **   **   **   **
    It's a black funeral.....
e|------------------------------------------|
B|------------------------------------------|
G|------------------------------------------|
D|--4----4----4----4----4----4----4----4----|
A|--2-22-2-22-2-22-2-22-2-22-2-22-2-22-2-22-|
E|------------------------------------------|
      **   **   **   **   **   **   **   **
    ahhh.........
e|---------------------------------------|
B|---------------------------------------|
G|---------------------------------------|
D|--5----5----5----5-2----2----2----2----|
A|--3-33-3-33-3-33-3-0-00-0-00-0-00-0-00-|
E|---------------------------------------|
      **   **   **     **   **   **   **
    She was a victim.........


Riff 3
e|----------------------------------------|
B|----------------------------------------|
G|----------------------------------------|
D|-----------8-7--------------------------|
A|-3-2-------6-5-------3-2-------5-6-5tr6-|
E|-1-0--0-0-------0-0--1-0--0-0-----------|
        * *       * *       * * 
e|------------------------------------|
B|------------------------------------|
G|------------------------------------|
D|-----------8-7----------------------|
A|-3-2-------6-5-------3-2-------5--7-|
E|-1-0--0-0-------0-0--1-0--0-0--3--5-|
        * *       * *       * * 
e|-----------------------------------------|
B|-----------------------------------------|
G|-----------------------------------------|
D|-----------8-7----------------(4-5-4tr5)-| --> Guitar 2
A|-3-2-------6-5-------3-2-------5-6-5tr6--|
E|-1-0--0-0-------0-0--1-0--0-0------------|
        * *       * *       * * 
e|-------------------------------------|
B|-------------------------------------|
G|-------------------------------------|
D|-----------8-7-----------------6-7-8-|
A|-3-2-------6-5-------3-2-------4-5-6-|
E|-1-0--0-0-------0-0--1-0--0-0--------|
        * *       * *       * * 


Play Riff 1
Play Riff 2


Riff 4 (The slide has very weird timing)
e|---------------------------------------|
B|---------------------------------------|
G|------------10-------------9-----------|
D|------9------8------9------7-------8-7-|
A|------7-------------7--------------6-5-|
E|--0-0---0-0----0-0----0-0-----0-0------|
    * *   * *    * *    * *     * *             
e|------------------------------|
B|------------------------------|
G|------------------------------|
D|--7/9-------9------9---9------|
A|--5/7-------7------7---7--4-5-|
E|-------0-0-----0-0---0----2-3-|
         * *     * *   *


Riff 5
e|-----------------------------|
B|-----------------------------|
G|-----------------------------|
D|------------------------5----|
A|--5-7-----7-5---5-7-----3-5--|
E|--3-5-5-5-5-3---3-5-5-5---3--|
        * *           * *
e|-----------------------------|
B|-----------------------------|
G|-----------------------------|
D|---------------------------3-|
A|--5-7-----7-5---3-3-3-3-3--1-|
E|--3-5-5-5-5-3---1-1-1-1-1----|
        * *       * * * * *


Riff 6
e|----------------------------|
B|----------------------------|
G|----------------------------|
D|---4-4-4-------7---6--------|
A|-0-2-2-2-2-0-2-5---4-7-6-5--|
E|---------------------5-4-3--|

e|----------------------------|
B|----------------------------|
G|----------------------------|
D|---4-4-4-------7---6--------|
A|-0-2-2-2-2-0-2-5---4-7-6----|
E|---------------------5-4-0--|

e|----------------------------|
B|----------------------------|
G|----------------------------|
D|---4-4-4-------7---6--------|
A|-0-2-2-2-2-0-2-5---4-7-6-5--|
E|---------------------5-4-3--|

e|----------------------------|
B|----------------------------|
G|----------------------------|
D|---4-4-4-------7---6-----9\-|
A|-0-2-2-2-2-0-2-5---4-7-6-7\-|
E|---------------------5-4----|

--------------------------------------

6. Satan's Fall

Tuning: Standard


This is the beginning on "The Beginning" CD:

Intro
e|--------|
B|--------|
G|--------|
D|--------|
A|--------|
E|--15\\--|
                                     1st end.     2nd ending
e|-----------------------------------|------------|------|
B|-----------------------------------|------------|------|
G|-----------------------------------|------------|------|
D|------4----------4----------4------|--------0h5-|-4--2-|
A|-----------------------------------|----0h2-----|-2--0-|
E|--0-2---2--0-0-2---2--0-0-2---2--0-|-0h2--------|------|
    * *   *  * * *   *  * * *   *  *



Here's the beginning for the "Melissa" CD:

Riff 1                               1st end. 2nd ending
e|-----------------------------------|--------|-----|
B|-----------------------------------|--------|-----|
G|-----------------------------------|--------|-----|
D|------4----------4----------4------|--4--2--|--4--|
A|-----------------------------------|--2--0--|--2--|
E|--0-2---2--0-0-2---2--0-0-2---2--0-|--------|-----|
    * *   *  * * *   *  * * *   *  *


Riff 2
e|---------------------------|
B|---------------------------|
G|---------------------------|
D|-4--4--5-------------------|
A|-2--2--3--5--5--5--5--5--5-|
E|----------3--3--3--3--3--3-|
   "Bringing the blood......" 


Play Riff 1   "Yeah..."
Play Riff 2   "Got to succeed..."

Lead into next section:
e|-----|
B|-----|
G|-----|
D|-----|
A|--4--|
E|--2--|


Riff 3
Guitar 1
e|-------------------------------|
B|-------------------------------|
G|-------------------------------|
D|-------------------------------|
A|--2----3----------6-5-4-----3~-|
E|--0--0-1--0-0-5-4-------3-2----|
       *    * * * * * * * * *
e|-----------------------------|
B|-----------------------------|
G|-----------------------------|
D|-----------------------------|
A|--2----3----------6-5-4---3~-|
E|--0--0-1--0-0-5-4-------2----|
       *    * * * * * * * *

Guitar 2 (listen for when to use these notes)
e|-------------------------------|
B|-------------------------------|
G|-------------------------------|
D|------------------5-4-3-----2~-|
A|--2----3------4-3-------2-1----|
E|--0--0-1--0-0------------------|
       *    * * * * * * * * *
e|-----------------------------|
B|-----------------------------|
G|-----------------------------|
D|------------------5-4-3---2~-|
A|--2----3------4-3-------1----|
E|--0--0-1--0-0----------------|
       *    * * * * * * * *


Riff 4                                 x4
e|--------------------------------------|
B|--------------------------------------|
G|--------------------------------------|
D|--------------------------------------|
A|----2-3----2-3----2-3-5-3-2---0-2-----|
E|--0------0------0-----------3-----3---|
    *      *      *
   "Evil messengers..."
e|--------------------------------------|
B|--------------------------------------|
G|--------------------------------------|
D|--------------------------------------|
A|----2-3----2-3----2-3----2-3----2-3-2-|
E|--0------0------0------0------0-------|
    *      *      *      *      *
   "Oh..."
e|--------------------------------------|
B|--------------------------------------|
G|--------------------------------------|
D|--------------------------------------|
A|----2-3----2-3----2-3-5-3-2---0-2-----|
E|--0------0------0-----------3-----3---|
    *      *      *
   "Come home..."
e|--------------------------------------|
B|--------------------------------------|
G|--------------------------------------|
D|--------------------------------------|
A|----2-3----2-3----2-3----2-3----2-3-2-|
E|--0------0------0------0------0-------|
    *      *      *      *      *
e|----------------------------------------|
B|----------------------------------------|
G|----------------------------------------|
D|----------------------------------------|
A|----2-3----2-3----2-3-5-3-2---0-2----2--|
E|--0------0------0-----------3-----3--0--|
    *      *      *


Riff 5               x2                   x2
e|--------------------|--------------------|
B|--------------------|--------------------|
G|--------------------|--------------------|
D|------22-------22---|------33-------33---|
A|----2----2---2----2-|----3----3---3----3-|
E|--0--------0--------|--1--------1--------|


Riff 6
e|-----------------------------------------------|
B|-----------------------------------------------|
G|-----------------------------------------------|
D|------3-------3-------1-------3-------3--------|
A|-----------------------------------------------|
E|--0h1---1-0h1---1-0h2---2-0h1---1-0h1---1-0h2~-|
   "...call!"


Riff 7 
e|---------------------------------------------|
B|---------------------------------------------|
G|---------------------------------------------|
D|-------------------------------------------3-|
A|-------------------------------------0h1h2-1-|
E|-3-3-3-3-3-3-3-3-3-3-3-3-3-3-3-3-3-3---------|
   * * * * * * * * * * * * * * * * * *
e|-------------------------------------------------|
B|-------------------------------------------------|
G|-------------------------------------------------|
D|-------------------------------------------------|
A|-------------------------------------1p0-------1-|
E|-3-3-3-3-3-3-3-3-3-3-3-3-3-3-3-3-3-3-----3-1h3---|
   * * * * * * * * * * * * * * * * * *


Riff 8
e|-----------------------------------------|
B|-----------------------------------------|
G|-----------------------------------------|
D|--9------11-10---------------9-8---------|
A|--7-------9--8----5-6--------7-6----9-10-|
E|----0000-------00-3-4-000000-----00-7--8-|
      ****       **     ******     **
e|-----------------------------------|
B|-----------------------------------|
G|-----------------------------------|
D|--------12-12-----4----5-4-7-6-7-8-|
A|--------10--9-----2--0-3-2-5-4-5-6-|
E|-000000-------0-0------------------|
   ******       * *


Riff 9
e|-----------------------------------|
B|-----------------------------------|
G|-----------------------------------|
D|-9--------10---------------------7-|
A|-7---------8--------5--------6---5-|
E|-7-000000----000000-3-000000-4-0---|
     ******    ******   ******   *


Riff 10 (Solo Rhythm)
e|--------------------------------------|
B|--------------------------------------|
G|--------------------------------------|
D|-9--9---7---7---7-----8-7-6--9-11-12\-|
A|-7--7---5---4---5-----9-8-7--7--9-10\-|
E|------0---0---0---0-0-----------------|
        *   *   *   * *
e|-----------------------------|
B|-----------------------------|
G|------5----4---12-----11-----|
D|------7----5---10------9---7-|
A|---------------------------5-|
E|-0-0----0----0----0-0----0---|
   * *    *    *    * *    *


Riff 11 (Last time, leave off last three notes)
e|---------------------------------|
B|---------------------------------|
G|-------------------------5-------|
D|---------5-------4-------5-------|
A|-2-------5-------4-------3-------|
E|-0-0-0-0-3-0-0-0-2-0-0-0---0-0-0-|
     * * *   * * *   * * *   * * * 
  "Use your demon eyes..."
e|---------------------------------|
B|---------------------------------|
G|-7-------6---------------5-------|
D|-7-------6-------5-------5-------|
A|-5-------4-------3-------3-------|
E|---0-0-0---0-0-0-3-0-0-0---0-0-0-|
     * * *   * * *   * * *   * * * 
  "...uncover the disguise..."


Lead into next section:
e|-------|
B|-------|
G|-------|
D|-------|
A|-------|
E|--X\\--|
   


Riff 12                                          x2
e|------------------------------------------------|
B|------------------------------------------------|
G|------------------------------------------------|
D|----------------------------------------------3-|
A|-5-6--x-x--x-x--x-x-x-3--x--x-x-x-3--x--x-x-x-1-|
E|-3-4--x-x--x-x--x-x-x-1--x--x-x-x-1--x--x-x-x---|

e|------------------------------------------------|
B|------------------------------------------------|
G|------------------------------------------------|
D|----------------------------------------------4-|
A|-5-6--x-x--x-x--x-x-x-3--x--x-x-x-3--x--x-x-x-2-|
E|-3-4--x-x--x-x--x-x-x-1--x--x-x-x-1--x--x-x-x---|

e|------------------------------------------------|
B|------------------------------------------------|
G|------------------------------------------------|
D|----------------------------------------------3-|
A|-5-6--x-x--x-x--x-x-x-3--x--x-x-x-3--x--x-x-x-1-|
E|-3-4--x-x--x-x--x-x-x-1--x--x-x-x-1--x--x-x-x---|



Riff 13 (Solo Rhythm)                  x3
e|--------------------------------------|
B|--------------------------------------|
G|--------------------------------------|
D|--5/7-7\6-6---6---6---6---6---6---6---|
A|--3/5-5\4-4-4-4-4-4-4-4-4-4-4-4-4-4-4-|
E|--------------------------------------|
              *   *   *   *   *   *   *
e|----------------------------------------|
B|----------------------------------------|
G|----------------------------------------|
D|--5/7-7\6-6---6---6---6---6---6---6---2-|
A|--3/5-5\4-4-4-4-4-4-4-4-4-4-4-4-4-4-4-0-|
E|----------------------------------------|
              *   *   *   *   *   *   *

Riff 14 (Solo Rhythm)
e|---------------------|-------------------|
B|---------------------|-------------------|
G|---------------------|-------------------|
D|---------------------|-------5----5----2-|
A|---------------------|-------3----3----0-|
E|-0-2-3-5-0-2-3-5-...-|-0-2-3-------------|
   * * * * * * * *       * * *
e|---------------------|-------------------------------------|
B|---------------------|-------------------------------3-2-5-|
G|---------------------|---------------------3-2--5-3--------|
D|---------------------|-----------3-2--5-3------------------|
A|---------------------|-3-2--5-3----------------------------|
E|-0-2-3-5-0-2-3-5-...-|-------------------------------------|
   * * * * * * * *
                        Guitar 1 plays above, guitar 2 plays below
e|---------------------|-------------------------------2-1-4-|
B|---------------------|---------------------3-2--5-3--------|
G|---------------------|-----------2-1--4-2------------------|
D|---------------------|-2-1--4-2----------------------------|
A|---------------------|-------------------------------------|
E|-0-2-3-5-0-2-3-5-...-|-------------------------------------|
   * * * * * * * *

e|------------------------|-----------------------|
B|------------------------|-----------------------|
G|------------------------|-----------------------|
D|-2----------------------|-2---------------------|
A|-0----------------------|-0---------------------|
E|----0-2-3-5-0-2-3-5-...-|---0-2-3-5-0-2-3-5-...-|
      * * * * * * * *         * * * * * * * *
e|-------------------------------------|
B|-------------------------------------|
G|-------------------------------------|
D|-2-----------------2-----------------|
A|-0-----------------0-----------------|
E|----0-2-3-5-0-2-3-----0-2-3-5-0-2-3--|
      * * * * * * *     * * * * * * *

e|---------------------|
B|---------------------|
G|---------------------|
D|-2---------5---------|
A|-0---------3---------|
E|----0-2-3-----0-2-3--|
      * * *     * * *

Ending chords
e|----------|
B|----------|
G|----------|
D|---2--2---|
A|---0--0---|
E|----------|
  

Riff 15 (Clean)
e|-------------------------------------------|
B|--------------5-------------------7--------|
G|-----------5-----5-------------7-----7-----|
D|--------5-----------5-------7-----------7--|
A|-2--3--------------------5-----------------|
E|-------------------------------------------|

e|-----------------------------------|
B|-----------4-----------------4-----|
G|--------4-----4-----------4-----4--|
D|-----4-----------4-----4-----------|
A|--2-----------------2--------------|
E|-----------------------------------|

e|----------------------------------------|
B|-----------------------------------7----|
G|-----------------0--------------7-----7-|
D|--------------0-----0--------7----------|
A|--2--0-----2-----------2--5-------------|
E|--------3-------------------------------|
  "Innocent lovers......"

e|-----------------------------------------|
B|--------------2-----------------2--------|
G|-----------2-----2-----------2-----2-----|
D|--------2-----------2-----2-----------2--|
A|--3--0-----------------0-----------------|
E|-----------------------------------------|
  "...it's a lie..."
e|-------------------------------------------|
B|-----------------5-----------------7-------|
G|--------------5-----5-----------7-----7----|
D|-----------5-----------5-----7-----------7-|
A|--0--2--3-----------------5----------------|
E|-------------------------------------------|

e|-------------------------------------|
B|----------9--------------------------|
G|-------9-----9-----9--7--------------|
D|----9-----------9-------9--8--7--5---|
A|-7-----------------------------------|
E|-------------------------------------|


Riff 16 (Solo Rhythm, Mika)
e|---------------------------------------|
B|-----------5------------------4--------|
G|--------5-----5------------4-----4-----|
D|-----5-----------5------4--------------|
A|--3------------------2-----------------|
E|---------------------------------------|

e|---------------------------------------------|
B|---------------------------------------------|
G|-----------------0-----------------0---------|
D|--------------0-----0-----------2-----2------|
A|--2--0-----2-----------2-----2-----------2---|
E|--------3-----------------0------------------|

e|---------------------------------------|
B|-----------5------------------4--------|
G|--------5-----5------------4-----4-----|
D|-----5-----------5------4-----------4--|
A|--3------------------2-----------------|
E|---------------------------------------|

e|---------------------------------------|
B|-----------7----------------7----------|
G|--------7----7-----------7-----7-------|
D|-----7----------7-----7-----------7----|
A|--5----------------5-------------------|
E|---------------------------------------|

e|---------------------------------------|
B|-----------5------------------4--------|
G|--------5-----5------------4-----4-----|
D|-----5-----------5------4--------------|
A|--3------------------2-----------------|
E|---------------------------------------|

e|---------------------------------------------|
B|---------------------------------------------|
G|-----------------0-----------------0---------|
D|--------------0-----0-----------2-----2------|
A|--2--0-----2-----------2-----2-----------2---|
E|--------3-----------------0------------------|

e|------------------------------------------|
B|-----------5------------------4-----------|
G|--------5-----5------------4-----4--------|
D|-----5-----------5------4-----------------|
A|--3------------------2--------------------|
E|------------------------------------3--0--|



Lot of harmony stuff here:

Riff 17         x3
e|---------------|-----------|
B|---------------|-----------|
G|---------------|-----------|
D|-7------6------|-------5-4-|
A|-5-4444-4-4444-|-------3-2-|
E|---------------|-3-2-0-----|
                   * * *

Riff 18
Guitar 1        x3
e|---------------|-------------|
B|---------------|-------------|
G|---------------|-------------|
D|-7-5555-5-5555-|-5-9-7-5-----|
A|---------------|---------9-5-|
E|---------------|-------------|

Guitar 2        x3
e|---------------|-------------|
B|---------------|-----7-8-7---|
G|-9-7777-7-7777-|-7-9-------9-|
D|---------------|-------------|
A|---------------|-------------|
E|---------------|-------------|


Riff 19
Guitar 1
e|---------------|
B|---------------|
G|---------------|
D|-7------6------|
A|-5-4444-4-4444-|
E|---------------|

Guitar 2
e|---------------|
B|---------------|
G|-7-6666-6-6666-|
D|---------------|
A|---------------|
E|---------------|


Play Riff 18   "Ahhh...."
Play Riff 19   "AHHH...."
Play Riff 18   "Iron fists won't do no good..."
Play Riff 19   "Of seven holy hell preachers..."
Play Riff 18   "Now they cross the river Styx..."
Play Riff 19   "Oh, so high..."


Riff 20
Guitar 1
e|---------------------------|
B|---------------------------|
G|---------------------------|
D|-7-7777-7-7777-7-9-7-6-----|
A|-----------------------9-7-|
E|---------------------------|

Guitar 2
e|---------------------------|
B|---------------------------|
G|---------------------------|
D|-7-7777-7-7777-7-9-7-6-7-6-|
A|---------------------------|
E|---------------------------|


Riff 21
Guitar 1
e|-------------------------------------------|
B|-------------------------------------------|
G|-------------------------------------------|
D|-9/10-10101010-10-10101010-10-9-10-12-10-9-|
A|-------------------------------------------|
E|-------------------------------------------|

Guitar 2
e|------------------------------|
B|------------------------------|
G|-7/9-9999-9-9999-9-7-9-10-9-7-|
D|------------------------------|
A|------------------------------|
E|------------------------------|


Riff 22
Guitar 1
e|-------------------------------|
B|-------------------------------|
G|-------------------------------|
D|-7/9-9999-9-9999-9-12-10-9-7-9-|
A|-------------------------------|
E|-------------------------------|

Guitar 2
e|------------------------------|
B|------------------------------|
G|-7/9-9999-9-9999-9-7-9-10-9-7-|
D|------------------------------|
A|------------------------------|
E|------------------------------|


Play Riff 21


Riff 23
Guitar 1
e|-------------------------------|
B|-------------------------------|
G|-------------------------------|
D|-7/9-9999-9-9999-9-10-9--7-9-7-|
A|-------------------------------|
E|-------------------------------|

e|----------------------------|
B|----------------------------|
G|----------------------------|
D|-5-7-5--4-5-4--2-4-2--0-2-0-|
A|----------------------------|
E|----------------------------|

Guitar 2
e|-------------------------------|
B|-------------------------------|
G|-7/9-9999-9-9999-9-10-9--7-9-7-|
D|-------------------------------|
A|-------------------------------|
E|-------------------------------|

e|----------------------------|
B|----------------------------|
G|-5-7-5--4-5-4--2-4-2--0-2-0-|
D|----------------------------|
A|----------------------------|
E|----------------------------|


Play Riff 18
Play Riff 19    
Play Riff 18   "Ahh..."
Play Riff 19   "AHH..."
Play Riff 18   "Waiting on the other shore..."
Play Riff 19   "A shape with horns and glowing eyes..."
Play Riff 18   "He receives the sacrifice..."
Play Riff 17   "You better escape..."


Riff 1a                             1st end. 2nd ending
e|----------------------------------|-----|--------|
B|----------------------------------|-----|--------|
G|----------------------------------|-----|--------|
D|-----4----------4----------4------|--4--|--4--2--|
A|----------------------------------|--2--|--2--0--|
E|-0-2---2--0-0-2---2--0-0-2---2--0-|-----|--------|
   * *   *  * * *   *  * * *   *  *

Ending
e|-------------------|
B|-------------------|
G|-------------------|
D|--6---------11-11\-|
A|--4----------9--9\-|
E|-------------------|

-----------------------------------------------

7. Melissa

Tuning: Standard

Intro (slighty distorted)

Riff 1

e|--------0---------------0---------|
B|------3---3-----------3---3-------|
G|----2-------2---2---2-------2---2-|
D|--0-----------0---0-----------0---|
A|----------------------------------|
E|----------------------------------|
                                        
e|--------0---------------0---------|
B|------3---3-----------3---3-------|
G|----2-------2---2---2-------2---2-|
D|----------------------------------|
A|--3-----------3---3-----------3---|
E|----------------------------------|

e|--------0---------------0---------|
B|------3---3-----------3---3-------|
G|----2-------2---2---2-------2---2-|
D|--3-----------3---3-----------3---|
A|----------------------------------|
E|----------------------------------|

e|--------0---------------0---------|
B|------3---3-----------3---3-------|
G|----2-------2---2---2-------2---2-|
D|--2-----------2---2-----------2---|
A|----------------------------------|
E|----------------------------------|

Solo over Riff 1:
e|-15b17r15--13--12--13~~~--12h13p12----------|
B|----------------------------------15-14-15~-|
G|--------------------------------------------|
D|--------------------------------------------|
A|--------------------------------------------|
E|--------------------------------------------|

e|----12-13-12----12-13-15-13h15p13-12-------|
B|-15----------15----------------------15-13-|
G|-------------------------------------------|
D|-------------------------------------------|
A|-------------------------------------------|
E|-------------------------------------------|

e|--------------------------------------------------------|
B|--------------------------------------------------------|
G|-14-12-9~~---9-9-9/10~--10-10-10---9-10-12-10h12p10-9~~-|
D|--------------------------------------------------------|
A|--------------------------------------------------------|
E|--------------------------------------------------------|

e|------------------------------|
B|------------------------------|
G|----9-10-9-10-9~~--7-6-7-6~~~-|
D|-12---------------------------|
A|------------------------------|
E|------------------------------|

e|-------------10------------10-12-/13-12-10-----------------|
B|-------10-10----8h10~~--10-----------------13-11-10h11p10~-|
G|-7-7-7-----------------------------------------------------|
D|-----------------------------------------------------------|
A|-----------------------------------------------------------|
E|-----------------------------------------------------------|

e|--------------------------------------------------------------|
B|-10-10-10-11-10h11p10-----------------------------------------|
G|---------------------12-10-9-10-12-10-9--------9-10-9--9-10---|
D|---------------------------------------12-11-12------12----11-|
A|--------------------------------------------------------------|
E|--------------------------------------------------------------|

e|--------------------|
B|--------------------|
G|--------------------|
D|-11--11~~---7--7~~~-|
A|--------------------|
E|--------------------|


End solo

Verse 
e|--------0---------------0---------|
B|------3---3-----------3---3-------|
G|----2-------2---2---2-------2---2-|
D|--0-----------0---0-----------0---|
A|----------------------------------|
E|----------------------------------|
  I'm kneeling                                       

e|--------0---------------0---------|
B|------3---3-----------3---3-------|
G|----2-------2---2---2-------2---2-|
D|----------------------------------|
A|--3-----------3---3-----------3---|
E|----------------------------------|
  In front of the altar   

e|--------0---------------0---------|
B|------3---3-----------3---3-------|
G|----2-------2---2---2-------2---2-|
D|--3-----------3---3-----------3---|
A|----------------------------------|
E|----------------------------------|
  Satan's cross upon the...

e|--------0-------------------------|
B|------3---3-------------2---------|
G|----2-------2---2-----2---2-------|
D|--2-----------2-----2-------2---2-|
A|------------------0-----------0---|
E|----------------------------------|
  ..wall.............

e|----------------------------------|
B|--------7---------------7---------|
G|------7---7-----------7---7-------|
D|----7-------7---7---7-------------|
A|--5-----------5---5---------5--7--|
E|----------------------------------|
  Strange emptiness...

e|------------------------------------|
B|--------10----------------10--------|
G|------10--10------------10--10------|
D|----10------10---10---10------------|
A|--8------------8----8----------8-7\-|
E|------------------------------------|
  A crystal ball

e|----------------------------|
B|--------5-------------------|
G|------5---5--------------0--|
D|----5-------5---5------0----|
A|--3-----------3------2------|
E|-------------------3--------|

e|----------------------------------|
B|--------2---------------2---------|
G|------2---2-----------2---2-------|
D|----2-------2---2---2-------2---2-|
A|--0-----------0---0-----------0---|
E|----------------------------------|
  ..between two candles...

e|----------------------------------|
B|--------7---------------7---------|
G|------7---7-----------7---7-------|
D|----7-------7---7---7-------------|
A|--5-----------5---5---------5--7--|
E|----------------------------------|
  Melissa

e|------------------------------------|
B|--------10----------------10--------|
G|------10--10------------10--10------|
D|----10------10---10---10------------|
A|--8------------8----8----------8-7\-|
E|------------------------------------|
  ...has entered...

e|----------------------------|
B|--------5-------------------|
G|------5---5--------------0--|
D|----5-------5---5------0----|
A|--3-----------3------2------|
E|-------------------3--------|

e|----------------------------------|
B|--------2---------------2---------|
G|------2---2-----------2---2-------|
D|----2-------2---2---2-------2-----|
A|--0-----------0---0-----------0-2-|
E|----------------------------------|
  ...another life

e|----------------2----------------------------------|
B|-------1------3--------------------------1---------|
G|-----0------2------------0-----5-------2---2-------|
D|---2------0------------0-----5-------2-------2-----|
A|-3-------------------2-----3-----2-0-----------0-2-|
E|-------------------3-------------------------------|

e|----------------2-----------------------------|
B|-------1------3-------------------5-----------|
G|-----0------2------------0------5------4------|
D|---2------0------------0------5--------4------|
A|-3-------------------2------3----------2------|
E|-------------------3--------------------------|

RIFF 2
e|---------------------------------------|
B|---------------------------------------|
G|--2---5------------2----------------5--|
D|--2---5------------2---4------------5--|
A|--0---3------------0---4------------3--|
E|----------5-4-3-2------2--3-2-3-4-5----|
            * * * *         * * * * * 
  Melissa!.....


RIFF 3 (slighty distorted) 
e|---------------------------------------------------|
B|------3-----3-----3-----3-----3-----3-----3--------|
G|----2-----2-----2-----2-----2-----2-----2----------|
D|--0-----------3-----2-----------3-----2-----0--3-2-|
A|--------3-----------------3------------------------|
E|---------------------------------------------------|

Repeat bar above many times, then go back to:
RIFF 2
e|---------------------------------------|
B|---------------------------------------|
G|--2---5------------2----------------5--|
D|--2---5------------2---4------------5--|
A|--0---3------------0---4------------3--|
E|----------5-4-3-2------2--3-2-3-4-5----|
            * * * *         * * * * * 
RIFF 4
e|--------------------------------------------------------------|
B|--------------------------------------------------------------|
G|--------------------------------------------------------------|
D|--9-9-----------11-11-----------7-7-----7-7-----12-12-----5-5-|
A|--7-7-xxxx--xxx--9--9-xxxx--xxx-5-5-xxx-5-5-xxx-10-10-xxx-3-3-|
E|--------------------------------------------------------------|

RIFF 5
(beginning of solo)
e|-----------------------------------|
B|--8-7h8p7--------------------------|
G|----------9-7\5-5\4-4\2-2\0--2-4---|
D|-----------------------------------|
A|-----------------------------------|
E|-----------------------------------|

Rhythm under beginning of solo:
e|---------------------------|
B|---------------------------|
G|---------------------------|
D|--2--0---------------------|
A|--------3--2--0------------|
E|-----------------2---3---5-|

RIFF 6
play 2 times:
e|---------------------------------------|
B|---------------------------------------|
G|---------------------------------------|
D|-----------2---2-----------------------|
A|--2--2-4-5-------5-4-------------------|
E|---------------------5--5-3-2---2-3-5--|

e|---------------------------------------|
B|---------------------------------------|
G|---------------------------------------|
D|-----------2---2-----------------------|
A|--2--2-4-5-------5-4-------------------|
E|---------------------5--3-5-3-2-2-3-5--|

RIFF 7
e|----------------------------------------|
B|----------------------------------------|
G|----------------------------------------|
D|-------4-2------------------------------|
A|--2--2-----5---2--2-5-4----------5-4----|
E|------------------------5---3--3-----5--|

e|--------------------------------------------|
B|--------------------------------------------|
G|--------------------------------------------|
D|------------------4-2-----------------------|
A|-------------2--2-----5---2--2--4--5--7-7~--|
E|--2--2-3-5----------------------------------|

e|-------------|
B|-------------|
G|-------------|
D|-------------|
A|--7-7--5--4--|
E|-------------|

e|----------------------------------------|
B|----------------------------------------|
G|----------------------------------------|
D|-------4-2------------------------------|
A|--2--2-----5---2--2-5-4----------5-4----|
E|------------------------5---3--3-----5--|

e|--------------------------------------------|
B|--------------------------------------------|
G|--------------------------------------------|
D|------------------4-2-----------------------|
A|-------------2--2-----5---2--2--4--5--7--5--|
E|--2--2-3-5----------------------------------|

e|----------------------|
B|-------(4)------------|
G|--------4-------------|
D|--------4-------------|
A|--4--5--2-[let ring]--|
E|----------------------|

Repeat RIFF 3 (slightly distorted) (solo continues) + Melissa can...
e|---------------------------------------------------|
B|------3-----3-----3-----3-----3-----3-----3--------|
G|----2-----2-----2-----2-----2-----2-----2----------|
D|--0-----------3-----2-----------3-----2-----0--3-2-|
A|--------3-----------------3------------------------|
E|---------------------------------------------------|

Repeat above many times, then the slow part:

e|-------0---------------0---------|
B|-----1---1-----------1---1-------|
G|---------------------------------|
D|---2-------2---2---2-------2-----|
A|-0-----------0---0-----------3-2-|
E|---------------------------------|

e|-------0---------------0---------|
B|-----1---1-----------1---1-------|
G|---------------------------------|
D|---2-------2---2---2-------2---2-|
A|-0-----------0---0-----------0---|
E|---------------------------------|
  Nothing is left.....

e|-------0---------------0---------|
B|-----1---1-----------1---1-------|
G|---------------------------------|
D|---3-------3---3---3-------3---3-|
A|-0-----------0---0-----------0---|
E|---------------------------------|
  Outside at the stake.....

e|-------0---------------0---------|
B|-----1---1-----------1---1-------|
G|---------------------------------|
D|---2-------2---2---2-------2---2-|
A|-0-----------0---0-----------0---|
E|---------------------------------|
  They've taken her .......

e|-------0---------------0--|
B|-----0---0------------0---|
G|---------------------2----|
D|---2-------2---2----2-----|
A|-0-----------0-----0------|
E|--------------------------|
  me..........             I think melissa is still with us.


notation:
b   =  bend
r   =  release
x   =  mute with fret-hand
*   =  mute with palm-hand
X\\ =  pick slide
h   =  hammer-on
p   =  pull-off
~   =  vibrato
t   =  tap-on
/   =  slide up
\   =  slide down
h.  =  harmonics
ah  =  artificial harmonic
(9) =  ghost note
tm  =  trem picking
tr  =  trill
comments
print report bad tab
I want to post or [tab]
guest
You may want to rate the tab now too:
select rating
Please do not post tabs as comments. Select "correction" instead!