Oops, an error
Loading. Please wait.

Beautiful Tab

6,363 views 39 this week
no commentswrite comment
1 2 3 4 5
excellent!
x 2
Autoscroll
+/-
esc
set tempo
stop
Contributor
Difficulty
intermediate
WARNING: You are trying to view
                                    content from Ultimate-Guitar.com
                                    in an unauthorized application,
                                    which is prohibited.

                                    Please use an official Ultimate
                                    Guitar Tabs application for iPhone,
                                    iPad or Android to access legitimate
                                    chords, guitar, bass, and drum tabs
                                    from Ultimate-Guitar.com database.

                                    Type "ultimate guitar tabs" in Apple
                                    App Store's or Android Market's
                                    search to find the application.
Artist: Meshell Ndegeocello
Title: Beautiful
Album: Lost & Delerious
Tuning: Standard EADGBe

hey guys, this is i think my second or thrid tab, but i am positive this is 99-100%
its one of the most gorgeous songs i knwo right now... i dance to it alot and i am doing
to it soon, somewhere... but this one of those PLAYIN around and STUMBLED upon it tabs 
its not a well known song but i suggest that everyone purchase it, it is on iTunes....
tab and it takes alot of improv... but it is farely easy.. have fun!


Main Riff:


e----------------------------------------------------------------|
B----------------------------------------------------------------|
G----7---------7---7/9---9/11---11--9--7-----------7----------7--|
D----------(5)----------------------------------5----------------|
A----5---5---------5/7---7/ 9----9--7--5-----5---------(5)----5--|
E----------------------------------------------------------------|

                   Such   pretty hair.....VV(improv with the D5)VV
e----------------------------------------------------------------|
B----------------------------------------------------------------|
G----7---------7---7/9---9/11---11--9--7-----------7----------7--|
D----------(5)----------------------------------5----------------|
A----5---5---------5/7---7/ 9----9--7--5-----5---------(5)----5--|
E----------------------------------------------------------------|


                   May I Kiss you......... may i kiss you there
e----------------------------------------------------------------|
B----------------------------------------------------------------|
G----7---------7---7/9---9/11---11--9--7-----------7----------7--|
D----------(5)----------------------------------5----------------|
A----5---5---------5/7---7/ 9----9--7--5-----5---------(5)----5--|
E----------------------------------------------------------------|


                   So beautiful          YOU are               SO
e----------------------------------------------------------------|
B----------------------------------------------------------------|
G----7---------7---7/9---9/11---11--9--7-----------7----------7--|
D----------(5)----------------------------------5----------------|
A----5---5---------5/7---7/ 9----9--7--5-----5---------(5)----5--|
E----------------------------------------------------------------|


BEAU-TI-FUL (these notes are soft) BEAU-TI-FUL
e-------------------------------------------------------------|
B------------10----8----7---------------------10----8----7----|
G-------------------------------------------------------------|
D-------------------------------------------------------------|
A-------------------------------------------------------------|
E-------------------------------------------------------------|


then Repeat Riffs and Chorus all throughout song..... listen and improv its gorgous!

please dont move
it feels so good to me
tell me in my ear

Beautiful, Beautiful...... so very beautiful

So Beautiful, Beautiful.... so beautiful


so  BEAUti        FUL
e--------------------------5----3----2--|
B---------------------------------------|
G---6-------------7---------------------|      x4
D---------------------------------------|
A---4-------------5---------------------|
E---------------------------------------|

and improv....


THANKS!!
-Shane Carrigan
comments
We did not receive enough feedback on this tab! Please rate:
print report bad tab
1 2 3 4 5
I want to post or [tab]
guest
You may want to rate the tab now too:
select rating
Please do not post tabs as comments. Select "correction" instead!