Oops, an error
Loading. Please wait.

Burning Bridges Bass Tab

by Mest
515 views 1 this week
no commentswrite comment
1 2 3 4 5
excellent!
x 1
Autoscroll
+/-
esc
set tempo
stop
Contributor
WARNING: You are trying to view
                                    content from Ultimate-Guitar.com
                                    in an unauthorized application,
                                    which is prohibited.

                                    Please use an official Ultimate
                                    Guitar Tabs application for iPhone,
                                    iPad or Android to access legitimate
                                    chords, guitar, bass, and drum tabs
                                    from Ultimate-Guitar.com database.

                                    Type "ultimate guitar tabs" in Apple
                                    App Store's or Android Market's
                                    search to find the application.
Standard Tuning

Pre Chorus 1
G:--------------------------------|  |---------------------------------|
D:---------------------7-------7-7|  |---------------------------------|
A:-----5-------7---5--5--5-5--5-5-|x3|----5-------7---5--5005-5--5005--|
E:-3--3--3-5--5--5----------------|  |3--3--3-5--5--5------------------|

Chorus 1
G:-12/14~~------------------------------------------------------------|
D:-10/12~~------------------------------------------------------------|
A:--------------------------------------------------------------------|x1
E:--------------------------------------------------------------------|

G:------------------|
D:------------------|
A:------------------|x1
E:------------------|

Verse 2
G:-------------------------------------------------------------4466-|
D:---004400--004400----------------------------------------4477-----|
A:-22------22--------225522--5522----4477----774400--0044-----------|x1
E:-----------------33------33----3355----5555------22----22---------|

G:-------------------------------------------------------------------6--|
D:----0h4-0----0h4-0--------------------0h2-----2-----------------7h9---|
A:-222-------22--------5-5-----542---004----0--0-54-0---4-4---9999------|x1
E:-------------------33-3--3--3----3------------------22-2--2-----------|

Pre Chorus 2
G:-----------------------------------------------------7-9-7--------|
D:---------------------7-------7---------------------7-------7---7--|
A:-----5-------7---5-5---5-5-5---5-----5-------7---5-----------5----|x1
E:-3-3---3-5-5---5-----------------3-3---3-5-5---5------------------|

G:------------------------------------------------------------------|
D:-----------------------------------------------2-----7------------|
A:---5-2-----7-4---5-4---------------2-4-5-0-4-5---5-5---5-5--------|x1
E:-3-----3-5-----5-----7-5-3-2-0-2-3--------------------------------|

Chorus 2
G:------------------------------------------------------------------|
D:------------------------------------------------------------------|
A:-55555555------------------7744--55555555-------------------------|x1
E:---------222222223333333355----55--------222222223333333355555555-|

G:------------------------------------------------------------------|
D:------------------------------------------------------------------|
A:-55555555------------------------55555555----------5---5---7-4----|x1
E:---------222222223333333355553322--------2222222233--33--55----5--|

G:------------------|
D:------------------|
A:-55554444---------|x1
E:---------33335555-|

Bridge
G:---------------------------------------------------------------4466-|
D:----0h4-0----0h4-0-------------------------------------------44-----|
A:-222-------22--------225522--5522----447744--7744------44-----------|x1
E:-------------------33------33----3355------55----552255--2222-------|

G:------------------------------------------------------------------|
D:-----44------44----------------------------------------------4466-|
A:-2222--222222--22----55------55------77------77------44--4477-----|x1
E:-----------------3333--333333--335555--555555--552255--44---------|

Pre Chorus 3
G:------------------------------------------------------------------|
D:------------------------------------------------------------------|
A:-----------------5~~~~~~~------------------------5~~~~~~~---------|x1
E:-3~~~----5~~~--------------------3~~~----5~~~---------------------|

G:------------------------------------------------------------------|
D:------------------------------------------------------------------|
A:-----------------5~--4~--------------------------5~~~~~~~---------|x1
E:-3~~~----5~~~------------7~~~----3~~~----5~~~---------------------|

Chorus 3
G:--------------------------------------------------------------------|
D:--------------------------------------------------------------------|
A:5555555-------------------22445555555-------------------17--17--17--|
E:--------22222223333333555------------22222223333333/1717--17--17--17|

G:------------------------------------------------------------------|
D:------------------------------------------------------------------|
A:-55555555------------------------55555555------------------77--77-|x1
E:---------222222223333333355553322--------222222223333333355--55---|

G:-----------------------------4466---------------------------------|
D:---------44444444555555557777-------------------------------------|
A:-55555555------------------------555555554444444422222222---------|x1
E:---------------------------------------------------------55555555-|

Outro
G:----------------------------------------|
D:--------------------0h4-0----0h4-0------|
A:-55554444--------222-------22------2~---|x1
E:---------33335555-----------------------|

Pre Chorus 1
G:--------------------------------|  |---------------------------------|
D:---------------------7-------7-7|  |---------------------------------|
A:-----5-------7---5--5--5-5--5-5-|x3|----5-------7---5--5005-5--5005--|
E:-3--3--3-5--5--5----------------|  |3--3--3-5--5--5------------------|

Chorus 1
G:-12/14~~------------------------------------------------------------|
D:-10/12~~------------------------------------------------------------|
A:--------------------------------------------------------------------|x1
E:--------------------------------------------------------------------|

G:------------------|
D:------------------|
A:------------------|x1
E:------------------|

Verse 2
G:-------------------------------------------------------------4466-|
D:---004400--004400----------------------------------------4477-----|
A:-22------22--------225522--5522----4477----774400--0044-----------|x1
E:-----------------33------33----3355----5555------22----22---------|

G:-------------------------------------------------------------------6--|
D:----0h4-0----0h4-0--------------------0h2-----2-----------------7h9---|
A:-222-------22--------5-5-----542---004----0--0-54-0---4-4---9999------|x1
E:-------------------33-3--3--3----3------------------22-2--2-----------|

Pre Chorus 2
G:-----------------------------------------------------7-9-7--------|
D:---------------------7-------7---------------------7-------7---7--|
A:-----5-------7---5-5---5-5-5---5-----5-------7---5-----------5----|x1
E:-3-3---3-5-5---5-----------------3-3---3-5-5---5------------------|

G:------------------------------------------------------------------|
D:-----------------------------------------------2-----7------------|
A:---5-2-----7-4---5-4---------------2-4-5-0-4-5---5-5---5-5--------|x1
E:-3-----3-5-----5-----7-5-3-2-0-2-3--------------------------------|

Chorus 2
G:------------------------------------------------------------------|
D:------------------------------------------------------------------|
A:-55555555------------------7744--55555555-------------------------|x1
E:---------222222223333333355----55--------222222223333333355555555-|

G:------------------------------------------------------------------|
D:------------------------------------------------------------------|
A:-55555555------------------------55555555----------5---5---7-4----|x1
E:---------222222223333333355553322--------2222222233--33--55----5--|

G:------------------|
D:------------------|
A:-55554444---------|x1
E:---------33335555-|

Bridge
G:---------------------------------------------------------------4466-|
D:----0h4-0----0h4-0-------------------------------------------44-----|
A:-222-------22--------225522--5522----447744--7744------44-----------|x1
E:-------------------33------33----3355------55----552255--2222-------|

G:------------------------------------------------------------------|
D:-----44------44----------------------------------------------4466-|
A:-2222--222222--22----55------55------77------77------44--4477-----|x1
E:-----------------3333--333333--335555--555555--552255--44---------|

Pre Chorus 3
G:------------------------------------------------------------------|
D:------------------------------------------------------------------|
A:-----------------5~~~~~~~------------------------5~~~~~~~---------|x1
E:-3~~~----5~~~--------------------3~~~----5~~~---------------------|

G:------------------------------------------------------------------|
D:------------------------------------------------------------------|
A:-----------------5~--4~--------------------------5~~~~~~~---------|x1
E:-3~~~----5~~~------------7~~~----3~~~----5~~~---------------------|

Chorus 3
G:--------------------------------------------------------------------|
D:--------------------------------------------------------------------|
A:5555555-------------------22445555555-------------------17--17--17--|
E:--------22222223333333555------------22222223333333/1717--17--17--17|

G:------------------------------------------------------------------|
D:------------------------------------------------------------------|
A:-55555555------------------------55555555------------------77--77-|x1
E:---------222222223333333355553322--------222222223333333355--55---|

G:-----------------------------4466---------------------------------|
D:---------44444444555555557777-------------------------------------|
A:-55555555------------------------555555554444444422222222---------|x1
E:---------------------------------------------------------55555555-|

Outro
G:----------------------------------------|
D:--------------------0h4-0----0h4-0------|
A:-55554444--------222-------22------2~---|x1
E:---------33335555-----------------------|
comments
We did not receive enough feedback on this tab! Please rate:
1 2 3 4 5
I want to post or [tab]
guest
You may want to rate the tab now too:
select rating
Please do not post tabs as comments. Select "correction" instead!