Oops, an error
Loading. Please wait.

Free Forever Tab

ver1
ver1

Whole song

Interactive

More versions @911Tabs.com
359 views 3 this week
no commentswrite comment
1 2 3 4 5
excellent!
x 1
Autoscroll
+/-
esc
set tempo
stop
Contributor
WARNING: You are trying to view
                                    content from Ultimate-Guitar.com
                                    in an unauthorized application,
                                    which is prohibited.

                                    Please use an official Ultimate
                                    Guitar Tabs application for iPhone,
                                    iPad or Android to access legitimate
                                    chords, guitar, bass, and drum tabs
                                    from Ultimate-Guitar.com database.

                                    Type "ultimate guitar tabs" in Apple
                                    App Store's or Android Market's
                                    search to find the application.
Free Forever - Metalium

***************************************************************************

Here's my third tab of Metalium. Again, lead guitar on top, rhythm guitar below 
the lead, and the legends at the bottom.

Here's the official site of Metalium:

www.metalium.de/

***************************************************************************

Lead Guitar


     H.           E  E     Q.     E  S S E  E  E   
E||---------------------|-------------------------|
B||---------------------|-------------------------|
G||---------------------|-------------------------|
D||---------------------|--8------6--4-6-4--3-----|
A||---------------6--6--|----------------------4--|
E||---------------------|-------------------------|


  E  E  H        E  E      Q.      E   S  S  E  E  E   
-----------------------|------------------------------|
-----------------------|------------------------------|
-----------------------|------------------------------|
-----------------8--8--|--11------10--10-11-10--8--6--|
--4--6--6--------------|------------------------------|
-----------------------|------------------------------|


  E  E  H        E  E     Q.     E  S S E  E  E   
-----------------------|-------------------------|
-----------------------|-------------------------|
-----------------------|-------------------------|
--6--8--8--------------|--8------6--4-6-4--3-----|
-----------------6--6--|----------------------4--|
-----------------------|-------------------------|


  E  E  H        E  E      Q.      E   S  S  E  E  E   
-----------------------|------------------------------|
-----------------------|------------------------------|
-----------------------|------------------------------|
-----------------8--8--|--11------10--10-11-10--8--6--|
--4--6--6--------------|------------------------------|
-----------------------|------------------------------|


  E  E  H        E  E     Q.     E  S S E  E  E   
-----------------------|-------------------------|
-----------------------|-------------------------|
-----------------------|-------------------------|
--6--8--8--------------|--8------6--4-6-4--3-----|
-----------------6--6--|----------------------4--|
-----------------------|-------------------------|


  E  E  H        E  E      Q.      E   S  S  E  E  E   
-----------------------|------------------------------|
-----------------------|------------------------------|
-----------------------|------------------------------|
-----------------8--8--|--11------10--10-11-10--8--6--|
--4--6--6--------------|------------------------------|
-----------------------|------------------------------|


  E  E  H        E  E     Q.     E  S S E  E  E   
-----------------------|-------------------------|
-----------------------|-------------------------|
-----------------------|-------------------------|
--6--8--8--------------|--8------6--4-6-4--3-----|
-----------------6--6--|----------------------4--|
-----------------------|-------------------------|


  E  E  H        E  E      Q.      E   S  S  E  E  E   
-----------------------|------------------------------|
-----------------------|------------------------------|
-----------------------|------------------------------|
-----------------8--8--|--11------10--10-11-10--8--6--|
--4--6--6--------------|------------------------------|
-----------------------|------------------------------|


  H        H           W                 
--------------------|-------------------|
--------------------|-------------------|
--------------------|-------------------|
--6-----------------|--L----------------|
--------------------|-------------------|
--------------------|-------------------|


  W                   W                 
-------------------|-------------------|
-------------------|-------------------|
-------------------|-------------------|
-------------------|-------------------|
-------------------|-------------------|
-------------------|-------------------|


  W                   W                 
-------------------|-------------------|
-------------------|-------------------|
-------------------|-------------------|
-------------------|-------------------|
-------------------|-------------------|
-------------------|-------------------|


  W                   W                 
-------------------|-------------------|
-------------------|-------------------|
-------------------|-------------------|
-------------------|-------------------|
-------------------|-------------------|
-------------------|-------------------|


  W                   W                 
-------------------|-------------------|
-------------------|-------------------|
-------------------|-------------------|
-------------------|-------------------|
-------------------|-------------------|
-------------------|-------------------|


  W                   W                 
-------------------|-------------------|
-------------------|-------------------|
-------------------|-------------------|
-------------------|-------------------|
-------------------|-------------------|
-------------------|-------------------|


  W                   W                 
-------------------|-------------------|
-------------------|-------------------|
-------------------|-------------------|
-------------------|-------------------|
-------------------|-------------------|
-------------------|-------------------|


  W                   W                 
-------------------|-------------------|
-------------------|-------------------|
-------------------|-------------------|
-------------------|-------------------|
-------------------|-------------------|
-------------------|-------------------|


  W                   W                 
-------------------|-------------------|
-------------------|-------------------|
-------------------|-------------------|
-------------------|-------------------|
-------------------|-------------------|
-------------------|-------------------|


  W                   W                 
-------------------|-------------------|
-------------------|-------------------|
-------------------|-------------------|
-------------------|-------------------|
-------------------|-------------------|
-------------------|-------------------|


  W                   W                 
-------------------|-------------------|
-------------------|-------------------|
-------------------|-------------------|
-------------------|-------------------|
-------------------|-------------------|
-------------------|-------------------|


  W                   W                 
-------------------|-------------------|
-------------------|-------------------|
-------------------|-------------------|
-------------------|-------------------|
-------------------|-------------------|
-------------------|-------------------|


  W                   W                 
-------------------|-------------------|
-------------------|-------------------|
-------------------|-------------------|
-------------------|-------------------|
-------------------|-------------------|
-------------------|-------------------|


  Q.     E  S S E  E  E     E  E  H        E  E   
-------------------------|-----------------------|
-------------------------|-----------------------|
-------------------------|-----------------------|
--8------6--4-6-4--3-----|-----------------8--8--|
----------------------4--|--4--6--6--------------|
-------------------------|-----------------------|


   Q.      E   S  S  E  E  E     H        H         
------------------------------|--------------------|
------------------------------|--------------------|
------------------------------|--------------------|
--11------10--10-11-10--8--6--|--8-----------------|
------------------------------|--------------------|
------------------------------|--------------------|


  W                   W                 
-------------------|-------------------|
-------------------|-------------------|
-------------------|-------------------|
-------------------|-------------------|
-------------------|-------------------|
-------------------|-------------------|


  W                   W                 
-------------------|-------------------|
-------------------|-------------------|
-------------------|-------------------|
-------------------|-------------------|
-------------------|-------------------|
-------------------|-------------------|


  W                   W                 
-------------------|-------------------|
-------------------|-------------------|
-------------------|-------------------|
-------------------|-------------------|
-------------------|-------------------|
-------------------|-------------------|


  W                   W                 
-------------------|-------------------|
-------------------|-------------------|
-------------------|-------------------|
-------------------|-------------------|
-------------------|-------------------|
-------------------|-------------------|


  W                   W                 
-------------------|-------------------|
-------------------|-------------------|
-------------------|-------------------|
-------------------|-------------------|
-------------------|-------------------|
-------------------|-------------------|


  W                   W                 
-------------------|-------------------|
-------------------|-------------------|
-------------------|-------------------|
-------------------|-------------------|
-------------------|-------------------|
-------------------|-------------------|


  W                   W                 
-------------------|-------------------|
-------------------|-------------------|
-------------------|-------------------|
-------------------|-------------------|
-------------------|-------------------|
-------------------|-------------------|


  W                   W                 
-------------------|-------------------|
-------------------|-------------------|
-------------------|-------------------|
-------------------|-------------------|
-------------------|-------------------|
-------------------|-------------------|


            |--3--|                  
   Q.       S  S  S  E   E   E   E   
--18~------14-16-14-------------18--|
--------------------16------16------|
------------------------15----------|
------------------------------------|
------------------------------------|
------------------------------------|


            |--3--|                  
   Q.       S  S  S  E   E   E   E   
--16~------13-16-13-------------16--|
--------------------14------14------|
------------------------13----------|
------------------------------------|
------------------------------------|
------------------------------------|


            |--3--|                  
   Q.       S  S  S  E   E   E   E   
--18~------14-16-14-------------18--|
--------------------16------16------|
------------------------15----------|
------------------------------------|
------------------------------------|
------------------------------------|


            |--3--|                  
   Q.       S  S  S  E   E   E   E   
--16~------13-16-13-------------13--|
--------------------14------14------|
------------------------13----------|
------------------------------------|
------------------------------------|
------------------------------------|


   |--3--|  |--3--|  |--3--|  |--3--|  |--3--|  |--3--| 
   S  S  S  S  S  S  S  S  S  S  S  S  S  S  S  S  S  S 
--14-11----------11-14-11----------11-14-11----------11-
--------12----12----------12----12----------12----12----
-----------11----------------11----------------11-------
--------------------------------------------------------
--------------------------------------------------------
--------------------------------------------------------


   E   E   E   E   E   E   E   E   
--16--14--13------18--16------16--|
--------------14----------18------|
----------------------------------|
----------------------------------|
----------------------------------|
----------------------------------|


   W                    W                 
--23~----------------|-------------------|
---------------------|-------------------|
---------------------|-------------------|
---------------------|-------------------|
---------------------|-------------------|
---------------------|-------------------|


  W                   W                 
-------------------|-------------------|
-------------------|-------------------|
-------------------|-------------------|
-------------------|-------------------|
-------------------|-------------------|
-------------------|-------------------|


  W                   W                 
-------------------|-------------------|
-------------------|-------------------|
-------------------|-------------------|
-------------------|-------------------|
-------------------|-------------------|
-------------------|-------------------|


  W                   W                 
-------------------|-------------------|
-------------------|-------------------|
-------------------|-------------------|
-------------------|-------------------|
-------------------|-------------------|
-------------------|-------------------|


  W                   W                 
-------------------|-------------------|
-------------------|-------------------|
-------------------|-------------------|
-------------------|-------------------|
-------------------|-------------------|
-------------------|-------------------|


  W                   W                 
-------------------|-------------------|
-------------------|-------------------|
-------------------|-------------------|
-------------------|-------------------|
-------------------|-------------------|
-------------------|-------------------|


  W                   W                 
-------------------|-------------------|
-------------------|-------------------|
-------------------|-------------------|
-------------------|-------------------|
-------------------|-------------------|
-------------------|-------------------|


  W                   H.           E  E   
-------------------|---------------------|
-------------------|---------------------|
-------------------|---------------------|
-------------------|---------------------|
-------------------|---------------6--6--|
-------------------|---------------------|


  Q.     E  S S E  E  E     E  E  H        E  E   
-------------------------|-----------------------|
-------------------------|-----------------------|
-------------------------|-----------------------|
--8------6--4-6-4--3-----|-----------------8--8--|
----------------------4--|--4--6--6--------------|
-------------------------|-----------------------|


   Q.      E   S  S  E  E  E     E  E  H        E  E   
------------------------------|-----------------------|
------------------------------|-----------------------|
------------------------------|-----------------------|
--11------10--10-11-10--8--6--|--6--8--8--------------|
------------------------------|-----------------6--6--|
------------------------------|-----------------------|


  Q.     E  S S E  E  E     E  E  H        E  E   
-------------------------|-----------------------|
-------------------------|-----------------------|
-------------------------|-----------------------|
--8------6--4-6-4--3-----|-----------------8--8--|
----------------------4--|--4--6--6--------------|
-------------------------|-----------------------|


   Q.      E   S  S  E  E  E     W                  
------------------------------|--------------------|
------------------------------|--------------------|
------------------------------|--------------------|
--11------10--10-11-10--8--6--|--6~----------------|
------------------------------|--------------------|
------------------------------|--------------------|


  W                   W                 
-------------------|-------------------|
-------------------|-------------------|
-------------------|-------------------|
--L----------------|-------------------|
-------------------|-------------------|
-------------------|-------------------|


  W                   W                 
-------------------|-------------------|
-------------------|-------------------|
-------------------|-------------------|
-------------------|-------------------|
-------------------|-------------------|
-------------------|-------------------|


  W                   W                  
-------------------|-------------------||
-------------------|-------------------||
-------------------|-------------------||
-------------------|-------------------||
-------------------|-------------------||
-------------------|-------------------||


Rhythm Guitar


     W                   W                 
E||-------------------|-------------------|
B||-------------------|-------------------|
G||-------------------|-------------------|
D||-------------------|--8----------------|
A||-------------------|--6----------------|
E||-------------------|-------------------|


  W                   W                 
-------------------|-------------------|
-------------------|-------------------|
-------------------|-------------------|
--L----------------|--3----------------|
--L----------------|--1----------------|
-------------------|-------------------|


  W                   W                 
-------------------|-------------------|
-------------------|-------------------|
-------------------|-------------------|
--L----------------|--8----------------|
--L----------------|--6----------------|
-------------------|-------------------|


  W                   W                 
-------------------|-------------------|
-------------------|-------------------|
-------------------|-------------------|
--L----------------|--3----------------|
--L----------------|--1----------------|
-------------------|-------------------|


  W                   W                 
-------------------|-------------------|
-------------------|-------------------|
-------------------|-------------------|
--L----------------|--8----------------|
--L----------------|--6----------------|
-------------------|-------------------|


  W                   W                 
-------------------|-------------------|
-------------------|-------------------|
-------------------|-------------------|
--L----------------|--3----------------|
--L----------------|--1----------------|
-------------------|-------------------|


  W                   W                 
-------------------|-------------------|
-------------------|-------------------|
-------------------|-------------------|
--L----------------|--8----------------|
--L----------------|--6----------------|
-------------------|-------------------|


  W                   W                 
-------------------|-------------------|
-------------------|-------------------|
-------------------|-------------------|
--L----------------|--3----------------|
--L----------------|--1----------------|
-------------------|-------------------|


  W                   W                 
-------------------|-------------------|
-------------------|-------------------|
-------------------|-------------------|
--L----------------|--L----------------|
--L----------------|--L----------------|
-------------------|-------------------|


  S S S S S S S S S S S S S S S S  
----------------------------------|
----------------------------------|
----------------------------------|
----------------------------------|
--6-6-6-6-6-6-6-6-6-6-6-6-6-6-6-6-|
----------------------------------|


  S S S S S S S S S S S S S S S S  
----------------------------------|
----------------------------------|
----------------------------------|
----------------------------------|
--6-6-6-6-6-6-6-6-6-6-6-6-6-6-6-6-|
----------------------------------|


  S S S S S S S S S S S S S S S S  
----------------------------------|
----------------------------------|
----------------------------------|
----------------------------------|
--1-1-1-1-1-1-1-1-1-1-1-1-1-1-1-1-|
----------------------------------|


  S S S S S S S S S S S S S S S S  
----------------------------------|
----------------------------------|
----------------------------------|
----------------------------------|
--1-1-1-1-1-1-1-1-1-1-1-1-1-1-1-1-|
----------------------------------|


  S S S S S S S S S S S S S S S S  
----------------------------------|
----------------------------------|
----------------------------------|
----------------------------------|
--6-6-6-6-6-6-6-6-6-6-6-6-6-6-6-6-|
----------------------------------|


  S S S S S S S S S S S S S S S S  
----------------------------------|
----------------------------------|
----------------------------------|
----------------------------------|
--6-6-6-6-6-6-6-6-6-6-6-6-6-6-6-6-|
----------------------------------|


  S S S S S S S S S S S S S S S S  
----------------------------------|
----------------------------------|
----------------------------------|
----------------------------------|
--1-1-1-1-1-1-1-1-1-1-1-1-1-1-1-1-|
----------------------------------|


  S S S S S S S S S S S S S S S S  
----------------------------------|
----------------------------------|
----------------------------------|
----------------------------------|
--1-1-1-1-1-1-1-1-1-1-1-1-1-1-1-1-|
----------------------------------|


  S S S E  E  S S S S E  E  S  
------------------------------|
------------------------------|
------------------------------|
--------8--8----------8--8----|
--6-6-6-6--6--6-6-6-6-6--6--6-|
------------------------------|


  S S S E  E  S S S S E  E  S  
------------------------------|
------------------------------|
------------------------------|
--------3--3----------3--3----|
--1-1-1-1--1--1-1-1-1-1--1--1-|
------------------------------|


  S S S E  E  S S S S E  E  S  
------------------------------|
------------------------------|
------------------------------|
--------8--8----------8--8----|
--6-6-6-6--6--6-6-6-6-6--6--6-|
------------------------------|


  S S S E  E  S S S S E  E  S  
------------------------------|
------------------------------|
------------------------------|
--------3--3----------3--3----|
--1-1-1-1--1--1-1-1-1-1--1--1-|
------------------------------|


  S S S E  E  S S S S E  E  S  
------------------------------|
------------------------------|
------------------------------|
--------4--4----------4--4----|
--2-2-2-2--2--2-2-2-2-2--2--2-|
------------------------------|


  S S S E  E  S S S S E  E  S  
------------------------------|
------------------------------|
------------------------------|
------------------------------|
--------4--4----------4--4----|
--2-2-2-2--2--2-2-2-2-2--2--2-|


  S S S E  E  S S S S E  E  S  
------------------------------|
------------------------------|
------------------------------|
--------4--4----------4--4----|
--2-2-2-2--2--2-2-2-2-2--2--2-|
------------------------------|


  S S S S S S S S S S S S S S S S  
----------------------------------|
----------------------------------|
----------------------------------|
----------------------------------|
--4-4-4-4-4-4-4-4-5-5-5-5-5-5-5-5-|
----------------------------------|


  S S S S S S S S S S S S S S S S  
----------------------------------|
----------------------------------|
----------------------------------|
----------------------------------|
--6-6-6-6-6-6-6-6-6-6-6-6-6-6-6-6-|
----------------------------------|


  S S S S S S S S S S S S S S S S  
----------------------------------|
----------------------------------|
----------------------------------|
----------------------------------|
--1-1-1-1-1-1-1-1-1-1-------------|
----------------------4-4-2-2-1-1-|


  S S S S S S S S S S S S S S S S  
----------------------------------|
----------------------------------|
----------------------------------|
----------------------------------|
--6-6-6-6-6-6-6-6-6-6-6-6-6-6-6-6-|
----------------------------------|


  S S S S S S S S S S S S S S S S  
----------------------------------|
----------------------------------|
----------------------------------|
----------------------------------|
--1-1-1-1-1-1-1-1-1-1-------------|
----------------------4-4-2-2-1-1-|


  S S S S S S S S S S S S S S S S  
----------------------------------|
----------------------------------|
----------------------------------|
----------------------------------|
--2-2-2-2-2-2-2-2-2-2-2-2-2-2-2-2-|
----------------------------------|


  S S S S S S S S S S S S S S S S  
----------------------------------|
----------------------------------|
----------------------------------|
----------------------------------|
----------------------------------|
--2-2-2-2-2-2-2-2-2-2-2-2-2-2-2-2-|


  S S S S S S S S S S S S S S S S    H        H         
----------------------------------|--------------------|
----------------------------------|--------------------|
----------------------------------|--------------------|
----------------------------------|--6--------7--------|
--2-2-2-2-2-2-2-2-2-2-2-2-2-2-2-2-|--4--------5--------|
----------------------------------|--------------------|


  S S S S S S S S S S S S S S S S  
----------------------------------|
----------------------------------|
----------------------------------|
----------------------------------|
--6-6-6-6-6-6-6-6-6-6-6-6-6-6-6-6-|
----------------------------------|


  S S S S S S S S S S S S S S S S  
----------------------------------|
----------------------------------|
----------------------------------|
----------------------------------|
--6-6-6-6-6-6-6-6-6-6-6-6-6-6-6-6-|
----------------------------------|


  S S S S S S S S S S S S S S S S  
----------------------------------|
----------------------------------|
----------------------------------|
--3-------------------------------|
--1-1-1-1-1-1-1-1-1-1-1-1-1-1-1-1-|
----------------------------------|


  S S S S S S S S S S S S S S S S  
----------------------------------|
----------------------------------|
----------------------------------|
----------------------------------|
--1-1-1-1---------1-1-1-1-4-4-4-4-|
----------4-4-4-4-2-2-2-2-1-1-1-1-|


  S S S E  E  S S S S E  E  S  
------------------------------|
------------------------------|
------------------------------|
--------8--8----------8--8----|
--6-6-6-6--6--6-6-6-6-6--6--6-|
------------------------------|


  S S S E  E  S S S S E  E  S  
------------------------------|
------------------------------|
------------------------------|
--------3--3----------3--3----|
--1-1-1-1--1--1-1-1-1-1--1--1-|
------------------------------|


  S S S E  E  S S S S E  E  S  
------------------------------|
------------------------------|
------------------------------|
--------8--8----------8--8----|
--6-6-6-6--6--6-6-6-6-6--6--6-|
------------------------------|


  S S S E  E  S S S S E  E  S  
------------------------------|
------------------------------|
------------------------------|
--------3--3----------3--3----|
--1-1-1-1--1--1-1-1-1-1--1--1-|
------------------------------|


  S S S E  E  S S S S E  E  S  
------------------------------|
------------------------------|
------------------------------|
--------4--4----------4--4----|
--2-2-2-2--2--2-2-2-2-2--2--2-|
------------------------------|


  S S S E  E  S S S S E  E  S  
------------------------------|
------------------------------|
------------------------------|
------------------------------|
--------4--4----------4--4----|
--2-2-2-2--2--2-2-2-2-2--2--2-|


  S S S E  E  S S S S E  E  S  
------------------------------|
------------------------------|
------------------------------|
--------4--4----------4--4----|
--2-2-2-2--2--2-2-2-2-2--2--2-|
------------------------------|


  S S S S S S S S S S S S S S S S  
----------------------------------|
----------------------------------|
----------------------------------|
----------------------------------|
--4-4-4-4-4-4-4-4-5-5-5-5-5-5-5-5-|
----------------------------------|


  S S S S S S S S S S S S S S S S  
----------------------------------|
----------------------------------|
----------------------------------|
----------------------------------|
--6-6-6-6-6-6-6-6-6-6-6-6-6-6-6-6-|
----------------------------------|


  S S S S S S S S S S S S S S S S  
----------------------------------|
----------------------------------|
----------------------------------|
----------------------------------|
--1-1-1-1-1-1-1-1-1-1-------------|
----------------------4-4-2-2-1-1-|


  S S S S S S S S S S S S S S S S  
----------------------------------|
----------------------------------|
----------------------------------|
----------------------------------|
--6-6-6-6-6-6-6-6-6-6-6-6-6-6-6-6-|
----------------------------------|


  S S S S S S S S S S S S S S S S  
----------------------------------|
----------------------------------|
----------------------------------|
----------------------------------|
--1-1-1-1-1-1-1-1-1-1-------------|
----------------------4-4-2-2-1-1-|


  S S S S S S S S S S S S S S S S  
----------------------------------|
----------------------------------|
----------------------------------|
----------------------------------|
--2-2-2-2-2-2-2-2-2-2-2-2-2-2-2-2-|
----------------------------------|


  S S S S S S S S S S S S S S S S  
----------------------------------|
----------------------------------|
----------------------------------|
----------------------------------|
----------------------------------|
--2-2-2-2-2-2-2-2-2-2-2-2-2-2-2-2-|


  S S S S S S S S S S S S S S S S    H        H         
----------------------------------|--------------------|
----------------------------------|--------------------|
----------------------------------|--------------------|
----------------------------------|--6--------7--------|
--2-2-2-2-2-2-2-2-2-2-2-2-2-2-2-2-|--4--------5--------|
----------------------------------|--------------------|


  S S S S S S S S S S S S S S S S  
----------------------------------|
----------------------------------|
----------------------------------|
----------------------------------|
--6-6-6-6-6-6-6-6-6-6-6-6-6-6-6-6-|
----------------------------------|


  S S S S S S S S S S S S S S S S  
----------------------------------|
----------------------------------|
----------------------------------|
----------------------------------|
--1-1-1-1-1-1-1-1-1-1-1-1-1-1-1-1-|
----------------------------------|


  S S S S S S S S S S S S S S S S  
----------------------------------|
----------------------------------|
----------------------------------|
----------------------------------|
--6-6-6-6-6-6-6-6-6-6-6-6-6-6-6-6-|
----------------------------------|


  S S S S S S S S S S S S S S S S  
----------------------------------|
----------------------------------|
----------------------------------|
----------------------------------|
--1-1-1-1-1-1-1-1-1-1-1-1-1-1-1-1-|
----------------------------------|


  S S S S S S S S S S S S S S S S S S S S S S S S S S S 
--------------------------------------------------------
--------------------------------------------------------
--------------------------------------------------------
--------------------------------------------------------
--2-2-2-2-2-2-2-2-2-2-2-2-2-2-2-2-----------------------
----------------------------------2-2-2-2-2-2-2-2-2-2-2-


  H        H           S S S S S S S S S S S S S S S S  
--------------------|----------------------------------|
--------------------|----------------------------------|
--------------------|----------------------------------|
--6--------7--------|----------------------------------|
--4--------5--------|--6-6-6-6-6-6-6-6-6-6-6-6-6-6-6-6-|
--------------------|----------------------------------|


  S S S S S S S S S S S S S S S S  
----------------------------------|
----------------------------------|
----------------------------------|
----------------------------------|
--1-1-1-1-1-1-1-1-1-1-------------|
----------------------4-4-2-2-1-1-|


  S S S S S S S S S S S S S S S S  
----------------------------------|
----------------------------------|
----------------------------------|
----------------------------------|
--6-6-6-6-6-6-6-6-6-6-6-6-6-6-6-6-|
----------------------------------|


  S S S S S S S S S S S S S S S S  
----------------------------------|
----------------------------------|
----------------------------------|
----------------------------------|
--1-1-1-1-1-1-1-1-1-1-----1-1-4-4-|
----------------------4-4---------|


  S S S S S S S S S S S S S S S S  
----------------------------------|
----------------------------------|
----------------------------------|
----------------------------------|
--2-2-2-2-2-2-2-2-2-2-2-2-2-2-2-2-|
----------------------------------|


  S S S S S S S S S S S S S S S S  
----------------------------------|
----------------------------------|
----------------------------------|
----------------------------------|
----------------------------------|
--2-2-2-2-2-2-2-2-2-2-2-2-2-2-2-2-|


  S S S S S S S S S S S S S S S S    H        H         
----------------------------------|--------------------|
----------------------------------|--------------------|
----------------------------------|--------------------|
----------------------------------|--6--------7--------|
--2-2-2-2-2-2-2-2-2-2-2-2-2-2-2-2-|--4--------5--------|
----------------------------------|--------------------|


  S S S S S S S S S S S S S S S S  
----------------------------------|
----------------------------------|
----------------------------------|
----------------------------------|
--6-6-6-6-6-6-6-6-6-6-6-6-6-6-6-6-|
----------------------------------|


  S S S S S S S S S S S S S S S S  
----------------------------------|
----------------------------------|
----------------------------------|
----------------------------------|
--1-1-1-1-1-1-1-1-1-1-------------|
----------------------4-4-2-2-1-1-|


  S S S S S S S S S S S S S S S S  
----------------------------------|
----------------------------------|
----------------------------------|
----------------------------------|
--6-6-6-6-6-6-6-6-6-6-6-6-6-6-6-6-|
----------------------------------|


  S S S S S S S S S S S S S S S S  
----------------------------------|
----------------------------------|
----------------------------------|
----------------------------------|
--1-1-1-1-1-1-1-1-1-1-----1-1-4-4-|
----------------------4-4---------|


  S S S S S S S S S S S S S S S S  
----------------------------------|
----------------------------------|
----------------------------------|
----------------------------------|
--2-2-2-2-2-2-2-2-2-2-2-2-2-2-2-2-|
----------------------------------|


  S S S S S S S S S S S S S S S S  
----------------------------------|
----------------------------------|
----------------------------------|
----------------------------------|
----------------------------------|
--2-2-2-2-2-2-2-2-2-2-2-2-2-2-2-2-|


  S S S S S S S S S S S S S S S S  
----------------------------------|
----------------------------------|
----------------------------------|
----------------------------------|
--2-2-2-2-2-2-2-2-2-2-2-2-2-2-2-2-|
----------------------------------|


  H        Q    Q       W                 
---------------------|-------------------|
---------------------|-------------------|
---------------------|-------------------|
--6--------7---------|--8----------------|
--4--------5---------|--6----------------|
---------------------|-------------------|


  W                   W                 
-------------------|-------------------|
-------------------|-------------------|
-------------------|-------------------|
--L----------------|--3----------------|
--L----------------|--1----------------|
-------------------|-------------------|


  W                   W                 
-------------------|-------------------|
-------------------|-------------------|
-------------------|-------------------|
--L----------------|--8----------------|
--L----------------|--6----------------|
-------------------|-------------------|


  W                   W                 
-------------------|-------------------|
-------------------|-------------------|
-------------------|-------------------|
--L----------------|--3----------------|
--L----------------|--1----------------|
-------------------|-------------------|


  W                   W                 
-------------------|-------------------|
-------------------|-------------------|
-------------------|-------------------|
--L----------------|--L----------------|
--L----------------|--L----------------|
-------------------|-------------------|


  W                   W                 
-------------------|-------------------|
-------------------|-------------------|
-------------------|-------------------|
-------------------|-------------------|
-------------------|-------------------|
-------------------|-------------------|


  W                   W                 
-------------------|-------------------|
-------------------|-------------------|
-------------------|-------------------|
-------------------|-------------------|
-------------------|-------------------|
-------------------|-------------------|


  W                  
-------------------||
-------------------||
-------------------||
-------------------||
-------------------||
-------------------||



Duration Legend
---------------
W - whole
H - half
Q - quarter
E - 8th
S - 16th
T - 32nd
X - 64th
. - note dotted
|-n-|  - n-tuplets


Tablature Legend
----------------
L - tied note
x - dead note
g - grace note
(n) - ghost note
> - accentuded note
NH - natural harmonic
AH - artificial harmonic
TH - tapped harmonic
SH - semi harmonic
PH - pitch harmonic
h - hammer on
p - pull off
b - bend
br - bendRelease
pb - preBend
pbr - preBendRelease
brb - bendReleaseBend
\n/ - tremolo bar dip
\n - tremolo bar dive
-/n - tremolo bar Release up
/n\ - tremolo bar inverted dip
/n - tremolo bar return
-\n - tremolo bar Release down
S - shift slide
s - legato slide
/ -  slide into from below or out of upwards
\ -  slide into from above or out of downwards
~ - vibrato
W - wide vibrato
tr - trill
TP - tremolo picking
T - tapping
S - slap
P - pop
< - fade in
^ - brush up
v - brush down
comments
We did not receive enough feedback on this tab! Please rate:
print report bad tab
1 2 3 4 5
I want to post or [tab]
guest
You may want to rate the tab now too:
select rating
Please do not post tabs as comments. Select "correction" instead!