Oops, an error
Loading. Please wait.

Pain Crawles In The Night Tab

ver1
ver1

Whole song

Interactive

More versions @911Tabs.com
274 views 1 this week
no commentswrite comment
1 2 3 4 5
excellent!
x 1
Autoscroll
+/-
esc
set tempo
stop
Contributor
Tuning
D# G# C# F# A# D#
Hey! There's an official Ultimate Guitar app which is ideal
for learning songs when you're away from computer. Get the app
WARNING: You are trying to view
                                    content from Ultimate-Guitar.com
                                    in an unauthorized application,
                                    which is prohibited.

                                    Please use an official Ultimate
                                    Guitar Tabs application for iPhone,
                                    iPad or Android to access legitimate
                                    chords, guitar, bass, and drum tabs
                                    from Ultimate-Guitar.com database.

                                    Type "ultimate guitar tabs" in Apple
                                    App Store's or Android Market's
                                    search to find the application.
Pain Crawles in the Night - Metallium

***************************************************************************

My second tab of Metallium. Hope you like it.

Here's the official site of Metalium: 

www.metalium.de/

***************************************************************************

Lead Guitar (distortion)


               E.  Q    S S S S S S S S S  
D#||-------|------------------------------|
A#||-------|------------------------------|
F#||-------|------------------------------|
C#||-------|--10---9----------------------|
G#||-------|---7---7----7-5-5-7-5-5-7-5-5-|
D#||-------|------------------------------|


   E.  Q    S E.  Q    S  
-------------------------|
-------------------------|
-------------------------|
--10---9----L-5---7----L-|
---7---7----L-3---5----L-|
-------------------------|


   E.  Q    S S S S S S S S S  
------------------------------|
------------------------------|
------------------------------|
--10---9----------------------|
---7---7----7-5-5-7-5-5-7-5-5-|
------------------------------|


  E.  Q    S   E.    Q    S  
----------------------------|
----------------------------|
----------------------------|
--7---5----L----------------|
--5---3----L----------------|
-------------<>3---<>4----L-|


   E.  Q    S S S S S S S S S  
------------------------------|
------------------------------|
------------------------------|
--10---9----------------------|
---7---7----7-5-5-7-5-5-7-5-5-|
------------------------------|


   E.  Q    S E.  Q    S  
-------------------------|
-------------------------|
-------------------------|
--10---9----L-5---7----L-|
---7---7----L-3---5----L-|
-------------------------|


   E.  Q    S S S S S S S S S  
------------------------------|
------------------------------|
------------------------------|
--10---9----------------------|
---7---7----7-5-5-7-5-5-7-5-5-|
------------------------------|


  E.  Q    S   E.    Q    S  
----------------------------|
----------------------------|
----------------------------|
--7---5----L----------------|
--5---3----L----------------|
-------------<>3---<>4----L-|


  E  S S S S S S S S S S S S S S  
---------------------------------|
---------------------------------|
---------------------------------|
--9------------------------------|
--7------------------------------|
-----0-0-0-0-0-0-0-0-0-0-0-0-0-0-|


  S S S S S S S S S S E  E  E   
-------------------------------|
-------------------------------|
-------------------------------|
----------------------7-----7--|
----------------------5-----5--|
--0-0-0-0-0-0-0-0-0-0----------|


  E  S S S S S S S S S S S S S S  
---------------------------------|
---------------------------------|
---------------------------------|
--9------------------------------|
--7------------------------------|
-----0-0-0-0-0-0-0-0-0-0-0-0-0-0-|


  S S S S S S S S S S E  E  E   
-------------------------------|
-------------------------------|
-------------------------------|
----------------------7-----7--|
----------------------5-----5--|
--0-0-0-0-0-0-0-0-0-0----------|


  E  S S S S S S S S S S S S S S  
---------------------------------|
---------------------------------|
---------------------------------|
--9------------------------------|
--7------------------------------|
-----0-0-0-0-0-0-0-0-0-0-0-0-0-0-|


  S S S S S S S S S S E  E  E     W                 
-------------------------------|-------------------|
-------------------------------|-------------------|
-------------------------------|-------------------|
----------------------7-----7--|--5----------------|
----------------------5-----5--|--3----------------|
--0-0-0-0-0-0-0-0-0-0----------|-------------------|


                  NH    
  H        Q      Q     
-----------------------|
-----------------------|
----------------<>7----|
--7--------L-----------|
--5--------L-----------|
-----------------------|


  E  S S S S S S S S S S S S S S  
---------------------------------|
---------------------------------|
---------------------------------|
--9------------------------------|
--7------------------------------|
-----0-0-0-0-0-0-0-0-0-0-0-0-0-0-|


  S S S S S S S S S S E  E  E   
-------------------------------|
-------------------------------|
-------------------------------|
----------------------7-----7--|
----------------------5-----5--|
--0-0-0-0-0-0-0-0-0-0----------|


  E  S S S S S S S S S S S S S S  
---------------------------------|
---------------------------------|
---------------------------------|
--9------------------------------|
--7------------------------------|
-----0-0-0-0-0-0-0-0-0-0-0-0-0-0-|


  S S S S S S S S S S E  E  E   
-------------------------------|
-------------------------------|
-------------------------------|
----------------------7-----7--|
----------------------5-----5--|
--0-0-0-0-0-0-0-0-0-0----------|


  E  S S S S S S S S S S S S S S  
---------------------------------|
---------------------------------|
---------------------------------|
--9------------------------------|
--7------------------------------|
-----0-0-0-0-0-0-0-0-0-0-0-0-0-0-|


  S S S S S S S S S S E  E  E     W                 
-------------------------------|-------------------|
-------------------------------|-------------------|
-------------------------------|-------------------|
----------------------7-----7--|--5----------------|
----------------------5-----5--|--3----------------|
--0-0-0-0-0-0-0-0-0-0----------|-------------------|


                  NH                        
  H        Q      Q       W                 
-----------------------|-------------------|
-----------------------|-------------------|
----------------<>7----|--3----------------|
--7--------L-----------|--3----------------|
--5--------L-----------|--1----------------|
-----------------------|-------------------|


  Q    Q    Q    Q     
----------------------|
----------------------|
----------------------|
--3----2--------------|
--1----0----5----4----|
------------3----2----|


  E  S S S S S S S S S S S S S S  
---------------------------------|
---------------------------------|
---------------------------------|
---------------------------------|
--2------------------------------|
--0--0-0-0-0-0-0-0-0-0-0-0-0-0-0-|


  S S S S S S S S S S S S S S S S    W                 
----------------------------------|-------------------|
----------------------------------|-------------------|
----------------------------------|--3----------------|
----------------------------------|--3----------------|
----------------------------------|--1----------------|
--0-0-0-0-0-0-0-0-0-0-0-0-0-0-0-0-|-------------------|


  W                   W                 
-------------------|-------------------|
-------------------|-------------------|
--L----------------|--2----------------|
--L----------------|--2----------------|
--L----------------|--0----------------|
-------------------|-------------------|


  H        H           W                 
--------------------|-------------------|
--------------------|-------------------|
--5-----------------|-------------------|
--5-----------------|-------------------|
--3--------4--------|--2----------------|
--------------------|--0----------------|


  W                   W                 
-------------------|-------------------|
-------------------|-------------------|
-------------------|-------------------|
-------------------|--5----------------|
--L----------------|--3----------------|
--L----------------|-------------------|


  W                   W                 
-------------------|-------------------|
-------------------|-------------------|
-------------------|-------------------|
--L----------------|--2----------------|
--L----------------|--0----------------|
-------------------|-------------------|


  W                   W                 
-------------------|-------------------|
-------------------|-------------------|
-------------------|-------------------|
--L----------------|-------------------|
--L----------------|--3----------------|
-------------------|--1----------------|


  E.  E.  E.  Q    E.     W                 
-----------------------|-------------------|
-----------------------|-------------------|
-----------------------|-------------------|
-----------------------|-------------------|
--------------7----5---|--2----------------|
--1---3---1------------|--0----------------|


  W                   W                 
-------------------|-------------------|
-------------------|-------------------|
-------------------|-------------------|
-------------------|--5----------------|
--L----------------|--3----------------|
--L----------------|-------------------|


  W                   W                 
-------------------|-------------------|
-------------------|-------------------|
-------------------|-------------------|
--L----------------|--2----------------|
--L----------------|--0----------------|
-------------------|-------------------|


  W                   W                 
-------------------|-------------------|
-------------------|-------------------|
-------------------|-------------------|
--L----------------|-------------------|
--L----------------|--3----------------|
-------------------|--1----------------|


  W                    E.  Q    S S S S S S S S S  
-------------------|------------------------------|
-------------------|------------------------------|
-------------------|------------------------------|
-------------------|--10---9----------------------|
--L----------------|---7---7----7-5-5-7-5-5-7-5-5-|
--L----------------|------------------------------|


   E.  Q    S E.  Q    S  
-------------------------|
-------------------------|
-------------------------|
--10---9----L-5---7----L-|
---7---7----L-3---5----L-|
-------------------------|


   E.  Q    S S S S S S S S S  
------------------------------|
------------------------------|
------------------------------|
--10---9----------------------|
---7---7----7-5-5-7-5-5-7-5-5-|
------------------------------|


  E.  Q    S   E.    Q    S  
----------------------------|
----------------------------|
----------------------------|
--7---5----L----------------|
--5---3----L----------------|
-------------<>3---<>4----L-|


   E.  Q    S S S S S S S S S  
------------------------------|
------------------------------|
------------------------------|
--10---9----------------------|
---7---7----7-5-5-7-5-5-7-5-5-|
------------------------------|


   E.  Q    S E.  Q    S  
-------------------------|
-------------------------|
-------------------------|
--10---9----L-5---7----L-|
---7---7----L-3---5----L-|
-------------------------|


   E.  Q    S S S S S S S S S  
------------------------------|
------------------------------|
------------------------------|
--10---9----------------------|
---7---7----7-5-5-7-5-5-7-5-5-|
------------------------------|


  E.  Q    S   E.    Q    S  
----------------------------|
----------------------------|
----------------------------|
--7---5----L----------------|
--5---3----L----------------|
-------------<>3---<>4----L-|


  E  S S S S S S S S S S S S S S  
---------------------------------|
---------------------------------|
---------------------------------|
--9------------------------------|
--7------------------------------|
-----0-0-0-0-0-0-0-0-0-0-0-0-0-0-|


  S S S S S S S S S S E  E  E   
-------------------------------|
-------------------------------|
-------------------------------|
----------------------7-----7--|
----------------------5-----5--|
--0-0-0-0-0-0-0-0-0-0----------|


  E  S S S S S S S S S S S S S S  
---------------------------------|
---------------------------------|
---------------------------------|
--9------------------------------|
--7------------------------------|
-----0-0-0-0-0-0-0-0-0-0-0-0-0-0-|


  S S S S S S S S S S E  E  E   
-------------------------------|
-------------------------------|
-------------------------------|
----------------------7-----7--|
----------------------5-----5--|
--0-0-0-0-0-0-0-0-0-0----------|


  E  S S S S S S S S S S S S S S  
---------------------------------|
---------------------------------|
---------------------------------|
--9------------------------------|
--7------------------------------|
-----0-0-0-0-0-0-0-0-0-0-0-0-0-0-|


  S S S S S S S S S S E  E  E     W                 
-------------------------------|-------------------|
-------------------------------|-------------------|
-------------------------------|-------------------|
----------------------7-----7--|--5----------------|
----------------------5-----5--|--3----------------|
--0-0-0-0-0-0-0-0-0-0----------|-------------------|


                  NH    
  H        Q      Q     
-----------------------|
-----------------------|
----------------<>7----|
--7--------L-----------|
--5--------L-----------|
-----------------------|


  E  S S S S S S S S S S S S S S  
---------------------------------|
---------------------------------|
---------------------------------|
--9------------------------------|
--7------------------------------|
-----0-0-0-0-0-0-0-0-0-0-0-0-0-0-|


  S S S S S S S S S S E  E  E   
-------------------------------|
-------------------------------|
-------------------------------|
----------------------7-----7--|
----------------------5-----5--|
--0-0-0-0-0-0-0-0-0-0----------|


  E  S S S S S S S S S S S S S S  
---------------------------------|
---------------------------------|
---------------------------------|
--9------------------------------|
--7------------------------------|
-----0-0-0-0-0-0-0-0-0-0-0-0-0-0-|


  S S S S S S S S S S E  E  E   
-------------------------------|
-------------------------------|
-------------------------------|
----------------------7-----7--|
----------------------5-----5--|
--0-0-0-0-0-0-0-0-0-0----------|


  E  S S S S S S S S S S S S S S  
---------------------------------|
---------------------------------|
---------------------------------|
--9------------------------------|
--7------------------------------|
-----0-0-0-0-0-0-0-0-0-0-0-0-0-0-|


  S S S S S S S S S S E  E  E     W                 
-------------------------------|-------------------|
-------------------------------|-------------------|
-------------------------------|-------------------|
----------------------7-----7--|--5----------------|
----------------------5-----5--|--3----------------|
--0-0-0-0-0-0-0-0-0-0----------|-------------------|


                  NH                        
  H        Q      Q       W                 
-----------------------|-------------------|
-----------------------|-------------------|
----------------<>7----|--3----------------|
--7--------L-----------|--3----------------|
--5--------L-----------|--1----------------|
-----------------------|-------------------|


  W                   E  S S S S S S S S S S S S S S  
-------------------|---------------------------------|
-------------------|---------------------------------|
--L----------------|---------------------------------|
--L----------------|---------------------------------|
--L----------------|--2------------------------------|
-------------------|--0--0-0-0-0-0-0-0-0-0-0-0-0-0-0-|


  S S S S S S S S S S S S S S S S    W                 
----------------------------------|-------------------|
----------------------------------|-------------------|
----------------------------------|--3----------------|
----------------------------------|--3----------------|
----------------------------------|--1----------------|
--0-0-0-0-0-0-0-0-0-0-0-0-0-0-0-0-|-------------------|


  W                   W                 
-------------------|-------------------|
-------------------|-------------------|
--L----------------|--2----------------|
--L----------------|--2----------------|
--L----------------|--0----------------|
-------------------|-------------------|


  H        H           W                 
--------------------|-------------------|
--------------------|-------------------|
--5-----------------|-------------------|
--5-----------------|-------------------|
--3--------4--------|--2----------------|
--------------------|--0----------------|


  W                   W                 
-------------------|-------------------|
-------------------|-------------------|
-------------------|-------------------|
-------------------|--5----------------|
--L----------------|--3----------------|
--L----------------|-------------------|


  W                   W                 
-------------------|-------------------|
-------------------|-------------------|
-------------------|-------------------|
--L----------------|--2----------------|
--L----------------|--0----------------|
-------------------|-------------------|


  W                   W                 
-------------------|-------------------|
-------------------|-------------------|
-------------------|-------------------|
--L----------------|-------------------|
--L----------------|--3----------------|
-------------------|--1----------------|


  E.  E.  E.  Q    E.     W                 
-----------------------|-------------------|
-----------------------|-------------------|
-----------------------|-------------------|
-----------------------|-------------------|
-------------------5---|--2----------------|
--1---3---1---0--------|--0----------------|


  W                   W                 
-------------------|-------------------|
-------------------|-------------------|
-------------------|-------------------|
-------------------|--5----------------|
--L----------------|--3----------------|
--L----------------|-------------------|


  W                   W                 
-------------------|-------------------|
-------------------|-------------------|
-------------------|-------------------|
--L----------------|--2----------------|
--L----------------|--0----------------|
-------------------|-------------------|


  W                   W                 
-------------------|-------------------|
-------------------|-------------------|
-------------------|-------------------|
--L----------------|-------------------|
--L----------------|--3----------------|
-------------------|--1----------------|


  W                  
-------------------||
-------------------||
-------------------||
-------------------||
--L----------------||
--L----------------||




Duration Legend
---------------
W - whole
H - half
Q - quarter
E - 8th
S - 16th
T - 32nd
X - 64th
. - note dotted
|-n-|  - n-tuplets


Tablature Legend
----------------
L - tied note
x - dead note
g - grace note
(n) - ghost note
> - accentuded note
NH - natural harmonic
AH - artificial harmonic
TH - tapped harmonic
SH - semi harmonic
PH - pitch harmonic
h - hammer on
p - pull off
b - bend
br - bendRelease
pb - preBend
pbr - preBendRelease
brb - bendReleaseBend
\n/ - tremolo bar dip
\n - tremolo bar dive
-/n - tremolo bar Release up
/n\ - tremolo bar inverted dip
/n - tremolo bar return
-\n - tremolo bar Release down
S - shift slide
s - legato slide
/ -  slide into from below or out of upwards
\ -  slide into from above or out of downwards
~ - vibrato
W - wide vibrato
tr - trill
TP - tremolo picking
T - tapping
S - slap
P - pop
< - fade in
^ - brush up
v - brush down
comments
We did not receive enough feedback on this tab! Please rate:
print report bad tab
1 2 3 4 5
I want to post or [tab]
guest
You may want to rate the tab now too:
select rating
Please do not post tabs as comments. Select "correction" instead!