Oops, an error
Loading. Please wait.

Smoke On The Water Tab

13,019 views 6 this week
no commentswrite comment
1 2 3 4 5
excellent!
x 2
Autoscroll
+/-
esc
set tempo
stop
Contributor
Hey! There's an official Ultimate Guitar app which is ideal
for learning songs when you're away from computer. Get the app
WARNING: You are trying to view
                                    content from Ultimate-Guitar.com
                                    in an unauthorized application,
                                    which is prohibited.

                                    Please use an official Ultimate
                                    Guitar Tabs application for iPhone,
                                    iPad or Android to access legitimate
                                    chords, guitar, bass, and drum tabs
                                    from Ultimate-Guitar.com database.

                                    Type "ultimate guitar tabs" in Apple
                                    App Store's or Android Market's
                                    search to find the application.
Smoke on the Water - Metalium

**************************************************************************

The duration and tablature legends are at the end. I tabbed the lead and rhythm guitar. 
know it's a bit annoying that I didn't tab them combined somehow, but I think this is 
for the best.
Not many people know this band (UG-system didn't know it either), but they did a cover 
Smoke On The Water (Deep Purple: everybody knows this song), and this version rocks 
Youtube). Hope you like it.

Here's the official site of Metallium (I have to put it here for UG):

www.metalium.de/

**************************************************************************

Lead Guitar


E||-------|-------|-------|-------|-------|-------|
B||-------|-------|-------|-------|-------|-------|
G||-------|-------|-------|-------|-------|-------|
D||-------|-------|-------|-------|-------|-------|
A||-------|-------|-------|-------|-------|-------|
E||-------|-------|-------|-------|-------|-------|


  H.            E.   S    E  E  E  E  Q.     E
-----------------------|------------------------|
-----------------------|------------------------|
-----------------------|--------3-----5---------|
-----------------------|--5-----3-----5------5--|
---------------12s---3-|--5-----1-----3------5--|
---------------12s---3-|--3------------------3--|


  E  E  E  E  H           E  E  E  E  Q.     E
-----------------------|------------------------|
-----------------------|------------------------|
-----3-----6--5--------|--------3-----5------3--|
-----3-----6--5--------|--5-----3-----5------3--|
-----1-----4--3--------|--5-----1-----3------1--|
-----------------------|--3---------------------|


  E  H.            E       E  E  E  E  Q.     E
------------------------|------------------------|
------------------------|------------------------|
--L---------------------|--------3-----5---------|
--L--5------------(5)\--|--5-----3-----5------5--|
--L--5------------(5)\--|--5-----1-----3------5--|
-----3------------(3)\--|--3------------------3--|


  E  E  E  E  H           E  E  E  E  Q.     E
-----------------------|------------------------|
-----------------------|------------------------|
-----3-----6--5--------|--------3-----5------3--|
-----3-----6--5--------|--5-----3-----5------3--|
-----1-----4--3--------|--5-----1-----3------1--|
-----------------------|--3---------------------|


  E  H.            E       S S S S S S E  H
------------------------|--------------------------|
------------------------|--------------------------|
--L---------------------|--------------------------|
--L--5------------(5)\--|----------5---------------|
--L--5------------(5)\--|--------------------------|
-----3------------(3)\--|--3-3-3-3-----------------|


  S S S S S S E  H
--------------------------|
--------------------------|
--------------------------|
----------5---------------|
--------------------------|
--3-3-3-3-----------------|


  S S S S S S S S S S S S S E.
--------------------------------|
--------------------------------|
--------------------------------|
----------5---------------3-----|
--------------------------------|
--3-3-3-3-----1-1-1-1-1-1-------|


              <
  S S S S S S Q    E  Q       S S S S S S E  H
---------------------------|--------------------------|
---------------------------|--------------------------|
--------------5----L-------|--------------------------|
----------5---5----L-------|----------5---------------|
-------------------L-------|--------------------------|
--3-3-3-3------------------|--3-3-3-3-----------------|


  S S S S S S E  H
--------------------------|
--------------------------|
--------------------------|
----------5---------------|
--------------------------|
--3-3-3-3-----------------|


  S S S S S S S S S S S S S E.
--------------------------------|
--------------------------------|
--------------------------------|
----------5---------------3-----|
--------------------------------|
--3-3-3-3-----1-1-1-1-1-1-------|


              <
  S S S S S S Q    E  Q
---------------------------|
---------------------------|
--------------5----L-------|
----------5---5----L-------|
---------------------------|
--3-3-3-3------------------|


  S S S S S S E  S S S S S S E
--------------------------------|
--------------------------------|
--------------------------------|
----------5--------------5------|
--------------------------------|
--3-3-3-3--------3-3-3-3--------|


  S S S S S S E  H
--------------------------|
--------------------------|
--------------------------|
----------5---------------|
--------------------------|
--3-3-3-3-----------------|


  S S S S S S S S S S S S S E.
--------------------------------|
--------------------------------|
--------------------------------|
----------5---------------3-----|
--------------------------------|
--3-3-3-3-----1-1-1-1-1-1-------|


              <
  S S S S S S Q    E  Q       S S S S S S E  H
---------------------------|--------------------------|
---------------------------|--------------------------|
--------------5----L-------|--------------------------|
----------5---5----L-------|----------5---------------|
---------------------------|--------------------------|
--3-3-3-3------------------|--3-3-3-3-----------------|


  S S S S S S E  H
--------------------------|
--------------------------|
--------------------------|
----------5---------------|
--------------------------|
--3-3-3-3-----------------|


  S S S S S S S S S S S S S E.
--------------------------------|
--------------------------------|
--------------------------------|
----------5---------------3-----|
--------------------------------|
--3-3-3-3-----1-1-1-1-1-1-------|


  S S S S S S S S S S S E.  E     W
-------------------------------|-------------------|
-------------------------------|-------------------|
-------------------------------|--5----------------|
----------5-----------5-5---L--|--5----------------|
----------------------3-3---L--|--3----------------|
--3-3-3-3----------------------|-------------------|


  W                   E  E   E  E   E  E  Q
-------------------|---------------------------|
-------------------|---------------------------|
-------------------|--3--5s--3--5s--3--0--3----|
--6----------------|--3--5s--3--5s--3--0--3----|
--6----------------|---------------------------|
--4----------------|---------------------------|


  W                   W
-------------------|-------------------|
-------------------|-------------------|
-------------------|--5----------------|
-------------------|--5----------------|
-------------------|--3----------------|
-------------------|-------------------|


  H.            E.   S    E  E  E  E  Q.     E
-----------------------|------------------------|
-----------------------|------------------------|
-----------------------|--------3-----5---------|
--6--------------------|--5-----3-----5------5--|
--6--------------------|--5-----1-----3------5--|
--4------------12s---3-|--3------------------3--|


  E  E  E  E  H           E  E  E  E  Q.     E
-----------------------|------------------------|
-----------------------|------------------------|
-----3-----6--5--------|--------3-----5------3--|
-----3-----6--5--------|--5-----3-----5------3--|
-----1-----4--3--------|--5-----1-----3------1--|
-----------------------|--3---------------------|


  E  H.            E       E  E  E  E  Q.     E
------------------------|------------------------|
------------------------|------------------------|
--L---------------------|--------3-----5---------|
--L--5------------(5)\--|--5-----3-----5------5--|
--L--5------------(5)\--|--5-----1-----3------5--|
-----3------------(3)\--|--3------------------3--|


  E  E  E  E  H           E  E  E  E  Q.     E
-----------------------|------------------------|
-----------------------|------------------------|
-----3-----6--5--------|--------3-----5------3--|
-----3-----6--5--------|--5-----3-----5------3--|
-----1-----4--3--------|--5-----1-----3------1--|
-----------------------|--3---------------------|


  E  H.            E       S S S S S S E  H
------------------------|--------------------------|
------------------------|--------------------------|
--L---------------------|--------------------------|
--L--5------------(5)\--|----------5---------------|
--L--5------------(5)\--|--------------------------|
-----3------------(3)\--|--3-3-3-3-----------------|


  S S S S S S E  H
--------------------------|
--------------------------|
--------------------------|
----------5---------------|
--------------------------|
--3-3-3-3-----------------|


  S S S S S S S S S S S S S E.
--------------------------------|
--------------------------------|
--------------------------------|
----------5---------------3-----|
--------------------------------|
--3-3-3-3-----1-1-1-1-1-1-------|


              <
  S S S S S S Q    E  Q       S S S S S S E  H
---------------------------|--------------------------|
---------------------------|--------------------------|
--------------5----L-------|--------------------------|
----------5---5----L-------|----------5---------------|
-------------------L-------|--------------------------|
--3-3-3-3------------------|--3-3-3-3-----------------|


  S S S S S S E  H
--------------------------|
--------------------------|
--------------------------|
----------5---------------|
--------------------------|
--3-3-3-3-----------------|


  S S S S S S S S S S S S S E.
--------------------------------|
--------------------------------|
--------------------------------|
----------5---------------3-----|
--------------------------------|
--3-3-3-3-----1-1-1-1-1-1-------|


              <
  S S S S S S Q    E  Q
---------------------------|
---------------------------|
--------------5----L-------|
----------5---5----L-------|
---------------------------|
--3-3-3-3------------------|


  S S S S S S E  S S S S S S E
--------------------------------|
--------------------------------|
--------------------------------|
----------5--------------5------|
--------------------------------|
--3-3-3-3--------3-3-3-3--------|


  S S S S S S E  H
--------------------------|
--------------------------|
--------------------------|
----------5---------------|
--------------------------|
--3-3-3-3-----------------|


  S S S S S S S S S S S S S E.
--------------------------------|
--------------------------------|
--------------------------------|
----------5---------------3-----|
--------------------------------|
--3-3-3-3-----1-1-1-1-1-1-------|


              <
  S S S S S S Q    E  Q       S S S S S S E  H
---------------------------|--------------------------|
---------------------------|--------------------------|
--------------5----L-------|--------------------------|
----------5---5----L-------|----------5---------------|
---------------------------|--------------------------|
--3-3-3-3------------------|--3-3-3-3-----------------|


  S S S S S S E  H
--------------------------|
--------------------------|
--------------------------|
----------5---------------|
--------------------------|
--3-3-3-3-----------------|


  S S S S S S S S S S S S S E.
--------------------------------|
--------------------------------|
--------------------------------|
----------5---------------3-----|
--------------------------------|
--3-3-3-3-----1-1-1-1-1-1-------|


  S S S S S S S S S S S E.    E     W
---------------------------------|-------------------|
---------------------------------|-------------------|
---------------------------------|--5----------------|
----------5-------------5br---L--|--5----------------|
---------------------------------|--3----------------|
--3-3-3-3------------------------|-------------------|


  W                   E  E   E  E   E  E  Q
-------------------|---------------------------|
-------------------|---------------------------|
-------------------|--3--5s--3--5s--3--0--3----|
--6----------------|--3--5s--3--5s--3--0--3----|
--6----------------|---------------------------|
--4----------------|---------------------------|


  W                   W
-------------------|-------------------|
-------------------|-------------------|
-------------------|--5----------------|
-------------------|--5----------------|
-------------------|--3----------------|
-------------------|-------------------|


  H.            E.   S    E  E  E  E  Q.     E
-----------------------|------------------------|
-----------------------|------------------------|
-----------------------|--------3-----5---------|
--6--------------------|--5-----3-----5------5--|
--6--------------------|--5-----1-----3------5--|
--4------------12s---3-|--3------------------3--|


  E  E  E  E  H           E  E  E  E  Q.     E
-----------------------|------------------------|
-----------------------|------------------------|
-----3-----6--5--------|--------3-----5------3--|
-----3-----6--5--------|--5-----3-----5------3--|
-----1-----4--3--------|--5-----1-----3------1--|
-----------------------|--3---------------------|


  E  H.            E       E  E  E  E  Q.     E
------------------------|------------------------|
------------------------|------------------------|
--L---------------------|--------3-----5---------|
--L--5------------(5)\--|--5-----3-----5------5--|
--L--5------------(5)\--|--5-----1-----3------5--|
-----3------------(3)\--|--3------------------3--|


  E  E  E  E  H           E  E  E  E  Q.     E
-----------------------|------------------------|
-----------------------|------------------------|
-----3-----6--5--------|--------3-----5------3--|
-----3-----6--5--------|--5-----3-----5------3--|
-----1-----4--3--------|--5-----1-----3------1--|
-----------------------|--3---------------------|


  E  H         S  S  S S  S S
------------------------------|
------------------------------|
--L-----------------10---10---|
--L--5---------L-12-----------|
--L--5---------L--------------|
-----3---------L--------------|


   H          E   E   E   E
------------------------------|
------------------------------|
--12~------------10------12b--|
-------------12------12-------|
------------------------------|
------------------------------|


   H          E   E   E  E
----------------------------|
----------------------------|
--12~------------10--12--7--|
-------------12-------------|
----------------------------|
----------------------------|


                   |--3-|  |--3-|  |--3-|  |--3-|  |--3-
   S  S S  S  S S  S  S S  S  S S  S  S S  S  S S  S  S
--------------------------------------------------------|
--------------------------------------------------------|
--12-10-7-12-10-7-12-10-7-12-10-7-12-10-7-12-10-7-12-10-|
--------------------------------------------------------|
--------------------------------------------------------|
--------------------------------------------------------|


   Q      E    E    E    E    Q
-------------------------------------|
-------------------------------------|
--15b----15b--15b--15b--15b--15br----|
-------------------------------------|
-------------------------------------|
-------------------------------------|


           |--3--|                 |--3--|
  Q     S  S  S  S  S  E    Q      S  S  S
----------------------------------------10-|
-------------------------------------12----|
--L----13-15-13-15-13-13b--13~----13-------|
-------------------------------------------|
-------------------------------------------|
-------------------------------------------|


                                    |--3-|
   E   E  E   S  S S  S  S  S S  S  S  S S
--12--10-----------------------------------|
-------------12-10-7-10-12-10-7-10-12-10-7-|
----------7--------------------------------|
-------------------------------------------|
-------------------------------------------|
-------------------------------------------|


   |--3-|  |--3-|  |--3-|  |--3-|  |--3-|  |--3-|
   S  S S  S  S S  S  S S  S  S S  S  S S  S  S S  Q
--------------------------------------------------------|
--12-10-7-12-10-7-12-10-7-12-10-7-12-10-7-12-10-7-10b---|
--------------------------------------------------------|
--------------------------------------------------------|
--------------------------------------------------------|
--------------------------------------------------------|


   |--3--|  |--3--|  |--3--|  |--3--|  |--3--|  |--3--|
   S  S  S  S  S  S  S  S  S  S  S  S  S  S  S  S  S  S
--------------------------------------------------------|
--17-15-12-17-15-12-17-15-12-17-15-12-17-15-12-17-15-12-|
--------------------------------------------------------|
--------------------------------------------------------|
--------------------------------------------------------|
--------------------------------------------------------|


   E    E    Q      E   S  S  Q
--12b--12b--12b----10--12-10-12b----|
------------------------------------|
------------------------------------|
------------------------------------|
------------------------------------|
------------------------------------|


                                |--3--|  |--3-|
   E   S  S  S  S  S  S  Q      S  S  S  S S  S
--10--12-10-12-10-12-10-12b----10-12-10-12-8-10-|
------------------------------------------------|
------------------------------------------------|
------------------------------------------------|
------------------------------------------------|
------------------------------------------------|


  |--3-| |-3-| |--3-| |-3-|  |-3-|  |-3-|
  S  S S S S S S  S S S S S  S S S  S S S Q
--8-10-7-8-7-8-7----------------------7--------|
-----------------10-9-7-9-7----7-9-10---9-7----|
----------------------------10-----------------|
-----------------------------------------------|
-----------------------------------------------|
-----------------------------------------------|


            \6/
      |-3-|
  S S S S S Q.     E  E  E
----------------------------|
--9---9-7-5-7------9--7--9--|
----------------------------|
----------------------------|
----------------------------|
----------------------------|


     |-3-|
  E  S S S E  E  E  E   E   S   S
--7--5-7-5-7--7--5--7--12---------|
---------------------------17b-15-|
----------------------------------|
----------------------------------|
----------------------------------|
----------------------------------|


   Q      E   E   E   E   E   E
-----------------15--17--19--17--|
--17b----17--19------------------|
---------------------------------|
---------------------------------|
---------------------------------|
---------------------------------|


   E   E   Q      E    E   E    E
--15-------------------------------|
------17--17b----17b--17--17b--17--|
-----------------------------------|
-----------------------------------|
-----------------------------------|
-----------------------------------|


   Q      Q        E   E   Q
---------------------------------|
--17b----17pbr----15--17--17b----|
---------------------------------|
---------------------------------|
---------------------------------|
---------------------------------|


   E    E   E   E   E  Q.
---------------------------------|---------|---------|
---------------------------------|---------|---------|
--10s--12--15--12--10--8pbr------|---------|---------|
---------------------------------|---------|---------|
---------------------------------|---------|---------|
---------------------------------|---------|---------|


---------|---------|---------|---------|---------|
---------|---------|---------|---------|---------|
---------|---------|---------|---------|---------|
---------|---------|---------|---------|---------|
---------|---------|---------|---------|---------|
---------|---------|---------|---------|---------|


            S S S S S S S S S S S S S S S S
---------|----------------------------------|
---------|----------------------------------|
---------|----------------------------------|
---------|----------5---------------5-------|
---------|----------------------------------|
---------|--3-3-3-3-----3-3-3-3-3-3-----3-3-|


  S S S S S S S S S S S S S S S S
----------------------------------|
----------------------------------|
----------------------------------|
----------5---------------5-------|
----------------------------------|
--3-3-3-3-----3-3-3-3-3-3-----3-3-|


  S S S S S S S S S S S S S E.
--------------------------------|
--------------------------------|
--------------------------------|
----------5---------------3-----|
--------------------------------|
--3-3-3-3-----1-1-1-1-1-1-------|


              <
  S S S S S S Q    E  Q
---------------------------|
---------------------------|
--------------5----L-------|
----------5---5----L-------|
-------------------L-------|
--3-3-3-3------------------|


  S S S S S S S S S S S S S S S S
----------------------------------|
----------------------------------|
----------------------------------|
----------5---------------5-------|
----------------------------------|
--3-3-3-3-----3-3-3-3-3-3-----3-3-|


  S S S S S S S S S S S S S S S S
----------------------------------|
----------------------------------|
----------------------------------|
----------5---------------5-------|
----------------------------------|
--3-3-3-3-----3-3-3-3-3-3-----3-3-|


  S S S S S S S S S S S S S E.
--------------------------------|
--------------------------------|
--------------------------------|
----------5---------------3-----|
--------------------------------|
--3-3-3-3-----1-1-1-1-1-1-------|


              <
  S S S S S S Q    E  Q
---------------------------|
---------------------------|
--------------5----L-------|
----------5---5----L-------|
---------------------------|
--3-3-3-3------------------|


  S S S S S S S S S S S S S S S S
----------------------------------|
----------------------------------|
----------------------------------|
----------5---------------5-------|
----------------------------------|
--3-3-3-3-----3-3-3-3-3-3-----3-3-|


  S S S S S S S S S S S S S S S S
----------------------------------|
----------------------------------|
----------------------------------|
----------5---------------5-------|
----------------------------------|
--3-3-3-3-----3-3-3-3-3-3-----3-3-|


  S S S S S S S S S S S S S E.
--------------------------------|
--------------------------------|
--------------------------------|
----------5---------------3-----|
--------------------------------|
--3-3-3-3-----1-1-1-1-1-1-------|


              <
  S S S S S S Q    E  Q
---------------------------|
---------------------------|
--------------5----L-------|
----------5---5----L-------|
---------------------------|
--3-3-3-3------------------|


  S S S S S S S S S S S S S S S S
----------------------------------|
----------------------------------|
----------------------------------|
----------5---------------5-------|
----------------------------------|
--3-3-3-3-----3-3-3-3-3-3-----3-3-|


  S S S S S S S S S S S S S S S S
----------------------------------|
----------------------------------|
----------------------------------|
----------5---------------5-------|
----------------------------------|
--3-3-3-3-----3-3-3-3-3-3-----3-3-|


  S S S S S S S S S S S S S E.
--------------------------------|
--------------------------------|
--------------------------------|
----------5---------------3-----|
--------------------------------|
--3-3-3-3-----1-1-1-1-1-1-------|


  S S S S S S S S S S S S Q       W
-------------------------------|-------------------|
-------------------------------|-------------------|
-------------------------------|--5----------------|
----------5---------------5----|--5----------------|
--------------------------3----|--3----------------|
--3-3-3-3-----3-3-3-3-3-3------|-------------------|


  W                   E  E   E  E   E  E  Q
-------------------|---------------------------|
-------------------|---------------------------|
-------------------|--3--5s--3--5s--3--0--3----|
--6----------------|--3--5s--3--5s--3--0--3----|
--6----------------|---------------------------|
--4----------------|---------------------------|


  W                   Q    Q    H
-------------------|----------------------|
-------------------|----------------------|
-------------------|------------5~--------|
-------------------|-------5----L---------|
-------------------|--3----L----L---------|
-------------------|----------------------|


  Q    Q    H            E  E  E  E  Q.     E
----------------------|------------------------|
----------------------|------------------------|
----------------------|--------3-----5---------|
------------6~--------|--5-----3-----5------5--|
-------6----L---------|--5-----1-----3------5--|
--4----L----L---------|--3------------------3--|


  E  E  E  E  H           E  E  E  E  Q.     E
-----------------------|------------------------|
-----------------------|------------------------|
-----3-----6--5--------|--------3-----5------3--|
-----3-----6--5--------|--5-----3-----5------3--|
-----1-----4--3--------|--5-----1-----3------1--|
-----------------------|--3---------------------|


  E  H.            E       E  E  E  E  Q.     E
------------------------|------------------------|
------------------------|------------------------|
--L---------------------|--------3-----5---------|
--L--5------------(5)\--|--5-----3-----5------5--|
--L--5------------(5)\--|--5-----1-----3------5--|
-----3------------(3)\--|--3------------------3--|


  E  E  E  E  H           E  E  E  E  Q.     E
-----------------------|------------------------|
-----------------------|------------------------|
-----3-----6--5--------|--------3-----5------3--|
-----3-----6--5--------|--5-----3-----5------3--|
-----1-----4--3--------|--5-----1-----3------1--|
-----------------------|--3---------------------|


  E  H.            E       E  E  E  E  Q.     E
------------------------|------------------------|
------------------------|------------------------|
--L---------------------|--------3-----5---------|
--L--5------------(5)\--|--5-----3-----5------5--|
--L--5------------(5)\--|--5-----1-----3------5--|
-----3------------(3)\--|--3------------------3--|


  E  E  E  E  H           E  E  E  E  Q.     E
-----------------------|------------------------|
-----------------------|------------------------|
-----3-----6--5--------|--------3-----5------3--|
-----3-----6--5--------|--5-----3-----5------3--|
-----1-----4--3--------|--5-----1-----3------1--|
-----------------------|--3---------------------|


  E  H.            E       E  E  E  E  Q.     E
------------------------|------------------------|
------------------------|------------------------|
--L---------------------|--------3-----5---------|
--L--5------------(5)\--|--5-----3-----5------5--|
--L--5------------(5)\--|--5-----1-----3------5--|
-----3------------(3)\--|--3------------------3--|


  E  E  E  E  H           E  E  E  E  Q.     E
-----------------------|------------------------|
-----------------------|------------------------|
-----3-----6--5--------|--------3-----5------3--|
-----3-----6--5--------|--5-----3-----5------3--|
-----1-----4--3--------|--5-----1-----3------1--|
-----------------------|--3---------------------|


  E  H.            E       Q    Q    H
------------------------|---------------------|
------------------------|---------------------|
--L---------------------|-------3----5--------|
--L--5------------(5)\--|--5----3----5--------|
--L--5------------(5)\--|--5----1----3--------|
-----3------------(3)\--|--3------------------|


  W                   W
-------------------|-------------------|
-------------------|-------------------|
--L----------------|--L----------------|
--L----------------|--L----------------|
--L----------------|--L----------------|
-------------------|-------------------|


  H        E  Q.         E  S E  S E  E  E  S S E
----------------------|----------------------------|
----------------------|----------------------------|
--L--------3----------|----------------------------|
--L--------3--5\------|----------------------------|
--L--------1--5\------|--5--5-5--5-5--5--5--5-5-5--|
--------------3\------|--3--3-3--3-3--3--3--3-3-3--|


  E  Q.      E  S E  S E     E  E  S S E  E  Q.
--------------------------|--------------------------||
--------------------------|--------------------------||
--3-----------------------|---------------3----------||
--3--5\-------------------|---------------3--5\------||
--1--5\------5--5-5--5-5--|--5--5--5-5-5--1--5\------||
-----3\------3--3-3--3-3--|--3--3--3-3-3-----3\------||


Rhythm Guitar

                     H.            E.   S
E||-------|-------|-----------------------|
B||-------|-------|-----------------------|
G||-------|-------|-----------------------|
D||-------|-------|-----------------------|
A||-------|-------|-----------------------|
E||-------|-------|---------------12s---3-|


  S S S S S S S S S S S S S S S S
----------------------------------|
----------------------------------|
----------------------------------|
----------------------------------|
----------------------------------|
--3-3-3-3-3-3-3-3-3-3-3-3-3-3-3-3-|


  S S S S S S S S S S S S S S S S
----------------------------------|
----------------------------------|
----------------------------------|
----------------------------------|
----------------------------------|
--3-3-3-3-3-3-3-3-3-3-3-3-3-3-3-3-|


  S S S S S S S S S S S S S S S S
----------------------------------|
----------------------------------|
----------------------------------|
----------------------------------|
----------------------------------|
--3-3-3-3-3-3-3-3-3-3-3-3-3-3-3-3-|


  S S S S S S S S S S S S S S S S
----------------------------------|
----------------------------------|
----------------------------------|
----------------------------------|
----------------------------------|
--3-3-3-3-3-3-3-3-3-3-3-3-3-3-3-3-|


  S S S S S S S S S S S S S S S S
----------------------------------|
----------------------------------|
----------------------------------|
----------------------------------|
----------------------------------|
--3-3-3-3-3-3-3-3-3-3-3-3-3-3-3-3-|


  S S S S S S S S S S S S S S S S
----------------------------------|
----------------------------------|
----------------------------------|
----------------------------------|
----------------------------------|
--3-3-3-3-3-3-3-3-3-3-3-3-3-3-3-3-|


  S S S S S S S S S S S S S S S S
----------------------------------|
----------------------------------|
----------------------------------|
----------------------------------|
----------------------------------|
--3-3-3-3-3-3-3-3-3-3-3-3-3-3-3-3-|


  S S S S S S S S S S S S S S S S
----------------------------------|
----------------------------------|
----------------------------------|
----------------------------------|
----------------------------------|
--3-3-3-3-3-3-3-3-3-3-3-3-3-3-3-3-|


  S S S S S S S S S S S S S S S S
----------------------------------|
----------------------------------|
----------------------------------|
----------------------------------|
----------------------------------|
--3-3-3-3-3-3-3-3-3-3-3-3-3-3-3-3-|


  S S S S S S S S S S S S S S S S
----------------------------------|
----------------------------------|
----------------------------------|
----------------------------------|
----------------------------------|
--3-3-3-3-3-3-3-3-3-3-3-3-3-3-3-3-|


  S S S S S S S S S S S S S S S S
----------------------------------|
----------------------------------|
----------------------------------|
----------------------------------|
----------------------------------|
--3-3-3-3-3-3-3-3-3-3-3-3-3-3-3-3-|


  S S S S S S S S S S S S S S S S
----------------------------------|
----------------------------------|
----------------------------------|
----------------------------------|
----------------------------------|
--3-3-3-3-3-3-3-3-3-3-3-3-3-3-3-3-|


  S S S S S S E  H           S S S S S S E  H
--------------------------|--------------------------|
--------------------------|--------------------------|
--------------------------|--------------------------|
----------5---------------|----------5---------------|
--------------------------|--------------------------|
--3-3-3-3-----------------|--3-3-3-3-----------------|


  S S S S S S S S S S S S S E.
--------------------------------|
--------------------------------|
--------------------------------|
----------5---------------3-----|
--------------------------------|
--3-3-3-3-----1-1-1-1-1-1-------|


                   <
  S S S S S S Q    Q.        S S S S S S E  H
--------------------------|--------------------------|
--------------------------|--------------------------|
-------------------5------|--------------------------|
----------5--------5------|----------5---------------|
--------------------------|--------------------------|
--3-3-3-3-----------------|--3-3-3-3-----------------|


  S S S S S S E  H
--------------------------|
--------------------------|
--------------------------|
----------5---------------|
--------------------------|
--3-3-3-3-----------------|


  S S S S S S S S S S S S S E.
--------------------------------|
--------------------------------|
--------------------------------|
----------5---------------3-----|
--------------------------------|
--3-3-3-3-----1-1-1-1-1-1-------|


                   <
  S S S S S S Q    Q.
--------------------------|
--------------------------|
-------------------5------|
----------5--------5------|
--------------------------|
--3-3-3-3-----------------|


  S S S S S S E  S S S S S S E
--------------------------------|
--------------------------------|
--------------------------------|
----------5--------------5------|
--------------------------------|
--3-3-3-3--------3-3-3-3--------|


  S S S S S S E  H
--------------------------|
--------------------------|
--------------------------|
----------5---------------|
--------------------------|
--3-3-3-3-----------------|


  S S S S S S S S S S S S S E.
--------------------------------|
--------------------------------|
--------------------------------|
----------5---------------3-----|
--------------------------------|
--3-3-3-3-----1-1-1-1-1-1-------|


                   <
  S S S S S S Q    Q.        S S S S S S E  H
--------------------------|--------------------------|
--------------------------|--------------------------|
-------------------5------|--------------------------|
----------5--------5------|----------5---------------|
--------------------------|--------------------------|
--3-3-3-3-----------------|--3-3-3-3-----------------|


  S S S S S S E  H
--------------------------|
--------------------------|
--------------------------|
----------5---------------|
--------------------------|
--3-3-3-3-----------------|


  S S S S S S S S S S S S S E.
--------------------------------|
--------------------------------|
--------------------------------|
----------5---------------3-----|
--------------------------------|
--3-3-3-3-----1-1-1-1-1-1-------|


  S S S S S S S S S S S E.  E     Q    Q    H
-------------------------------|---------------------|
-------------------------------|---------------------|
----------------------5-5---L--|------------5--------|
----------5-----------5-5---L--|-------5----L--------|
----------------------3-3---L--|--3----L----L--------|
--3-3-3-3----------------------|---------------------|


  Q    Q    H           W
---------------------|-------------------|
---------------------|-------------------|
---------------------|-------------------|
------------6--------|-------------------|
-------6----L--------|-------------------|
--4----L----L--------|-------------------|


  E  E   E  E   E  E  Q       Q    Q    H
---------------------------|---------------------|
---------------------------|---------------------|
--3--5s--3--5s--3--0--L----|------------5--------|
--3--5s--3--5s--3--0--L----|-------5----L--------|
---------------------------|--3----L----L--------|
---------------------------|---------------------|


  Q    Q    Q     E.   S
-------------------------|
-------------------------|
-------------------------|
------------6------------|
-------6----L----12s---3-|
--4----L----L----12s---3-|


  S S S S S S S S S S S S S S S S
----------------------------------|
----------------------------------|
----------------------------------|
----------------------------------|
----------------------------------|
--3-3-3-3-3-3-3-3-3-3-3-3-3-3-3-3-|


  S S S S S S S S S S S S S S S S
----------------------------------|
----------------------------------|
----------------------------------|
----------------------------------|
----------------------------------|
--3-3-3-3-3-3-3-3-3-3-3-3-3-3-3-3-|


  S S S S S S S S S S S S S S S S
----------------------------------|
----------------------------------|
----------------------------------|
----------------------------------|
----------------------------------|
--3-3-3-3-3-3-3-3-3-3-3-3-3-3-3-3-|


  S S S S S S S S S S S S S S S S
----------------------------------|
----------------------------------|
----------------------------------|
----------------------------------|
----------------------------------|
--3-3-3-3-3-3-3-3-3-3-3-3-3-3-3-3-|


  S S S S S S S S S S S S S S S S
----------------------------------|
----------------------------------|
----------------------------------|
----------------------------------|
----------------------------------|
--3-3-3-3-3-3-3-3-3-3-3-3-3-3-3-3-|


  S S S S S S S S S S S S S S S S
----------------------------------|
----------------------------------|
----------------------------------|
----------------------------------|
----------------------------------|
--3-3-3-3-3-3-3-3-3-3-3-3-3-3-3-3-|


  S S S S S S S S S S S S S S S S
----------------------------------|
----------------------------------|
----------------------------------|
----------------------------------|
----------------------------------|
--3-3-3-3-3-3-3-3-3-3-3-3-3-3-3-3-|


  S S S S S S S S S S S S S S S S
----------------------------------|
----------------------------------|
----------------------------------|
----------------------------------|
----------------------------------|
--3-3-3-3-3-3-3-3-3-3-3-3-3-3-3-3-|


  S S S S S S E  H           S S S S S S E  H
--------------------------|--------------------------|
--------------------------|--------------------------|
--------------------------|--------------------------|
----------5---------------|----------5---------------|
--------------------------|--------------------------|
--3-3-3-3-----------------|--3-3-3-3-----------------|


  S S S S S S S S S S S S S E.
--------------------------------|
--------------------------------|
--------------------------------|
----------5---------------3-----|
--------------------------------|
--3-3-3-3-----1-1-1-1-1-1-------|


                   <
  S S S S S S Q    Q.        S S S S S S E  H
--------------------------|--------------------------|
--------------------------|--------------------------|
-------------------5------|--------------------------|
----------5--------5------|----------5---------------|
--------------------------|--------------------------|
--3-3-3-3-----------------|--3-3-3-3-----------------|


  S S S S S S E  H
--------------------------|
--------------------------|
--------------------------|
----------5---------------|
--------------------------|
--3-3-3-3-----------------|


  S S S S S S S S S S S S S E.
--------------------------------|
--------------------------------|
--------------------------------|
----------5---------------3-----|
--------------------------------|
--3-3-3-3-----1-1-1-1-1-1-------|


                   <
  S S S S S S Q    Q.
--------------------------|
--------------------------|
-------------------5------|
----------5--------5------|
--------------------------|
--3-3-3-3-----------------|


  S S S S S S E  S S S S S S E
--------------------------------|
--------------------------------|
--------------------------------|
----------5--------------5------|
--------------------------------|
--3-3-3-3--------3-3-3-3--------|


  S S S S S S E  H
--------------------------|
--------------------------|
--------------------------|
----------5---------------|
--------------------------|
--3-3-3-3-----------------|


  S S S S S S S S S S S S S E.
--------------------------------|
--------------------------------|
--------------------------------|
----------5---------------3-----|
--------------------------------|
--3-3-3-3-----1-1-1-1-1-1-------|


                   <
  S S S S S S Q    Q.        S S S S S S E  H
--------------------------|--------------------------|
--------------------------|--------------------------|
-------------------5------|--------------------------|
----------5--------5------|----------5---------------|
--------------------------|--------------------------|
--3-3-3-3-----------------|--3-3-3-3-----------------|


  S S S S S S E  H
--------------------------|
--------------------------|
--------------------------|
----------5---------------|
--------------------------|
--3-3-3-3-----------------|


  S S S S S S S S S S S S S E.
--------------------------------|
--------------------------------|
--------------------------------|
----------5---------------3-----|
--------------------------------|
--3-3-3-3-----1-1-1-1-1-1-------|


  S S S S S S S S S S S E.    E     Q    Q    H
---------------------------------|---------------------|
---------------------------------|---------------------|
---------------------------------|------------5--------|
----------5-------------5br---L--|-------5----L--------|
---------------------------------|--3----L----L--------|
--3-3-3-3------------------------|---------------------|


  Q    Q    H           W
---------------------|-------------------|
---------------------|-------------------|
---------------------|-------------------|
------------6--------|-------------------|
-------6----L--------|-------------------|
--4----L----L--------|-------------------|


  E  E   E  E   E  E  Q       Q    Q    H
---------------------------|---------------------|
---------------------------|---------------------|
--3--5s--3--5s--3--0--L----|------------5--------|
--3--5s--3--5s--3--0--L----|-------5----L--------|
---------------------------|--3----L----L--------|
---------------------------|---------------------|


  Q    Q    Q     E.   S
-------------------------|
-------------------------|
-------------------------|
------------6------------|
-------6----L----12s---3-|
--4----L----L----12s---3-|


  S S S S S S S S S S S S S S S S
----------------------------------|
----------------------------------|
----------------------------------|
----------------------------------|
----------------------------------|
--3-3-3-3-3-3-3-3-3-3-3-3-3-3-3-3-|


  S S S S S S S S S S S S S S S S
----------------------------------|
----------------------------------|
----------------------------------|
----------------------------------|
----------------------------------|
--3-3-3-3-3-3-3-3-3-3-3-3-3-3-3-3-|


  S S S S S S S S S S S S S S S S
----------------------------------|
----------------------------------|
----------------------------------|
----------------------------------|
----------------------------------|
--3-3-3-3-3-3-3-3-3-3-3-3-3-3-3-3-|


  S S S S S S S S S S S S S S S S
----------------------------------|
----------------------------------|
----------------------------------|
----------------------------------|
----------------------------------|
--3-3-3-3-3-3-3-3-3-3-3-3-3-3-3-3-|


  S S S S S S S S S S S S S S S S
----------------------------------|
----------------------------------|
----------------------------------|
----------------------------------|
----------------------------------|
--3-3-3-3-3-3-3-3-3-3-3-3-3-3-3-3-|


  S S S S S S S S S S S S S S S S
----------------------------------|
----------------------------------|
----------------------------------|
----------------------------------|
----------------------------------|
--3-3-3-3-3-3-3-3-3-3-3-3-3-3-3-3-|


  S S S S S S S S S S S S S S S S
----------------------------------|
----------------------------------|
----------------------------------|
----------------------------------|
----------------------------------|
--3-3-3-3-3-3-3-3-3-3-3-3-3-3-3-3-|


  S S S S S S S S S S S S S S S S
----------------------------------|
----------------------------------|
----------------------------------|
----------------------------------|
----------------------------------|
--3-3-3-3-3-3-3-3-3-3-3-3-3-3-3-3-|


  S S S S S S S S S S S S S S S S
----------------------------------|
----------------------------------|
----------------------------------|
----------------------------------|
----------------------------------|
--3-3-3-3-3-3-3-3-3-3-3-3-3-3-3-3-|


  S S S S S S S S S S S S S S S S
----------------------------------|
----------------------------------|
----------------------------------|
----------------------------------|
----------------------------------|
--3-3-3-3-3-3-3-3-3-3-3-3-3-3-3-3-|


  S S S S S S S S S S S S S S S S
----------------------------------|
----------------------------------|
----------------------------------|
----------------------------------|
----------------------------------|
--3-3-3-3-3-3-3-3-3-3-3-3-3-3-3-3-|


  S S S S S S S S S S S S S S S S
----------------------------------|
----------------------------------|
----------------------------------|
----------------------------------|
----------------------------------|
--3-3-3-3-3-3-3-3-3-3-3-3-3-3-3-3-|


  S S S S S S S S S S S S S S S S
----------------------------------|
----------------------------------|
----------------------------------|
----------------------------------|
----------------------------------|
--3-3-3-3-3-3-3-3-3-3-3-3-3-3-3-3-|


  S S S S S S S S S S S S S S S S
----------------------------------|
----------------------------------|
----------------------------------|
----------------------------------|
----------------------------------|
--3-3-3-3-3-3-3-3-3-3-3-3-3-3-3-3-|


  S S S S S S S S S S S S S S S S
----------------------------------|
----------------------------------|
----------------------------------|
----------------------------------|
----------------------------------|
--3-3-3-3-3-3-3-3-3-3-3-3-3-3-3-3-|


  S S S S S S S S S S S S S S S S
----------------------------------|
----------------------------------|
----------------------------------|
----------------------------------|
----------------------------------|
--3-3-3-3-3-3-3-3-3-3-3-3-3-3-3-3-|


  S S S S S S S S S S S S S S S S
----------------------------------|
----------------------------------|
----------------------------------|
----------------------------------|
----------------------------------|
--3-3-3-3-3-3-3-3-3-3-3-3-3-3-3-3-|


  S S S S S S S S S S S S S S S S
----------------------------------|
----------------------------------|
----------------------------------|
----------------------------------|
----------------------------------|
--3-3-3-3-3-3-3-3-3-3-3-3-3-3-3-3-|


  S S S S S S S S S S S S S S S S
----------------------------------|
----------------------------------|
----------------------------------|
----------------------------------|
----------------------------------|
--3-3-3-3-3-3-3-3-3-3-3-3-3-3-3-3-|


  S S S S S S S S S S S S S S S S
----------------------------------|
----------------------------------|
----------------------------------|
----------------------------------|
----------------------------------|
--3-3-3-3-3-3-3-3-3-3-3-3-3-3-3-3-|


  S S S S S S S S S S S S S S S S
----------------------------------|
----------------------------------|
----------------------------------|
----------------------------------|
----------------------------------|
--3-3-3-3-3-3-3-3-3-3-3-3-3-3-3-3-|


  S S S S S S S S S S S S S S S S
----------------------------------|
----------------------------------|
----------------------------------|
----------------------------------|
----------------------------------|
--3-3-3-3-3-3-3-3-3-3-3-3-3-3-3-3-|


  S S S S S S S S S S S S S S S S
----------------------------------|
----------------------------------|
----------------------------------|
----------------------------------|
----------------------------------|
--3-3-3-3-3-3-3-3-3-3-3-3-3-3-3-3-|


  S S S S S S S S S S S S S S S S
----------------------------------|
----------------------------------|
----------------------------------|
----------------------------------|
----------------------------------|
--3-3-3-3-3-3-3-3-3-3-3-3-3-3-3-3-|


  S S S S S S S S S S S S S S S S
----------------------------------|
----------------------------------|
----------------------------------|
----------------------------------|
----------------------------------|
--3-3-3-3-3-3-3-3-3-3-3-3-3-3-3-3-|


  E  E  E  E  Q.     E     E  E  E  E  H
------------------------|-----------------------|
------------------------|-----------------------|
--------3-----5---------|-----3-----6--5--------|
--5-----3-----5------5--|-----3-----6--5--------|
--5-----1-----3------5--|-----1-----4--3--------|
--3------------------3--|-----------------------|


  E  E  E  E  Q.     E     E  H.            E
------------------------|------------------------|
------------------------|------------------------|
--------3-----5------3--|--L---------------------|
--5-----3-----5------3--|--L--5------------(5)\--|
--5-----1-----3------1--|--L--5------------(5)\--|
--3---------------------|-----3------------(3)\--|


  E  E  E  E  Q.     E     E  E  E  E  H
------------------------|-----------------------|
------------------------|-----------------------|
--------3-----5---------|-----3-----6--5--------|
--5-----3-----5------5--|-----3-----6--5--------|
--5-----1-----3------5--|-----1-----4--3--------|
--3------------------3--|-----------------------|


  E  E  E  E  Q.     E     E  H.            E
------------------------|------------------------|
------------------------|------------------------|
--------3-----5------3--|--L---------------------|
--5-----3-----5------3--|--L--5------------(5)\--|
--5-----1-----3------1--|--L--5------------(5)\--|
--3---------------------|-----3------------(3)\--|


  S S S S S S S S S S S S S S S S
----------------------------------|
----------------------------------|
----------------------------------|
----------5---------------5-------|
----------------------------------|
--3-3-3-3-----3-3-3-3-3-3-----3-3-|


  S S S S S S S S S S S S S S S S
----------------------------------|
----------------------------------|
----------------------------------|
----------5---------------5-------|
----------------------------------|
--3-3-3-3-----3-3-3-3-3-3-----3-3-|


  S S S S S S S S S S S S S E.
--------------------------------|
--------------------------------|
--------------------------------|
----------5---------------3-----|
--------------------------------|
--3-3-3-3-----1-1-1-1-1-1-------|


              <
  S S S S S S Q    E  Q
---------------------------|
---------------------------|
--------------5----L-------|
----------5---5----L-------|
-------------------L-------|
--3-3-3-3------------------|


  S S S S S S S S S S S S S S S S
----------------------------------|
----------------------------------|
----------------------------------|
----------5---------------5-------|
----------------------------------|
--3-3-3-3-----3-3-3-3-3-3-----3-3-|


  S S S S S S S S S S S S S S S S
----------------------------------|
----------------------------------|
----------------------------------|
----------5---------------5-------|
----------------------------------|
--3-3-3-3-----3-3-3-3-3-3-----3-3-|


  S S S S S S S S S S S S S E.
--------------------------------|
--------------------------------|
--------------------------------|
----------5---------------3-----|
--------------------------------|
--3-3-3-3-----1-1-1-1-1-1-------|


              <
  S S S S S S Q    E  Q
---------------------------|
---------------------------|
--------------5----L-------|
----------5---5----L-------|
---------------------------|
--3-3-3-3------------------|


  S S S S S S S S S S S S S S S S
----------------------------------|
----------------------------------|
----------------------------------|
----------5---------------5-------|
----------------------------------|
--3-3-3-3-----3-3-3-3-3-3-----3-3-|


  S S S S S S S S S S S S S S S S
----------------------------------|
----------------------------------|
----------------------------------|
----------5---------------5-------|
----------------------------------|
--3-3-3-3-----3-3-3-3-3-3-----3-3-|


  S S S S S S S S S S S S S E.
--------------------------------|
--------------------------------|
--------------------------------|
----------5---------------3-----|
--------------------------------|
--3-3-3-3-----1-1-1-1-1-1-------|


              <
  S S S S S S Q    E  Q
---------------------------|
---------------------------|
--------------5----L-------|
----------5---5----L-------|
---------------------------|
--3-3-3-3------------------|


  S S S S S S S S S S S S S S S S
----------------------------------|
----------------------------------|
----------------------------------|
----------5---------------5-------|
----------------------------------|
--3-3-3-3-----3-3-3-3-3-3-----3-3-|


  S S S S S S S S S S S S S S S S
----------------------------------|
----------------------------------|
----------------------------------|
----------5---------------5-------|
----------------------------------|
--3-3-3-3-----3-3-3-3-3-3-----3-3-|


  S S S S S S S S S S S S S E.
--------------------------------|
--------------------------------|
--------------------------------|
----------5---------------3-----|
--------------------------------|
--3-3-3-3-----1-1-1-1-1-1-------|


  S S S S S S S S S S S S Q       Q    Q    H
-------------------------------|---------------------|
-------------------------------|---------------------|
-------------------------------|------------5--------|
----------5---------------5----|-------5----L--------|
--------------------------3----|--3----L----L--------|
--3-3-3-3-----3-3-3-3-3-3------|---------------------|


  Q    Q    H           W
---------------------|-------------------|
---------------------|-------------------|
---------------------|-------------------|
------------6--------|-------------------|
-------6----L--------|-------------------|
--4----L----L--------|-------------------|


  E  E   E  E   E  E  Q       Q    Q    H
---------------------------|----------------------|
---------------------------|----------------------|
--3--5s--3--5s--3--0--L----|------------5~--------|
--3--5s--3--5s--3--0--L----|-------5----L---------|
---------------------------|--3----L----L---------|
---------------------------|----------------------|


  Q    Q    H
----------------------|
----------------------|
----------------------|
------------6~--------|
-------6----L---------|
--4----L----L---------|


  S S S S S S S S S S S S S S S S
----------------------------------|
----------------------------------|
----------------------------------|
----------------------------------|
----------------------------------|
--3-3-3-3-3-3-3-3-3-3-3-3-3-3-3-3-|


  S S S S S S S S S S S S S S S S
----------------------------------|
----------------------------------|
----------------------------------|
----------------------------------|
----------------------------------|
--3-3-3-3-3-3-3-3-3-3-3-3-3-3-3-3-|


  S S S S S S S S S S S S S S S S
----------------------------------|
----------------------------------|
----------------------------------|
----------------------------------|
----------------------------------|
--3-3-3-3-3-3-3-3-3-3-3-3-3-3-3-3-|


  S S S S S S S S S S S S S S S S
----------------------------------|
----------------------------------|
----------------------------------|
----------------------------------|
----------------------------------|
--3-3-3-3-3-3-3-3-3-3-3-3-3-3-3-3-|


  S S S S S S S S S S S S S S S S
----------------------------------|
----------------------------------|
----------------------------------|
----------------------------------|
----------------------------------|
--3-3-3-3-3-3-3-3-3-3-3-3-3-3-3-3-|


  S S S S S S S S S S S S S S S S
----------------------------------|
----------------------------------|
----------------------------------|
----------------------------------|
----------------------------------|
--3-3-3-3-3-3-3-3-3-3-3-3-3-3-3-3-|


  S S S S S S S S S S S S S S S S
----------------------------------|
----------------------------------|
----------------------------------|
----------------------------------|
----------------------------------|
--3-3-3-3-3-3-3-3-3-3-3-3-3-3-3-3-|


  S S S S S S S S S S S S S S S S
----------------------------------|
----------------------------------|
----------------------------------|
----------------------------------|
----------------------------------|
--3-3-3-3-3-3-3-3-3-3-3-3-3-3-3-3-|


  S S S S S S S S S S S S S S S S
----------------------------------|
----------------------------------|
----------------------------------|
----------------------------------|
----------------------------------|
--3-3-3-3-3-3-3-3-3-3-3-3-3-3-3-3-|


  S S S S S S S S S S S S S S S S
----------------------------------|
----------------------------------|
----------------------------------|
----------------------------------|
----------------------------------|
--3-3-3-3-3-3-3-3-3-3-3-3-3-3-3-3-|


  S S S S S S S S S S S S S S S S
----------------------------------|
----------------------------------|
----------------------------------|
----------------------------------|
----------------------------------|
--3-3-3-3-3-3-3-3-3-3-3-3-3-3-3-3-|


  S S S S S S S S S S S S S S S S
----------------------------------|
----------------------------------|
----------------------------------|
----------------------------------|
----------------------------------|
--3-3-3-3-3-3-3-3-3-3-3-3-3-3-3-3-|


  S S S S S S S S S S S S S S S S
----------------------------------|
----------------------------------|
----------------------------------|
----------------------------------|
----------------------------------|
--3-3-3-3-3-3-3-3-3-3-3-3-3-3-3-3-|


  S S S S S S S S S S S S S S S S
----------------------------------|
----------------------------------|
----------------------------------|
----------------------------------|
----------------------------------|
--3-3-3-3-3-3-3-3-3-3-3-3-3-3-3-3-|


  S S S S S S S S S S S S S S S S
----------------------------------|
----------------------------------|
----------------------------------|
----------------------------------|
----------------------------------|
--3-3-3-3-3-3-3-3-3-3-3-3-3-3-3-3-|


  S S S S S S S S S S S S S S S S
----------------------------------|
----------------------------------|
----------------------------------|
----------------------------------|
----------------------------------|
--3-3-3-3-3-3-3-3-3-3-3-3-3-3-3-3-|


  Q    Q    H           W
---------------------|-------------------|
---------------------|-------------------|
-------3----5--------|--L----------------|
--5----3----5--------|--L----------------|
--5----1----3--------|--L----------------|
--3------------------|-------------------|


  W                   H        E  Q.
-------------------|----------------------|
-------------------|----------------------|
--L----------------|--L--------3----------|
--L----------------|--L--------3--5\------|
--L----------------|--L--------1--5\------|
-------------------|--------------3\------|


  E  S E  S E  E  E  S S E     E  Q.      E  S E  S E
----------------------------|--------------------------|
----------------------------|--------------------------|
----------------------------|--3-----------------------|
----------------------------|--3--5\-------------------|
--5--5-5--5-5--5--5--5-5-5--|--1--5\------5--5-5--5-5--|
--3--3-3--3-3--3--3--3-3-3--|-----3\------3--3-3--3-3--|


  E  E  S S E  E  Q.
--------------------------||
--------------------------||
---------------3----------||
---------------3--5\------||
--5--5--5-5-5--1--5\------||
--3--3--3-3-3-----3\------||


Duration Legend
---------------
W - whole
H - half
Q - quarter
E - 8th
S - 16th
T - 32nd
X - 64th
. - note dotted
|-n-|  - n-tuplets


Tablature Legend
----------------
L - tied note
x - dead note
g - grace note
(n) - ghost note
> - accentuded note
NH - natural harmonic
AH - artificial harmonic
TH - tapped harmonic
SH - semi harmonic
PH - pitch harmonic
h - hammer on
p - pull off
b - bend
br - bendRelease
pb - preBend
pbr - preBendRelease
brb - bendReleaseBend
\n/ - tremolo bar dip
\n - tremolo bar dive
-/n - tremolo bar Release up
/n\ - tremolo bar inverted dip
/n - tremolo bar return
-\n - tremolo bar Release down
S - shift slide
s - legato slide
/ -  slide into from below or out of upwards
\ -  slide into from above or out of downwards
~ - vibrato
W - wide vibrato
tr - trill
TP - tremolo picking
T - tapping
S - slap
P - pop
< - fade in
^ - brush up
v - brush down
comments
We did not receive enough feedback on this tab! Please rate:
print report bad tab
1 2 3 4 5
I want to post or [tab]
guest
You may want to rate the tab now too:
select rating
Please do not post tabs as comments. Select "correction" instead!