Oops, an error
Loading. Please wait.

2 X 4 Tab

ver3
ver3

Whole song

More versions @911Tabs.com
4,620 views 6 this week
1 commentread comment
1 2 3 4 5
accurate
x 5
Autoscroll
+/-
esc
set tempo
stop
Contributor
WARNING: You are trying to view
                                    content from Ultimate-Guitar.com
                                    in an unauthorized application,
                                    which is prohibited.

                                    Please use an official Ultimate
                                    Guitar Tabs application for iPhone,
                                    iPad or Android to access legitimate
                                    chords, guitar, bass, and drum tabs
                                    from Ultimate-Guitar.com database.

                                    Type "ultimate guitar tabs" in Apple
                                    App Store's or Android Market's
                                    search to find the application.
all tuned Eb Ab Db Gb Bb Eb
Gtr I - 'James Hetfield - dist electric'
Gtr II, III - 'Kirk Hammett - dist electric'


Intro
  Q=112(8=s8)
 4/4          2/4         4/4
  Gtrs I, II
                       ~~~~~~~~      ~~~~~~
                   |-3-|         |-3-|       |-3-|
  Wx2          E E E E E   +E  E E E E +E  E E E E
|------------|-----------|-------------------------|
|------------|-----------|-------------------------|
|------------|-----------|-------------------------|
|------------|-----------|-------------------------|
|------------|-----------|-------------------------|
|------------|-0-0-3s5-6-|-(6)-0-3s5-6-(6)-0-3h5-0-|
             |-Riff A

            ~~~~~~      ~~~~~~~~      ~~~~~~                    ~~~~~~      ~
        |-3-|       |-3-|         |-3-|       |-3-|         |-3-|       |-3-|
  +E  E E E E +E  E E E E   +E  E E E E +E  E E E E   +E  E E E E +E  E E E E
|-------------------------|-------------------------|--------------------------|
|-------------------------|-------------------------|--------------------------|
|-------------------------|-------------------------|--------------------------|
|-------------------------|-------------------------|--------------------------|
|-------------------------|-------------------------|--------------------------|
|-(0)-0-3h5-0-(0)-0-3s5-6-|-(6)-0-3s5-6-(6)-0-3h5-0-|-(0)-0-3h5-0-(0)-0-3s5-6--|
               end Riff A-||-Riff A1                               end Riff A1-|

   ~~~      ~~~~~~                    ~~~~~~      ~
        |-3-|       |-3-|         |-3-|       |-3-|
  +E  E E E E +E  E E E E   +E  E E E E +E  E E E E
|-------------------------|-------------------------|
|-------------------------|-------------------------|
|-------------------------|-------------------------|
|-------------------------|-------------------------|
|-------------------------|-------------------------|
|-(6)-0-3s5-6-(6)-0-3h5-0-|-(0)-0-3h5-0-(0)-0-3s5-6-|


   ~~~      ~~~~~~                    ~~~~~~                        ~~~~~~
        |-3-|       |-3-|         |-3-|                         |-3-|
  +E  E E E E +E  E E E E   +E  E E E E +E  E Q     E E E     E E E E +E  E
|-------------------------|-----------------------|-------------------------|
|-------------------------|-----------------------|-------------------------|
|-------------------------|-----------------------|-------------------------|
|-------------------------|-----------------------|-------------------------|
|-------------------------|-----------------------|-----------------7-(7)---|
|-(6)-0-3s5-6-(6)-0-3h5-0-|-(0)-0-3h5-0-(0)-0-x\--|-0-0-3b3.5-0-5s6-------0-|
                                                  |-Riff B

      ~~~~~~                                ~~~~~~        ~~~~~~
  |-3-|       |-3-|                     |-3-|         |-3-|       |-3-|
  E E E +E  E E E E E   E   E E E     E E E E +E  E   E E E +E  E E E E E   E
|-------------------------|-------------------------|-------------------------||
|-------------------------|-------------------------|-------------------------||
|-------------------------|-------------------------|-------------------------||
|-------------------------|-------------------------|-------------------------||
|-----7-(7)-------7-------|-----------------7-(7)---|-----7-(7)-------7-------||
|-5s6-------0-5s6---3b5-3-|-0-0-3b3.5-0-5s6-------0-|-5s6-------0-5s6---3b5-3-||
               end Riff B-|

 Verse 1
                                ~          ~
  E E E     E a E E E E     +E  Q  E   +E  Q  E
|-------------------------|---------------------|
|-------------------------|---------------------|
|-------------------------|---------------------|
|-------------------------|---------------------|
|-------------------------|---------------------|
|-0-0-3b3.5-0-3s5-0---5b6r|=(5)-3--5b6r(5)-3--0-|
|-Riff C

                                  ~          ~
  +E  E E     E a E E E E     +E  Q  E   +E  Q  E
|---------------------------|-----------------------|
|---------------------------|-----------------------|
|---------------------------|-----------------------|
|---------------------------|-----------------------|
|---------------------------|-----------------------|
|-(0)-0-3b3.5-0-3s5-0---5b6r|=(5)-3--5b6r(5)-3--0---|


                                  ~          ~
  +E  E E     E a E E E E     +E  Q  E   +E  Q  E
|---------------------------|---------------------|
|---------------------------|---------------------|
|---------------------------|---------------------|
|---------------------------|---------------------|
|---------------------------|---------------------|
|-(0)-0-3b3.5-0-3s5-0---5b6r|=(5)-3--5b6r(5)-3--0-|


                                  ~          ~
  +E  E E     E a E E E E     +E  Q  E   +E  Q  E
|---------------------------|-----------------------|
|---------------------------|-----------------------|
|---------------------------|-----------------------|
|---------------------------|-----------------------|
|---------------------------|-----------------------|
|-(0)-0-3b3.5-0-3s5-0---5b6r|=(5)-3--5b6r(5)-3--0---|
                                         end Riff C-|

                      ~~~~~~        ~~~~~~
                  |-3-|         |-3-|       |-3-|
    +E  E E     E E E E +E  E   E E E +E  E E E E E   E
||----------------------------|--------------------------||
||o---------------------------|-------------------------o||
||----------------------------|--------------------------||
||----------------------------|--------------------------||
||o-------------------7-(7)---|-----7-(7)-------7-------o||
||--(0)-0-3b3.5-0-5s6-------0-|-5s6-------0-5s6---3b5-3--||


   Verse 1 & 3
   Riff C


 2/4           4/4
            ~~~~~~~~~~~~~~~
        |-3-|                |-3-|            |-3-|
  +E  E E E E   +H     +E  E E E E   +H.      E E E
|-------------|--------------------|----------------||
|-------------|--------------------|----------------||
|-------------|--------------------|----------------||
|-------------|--------------------|----------------||
|-------------|--------------------|----------5s7-5-||
|-(0)-0-3s5-6-|-(6)----(6)-0-3s5-0-|-(0)------3s5-6-||


 Chorus 2nd time with Fill 2 (see bottom of score)
   ~~~~~~~~~~      ~~~~~~~~~~~~~~~      ~~~~~~~~
               |-3-|                |-3-|                |-3-|
  +H     +E  E E E E   +H     +E  E E E E   +H     +E  E E E E
|--------------------|--------------------|--------------------|
|--------------------|--------------------|--------------------|
|--------------------|--------------------|--------------------|
|--------------------|--------------------|--------------------|
|-(5)----(5)---5h7-2-|-(2)----(2)-0-5s7-5-|-(5)----(5)---5s7-2-|
|-(6)----(6)-0-3h5-0-|-(0)----(0)-0-3s5-6-|-(6)----(6)-0-3s5-0-|


  Gtr I
   ~~~~~~~~~~
  +H     +E  E  E   E     +H.               E   E
|-----------------------|---------------------------|
|-----------------------|---------------------------|
|-----------------------|---------------------------|
|-----------------------|---------------------------|
|-(2)----(2)---/8---8---|-(8)---------------2---2---|
|------------0-/6---6---|-(6)---------------0---0---|
|
| Gtr II
|                     ~~~~~~~~      ~~~~~~
|               |--3--|         |-3-|       |--3--|
| +H     +E  E  E E   E   +E  E E E E +E  E E E   E
|-----------------------|---------------------------|
|-----------------------|---------------------------|
|-----------------------|---------------------------|
|-----------------------|---------------------------|
|-----------------------|---------------------------|
|-(0)----(0)-0--3s5---6-|-(6)-0-3s5-6-(6)-0-3h5---0-|


  +H.                E   E     +H.               E   E     +H          Q   E E
|----------------------------|---------------------------|---------------------|
|----------------------------|---------------------------|---------------------|
|----------------------------|---------------------------|---------------------|
|----------------------------|---------------------------|---------------------|
|-(2)---------------/8---8---|-(8)---------------2---2---|-(2)-------------2-2-|
|-(0)---------------/6---6---|-(6)---------------0---0---|-(0)---------x\--0-0-|
|
|  ~~~      ~~~~~~         ~~~~~~~~      ~~~~~~                      ~~~~~
|       |-3-|        |--3--|         |-3-|       |--3--|         |-3-|
| +E  E E E E +E  E  E E   E   +E  E E E E +E  E E E   E   +E  E E E E Q   E E
|----------------------------|---------------------------|---------------------|
|----------------------------|---------------------------|---------------------|
|----------------------------|---------------------------|---------------------|
|----------------------------|---------------------------|---------------------|
|----------------------------|---------------------------|-----------------2-2-|
|-(0)-0-3h5-0-(0)-0--3s5---0-|-(0)-0-3s5-6-(6)-0-3h5---0-|-(0)-0-3h5-0-0---0-0-|


  Gtrs I, II
                                                              ~
                                                          |-3-|
  +H.      E E   +H.      E E   +H.      E E   H    +E  E E E E
|--------------|--------------|--------------|------------------|
|--------------|--------------|--------------|------------------|
|--------------|--------------|--------------|------------------|
|----------5-5-|-(5)------7-7-|-(7)------5---|-5----(5)---------|
|-(2)------5-5-|-(5)------7-7-|-(7)------5---|-5----(5)---------|
|-(0)------3-3-|-(3)------5-5-|-(5)------3-0-|-3----(3)-0-3s5-6-|


Riff A x 1.5

  1.
            ~~~~~~                       ~~~~~~        ~~~~~~
        |-3-|                        |-3-|         |-3-|       |-3-|
  +E  E E E E +Q   Q     E E E     E E E E +E  E   E E E +E  E E E E E   E
|----------------------|-------------------------|-------------------------|
|----------------------|-------------------------|-------------------------|
|----------------------|-------------------------|-------------------------|
|----------------------|-------------------------|-------------------------|
|----------------------|-----------------7-(7)---|-----7-(7)-------7-------|
|-(0)-0-3h5-0-(0)--x\--|-0-0-3b3.5-0-5s6-------0-|-5s6-------0-5s6---3b5-3-|


                  ~~~~~~        ~~~~~~
              |-3-|         |-3-|       |-3-|
  E E E     E E E E +E  E   E E E +E  E E E E E   E
|-------------------------|--------------------------||
|-------------------------|-------------------------o||
|-------------------------|--------------------------||
|-------------------------|--------------------------||
|-----------------7-(7)---|-----7-(7)-------7-------o||
|-0-0-3b3.5-0-5s6-------0-|-5s6-------0-5s6---3b5-3--||


                             Interlude
  2.
  Gtr I
          ~~~~~~
      |-3-|
  E E E E E +Q   Q 
|--------------------------||
|--------------------------|| Gtr I plays Riff B x4
|--------------------------||
|--------------------------||
|--------------------------||
|-0-0-3h5-0-(0)--x\--------||
|
| Gtr II
|         ~~~~~~                                ~~~~~~                 ~~~
|     |-3-|      |---3---|          |-----3-----|            |----3----|
| E E E E E +Q   E   +E  E    +E  E E     +E    E +E    E    E   +E    E
|--------------------------||--------------------------------------------|
|--------------------------||--------------------------------------------|
|--------------------------||--------------------------------------------|
|--------------------------||--------------------------------------------|
|----------------5b6-(6)-7-||-(7)-7-5b6---(6)---7-(7)---7----5b6-(6)---7-|
|-0-0-3h5-0-(0)------------||--------------------------------------------|
|-Riff C        end Riff C-|


 ~~~~~                 ~~~~~~
             |----3----|           |----3----|
  +E    E    E   +E    E +E    E   E   +E    E
|------------------------------------------------|
|------------------------------------------------|
|------------------------------------------------|
|------------------------------5---7b9r(7)p==5---|
|-(7)---7----5b6-(6)---7-(7)---------------------|
|------------------------------------------------|
|-Riff D


  ~               ~~~~~~                 ~~~~~~~~                 ~~~~~~
      |-----3-----|            |----3----|              |----3----|           |----3----|
  E E E     +E    E +E    E    E   +E    E   +E    E    E   +E    E +E    E   E   +E    E
|------------------------------------------|----------------------------------------------|
|------------------------------------------|----------------------------------------------|
|------------------------------------------|----------------------------------------------|
|------------------------------------------|------------------------------5---7b9r(7)p==5-|
|-7-7-5b6---(6)---7-(7)---7----5b6-(6)---7-|-(7)---7----5b6-(6)---7-(7)-------------------|
|------------------------------------------|----------------------------------------------|
                                end Riff D-||-Riff D1


                ~~~~~~~
                               |-----3------|
  E   E  E      E  +E     E    E     +E     E
|---------------------------------------------|
|---------------------------------------------|
|---------------------------------------------|
|-7b9---12-----14-(14)---14---12b13-(13)---14-|
|---------------------------------------------|
|---------------------------------------------|
                                  end Riff D1-|


                            ~~~~~~~
               |-----3------|              |-----3------|
   +E     E    E     +E     E  +E     E    E     +E     E
|---------------------------------------------------------|
|---------------------------------------------------------|
|------------------------------------12---14b16r(14)p==12-|
|-(14)---14---12b13-(13)---14-(14)------------------------|
|---------------------------------------------------------|
|---------------------------------------------------------|



   ~~                    ~~~                    ~~
        |------3------|            |-----3------|
   Q    E      +E     E  E    E    E     +E     E
|-------------------------------------------------|
|-------------------------------------------------|
|-------------------------------------------------|
|-14---12b13--(13)---14-14---14---12b13-(13)---14-|
|-------------------------------------------------|
|-------------------------------------------------|

 ~~~~~~~                     ~~~~~~~
          |-----3------|
   +E     E    E     +E     E  +E     E    E     E
|---------------------------------------------------|
|-----------------------------------------14b15-12--|
|------------------------------------12---14b15-12--|
|-(14)---14---12b13-(13)---14-(14)------------------|
|---------------------------------------------------|
|---------------------------------------------------|

  Gtr I
|-Rhy Fig 2
  E5                      G5                      A5
    H.              E E     H.              E E     H.              Q
    |               | |     |               | |     |               |
    /               / x     /               / x     /               /

  Gtr II
    Q    Q      Q   E E     Q    Q      Q   E E     Q    Q      Q   E E
|-----------------------|-----------------------|-----------------------|
|-----------------------|-----------------------|-----------------------|
|-----------------------|-----------------------|-----------------------|
|-/14-------------------|-/14-------------------|-/14-------------------|
|-------12b13--12--10s7-|-------12b13--12--10s7-|-------12b13--12--10s7-|
|-----------------------|-----------------------|-----------------------|
|-Riff E

                                end Rhy Fig 2-|
  F5
  |-3-| |-3-| |-3-| |-3-|   |-3-| |-3-| |-3-|
  E E E E E E E E E E E E   E E E E E E q q q
  | | | | | | | | | | | |   | | | | | | | | |
  / / / / / / / / / / / /   / / / / / / / / /

  |-3-| |-3-| |-3-| |-3-|   |-3-| |-3-| |-3-|
  E E E E E E E E E E E E   E E E E E E q q Q
|-------------------------|-------------------||
|-------------------------|-------------------||
|-------------------------|-------------------||
|-------------------------|-------------------||
|-8-8-8-8-8-8-8-8-8-8-8-8-|-8-8-8-8-8-8-8-8-8-||
|-------------------------|-------------------||
                                   end Riff E-|

 Guitar Solo half time feel
  Gtr I
   H        H        H     H       H         H
|-----------0----|--------------|------------0---------|
|----------------|---------0----|----------------------|
|----------------|--------------|----------------------|
|----------------|--------------|----------------------|
|----------------|--------------|--0-------------------|
|--0-------------|---3----------|----------------------|
|-Rhy Fig 3
|
| Gtr II
|  W                +W             E  Q.    +E   Q   E
|----------------|--------------|----------------------|
|-15-------------|-(15)---------|-15------------15-----|
|-14b16==========|=(16)---------|----14----(14)-----14-|
|----------------|--------------|----------------------|
|----------------|--------------|----------------------|
|----------------|--------------|----------------------|


    H           H
|-------------------------|
|---------------0---------|
|-------------------------| w/Rhy Fig 3 x2.75
|-------------------------|
|-------------------------|
|---3---------------------|
|           end Rhy Fig 3-|
|
|  +Q    +Q    +Q    E  E    E  Q.      +Q.    E
|-------------------------|----------------------|
|-------------------------|----14b15---(15)------|
|-(14)--(14)r=(14)--12----|-12-14b16---(16)---14-|
|----------------------14-|----------------------|
|-------------------------|----------------------|
|-------------------------|----------------------|


   E     +E   E     +E   Q.     E
|---------------------------------|
|-14b15r(14)-14b15r(14)-14b15-----|
|-14b16r(14)-14b16r(14)-14b16-----|
|---------------------------------|
|---------------------------------|
|---------------------------------|



                                  |--3--|  |--3--|
   E     +E   E  E  E  E  E  E    Q  Q  Q  Q  Q  Q
|------------------------------|--------------------|
|------------------------------|--------------------|
|-14b16r(14)-12----------------|----------12-13-14--|
|-14b16r(14)-12----12----------|-12-13-14-12-13-14--|
|---------------14-12-10----10-|-12-13-14-----------|
|------------------------12----|--------------------|



   E       E  E  E  Q        E  E
|---------------------------------|
|-12b12.5-------------------------|
|-12b12.5-------------------------|
|---------14-14-14-12b12.5--------|
|---------------------------14s12-|
|---------------------------------|


                 ~~~~~~~
   |--3--|  |-3--|
   E  E  E  E E  E  +Q    E  E
|------------------------------|
|------------------------------|
|------------------------------|
|----------12---12-(12)--------|
|-10-12-14---------------14s12-|
|------------------------------|


                 ~~~~~~~
   |--3--|  |-3--|
   E  E  E  E E  E  +Q    E  E    Q.    +E      +Q    +Q
|------------------------------|----------------------------|
|------------------------------|-12----(12)b13-(13)--(13)\--|
|------------------------------|-12----(12)b14-(14)--(14)\--|
|----------12---12-(12)--12-14-|----------------------------|
|-10-12-14---------------------|----------------------------|
|------------------------------|----------------------------|


    E  E  E  E     E  E  E  E    E  E     E  E  E  E  a  E  E
|-----------------------------|-------------------------------|
|-----12-14-14b15-14-12-------|-12-14b15-14-12-------------15-|
|-----12-14-14b16-14-12----12-|-12-14b16-14-12----12-14s16----|
|-/14-------------------14----|----------------14-------------|
|-----------------------------|-------------------------------|
|-----------------------------|-------------------------------|


   a  E  E  a  E  E  a  E  E  Q
|--------------------------------|
|-------15-------15-------15-15--|
|-14s16----14s16----14s16----16--|
|--------------------------------|
|--------------------------------|
|--------------------------------|


                                      A5
  Gtr I
   W                                   W
                                       |
                                       /

  Gtr II
   H                   H               Q      Q      Q      Q
|-----------------------------------|------------------------------|
|----------------------0------------|-----------------------3------|
|-----------------------------------|----------------0-------------|
|-----------------------------------|---------2--------------------|
|-----------------------------------|------------------------------|
|--3--------------------------------|--0---------------------------|
|
| Gtr III
|  E     +S   S  E  E  E     E  Q      Q      Q      Q      Q
|-----------------------------------|-12-----12-----12-----12------|
|-15------------------15b17-12------|-15b17--15b17--15b17--15b17===|
|-14b16r(14)p12----12-------12------|------------------------------|
|---------------14-------------14\--|------------------------------|
|-----------------------------------|------------------------------|
|-----------------------------------|------------------------------|


  G5
    W
    |
    /

    Q      Q        Q           Q
|------------------------------------------|
|-------------------3----------------------|
|----------4--------------------4----------|
|--/5--------------------------------------|
|------------------------------------------|
|------------------------------------------|
|
|                   |---3----|  |---3----|
|  +E   E  E   E    E     E  E  E  E     E
|-(12)-12-----12---------12-12-12-------12-|
|-(17)----17-(17)r-15b17----------15b17----|
|------------------------------------------|
|------------------------------------------|
|------------------------------------------|
|------------------------------------------|


  A5
  Gtr I
   W
   |
   /

  Gtr II
   Q         Q      Q           Q
|------------------------------------------|
|-------------------5-----------0----------|
|------------5-----------------------------|
|-/7---------------------------------------|
|------------------------------------------|
|------------------------------------------|
|
|                   |---3----|  |---3----|
|  E      E  E  E   E     E  E  E     E  E
|-12-----12-12-12--------12----------12-12-|
|-15b17==17-17-17r-15b17----12-15b17-------|
|------------------------------------------|
|------------------------------------------|
|------------------------------------------|
|------------------------------------------|


  G5                                                E5
   W                                                 W
   |                                                 |
   /                                                 /

   Q           Q           Q           Q             Q      Q  Q   Q
|-------------------------------------------------|----------------------|
|--------------------------3----------------------|----------------3-----|
|--------------4-----------------------4----------|------------0---------|
|--5----------------------------------------------|---------2------------|
|-------------------------------------------------|----------------------|
|-------------------------------------------------|--0-------------------|
|
|                                                           ~~
|  |---3----|  |---3----|  |---3----|  |---3----|
|  E     E  E  E     E  E  E     E  E  E     E  E    Q      H      E  E
|-------12----------12-12-------12-12-------12-12-|-15b17--15-----12-14--|
|-15b17----12-15b17-------15b17-------15b17-------|----------------------|
|-------------------------------------------------|----------------------|
|-------------------------------------------------|----------------------|
|-------------------------------------------------|----------------------|
|-------------------------------------------------|----------------------|


  G5
   W
   |
   /

   Q    Q        Q         Q
|------------------------------|
|----------------3-------------|
|-------4------------------4---|
|-/5---------------------------|
|------------------------------|
|------------------------------|
|
|                      ~~~~~~~~~
|       |--3--|  |--3--|
|  E  E E  E  E  E  E  E  +Q
|-15-14---12----12-------------|
|------------15----12-15-(15)--|
|------------------------------|
|------------------------------|
|------------------------------|
|------------------------------|


  A5                              G5
    W                             W
    |                             |
    /                             /

    Q    Q        Q        Q      Q       Q       Q   Q
|-------------------------------|-------------------------|
|-----------------5--------0----|-----------------3-------|
|--------5----------------------|---------4-----------4---|
|--/7---------------------------|-5-----------------------|
|-------------------------------|-------------------------|
|-------------------------------|-------------------------|
|
|~~~~~~
|        |--3--|  |--3--|
|  +Q    E  E  E  E  E  E  E  E   E     E E E    +Q   Q
|-------------------------------|-------------------------|
|-(15)--15p12-------------------|-7b7.5---7-9b10r(9)--7\--|
|-------------14-12----12-14-12-|-7b7.5---7-9b11r(9)--7\--|
|-------------------14----------|-------9-----------------|
|-------------------------------|-------------------------|
|-------------------------------|-------------------------|


  Gtr I
   Q          Q        Q        Q
   |          |        |        |
   /          /        /        /

  Gtr II
   |------3------|     |--3--|  |--3--|
   Q     Q       Q     E  E  E  E  E  E
|---------------------------------------|
|-14b15-14b15---14b15-14-14-14----------|
|-14b16-14b16---14b16-14-14-14-14p12----|
|------------------------------------14-|
|---------------------------------------|
|---------------------------------------|


   Q     Q     Q        Q     Q     Q     Q      Q
   |     |     |        |     |     |     |      |
   /     /     /        /     /     /     /      /

                        ~~
   Q     E  E  E  E     Q     E  E  E  E  Q      Q
|--------------------------|----------------------------|
|----------------14b15-14--|-12----12----15-----15------|
|-12\------12-14-14b16-14--|-12----12-14-14b16--14b16---|
|------/14-----------------|----14----------------------|
|--------------------------|----------------------------|
|--------------------------|----------------------------|


   Q                Q      Q    Q
   |                |      |    |
   /                /      /    /

                       ~~~~~~~
   S     +S   S  S  E  E  +Q    E  E
|-------------------------------------|
|-15----------------------------------|
|-14b16r(14)p12----12-12-(12)---------|
|---------------14----------------14\-|
|------------------------------14-----|
|-------------------------------------|


    Q     Q            Q    Q       Q     Q            Q    Q
    |     |            |    |       |     |            |    |
    /     /            /    /       /     /            /    /

                       ~~~~
    E  E  E      +E   +Q    E  E    E  E  E      +E   +Q    Q
|--------------------------------|-------------------------------|
|--------14b15==(15)r(14)--------|-------14b15==(15)r(14)--12\---|
|-----12-14b16==(16)r(14)--12----|----12-14b16==(16)r(14)--12\---|
|-/14-------------------------14-|-14----------------------------|
|--------------------------------|-------------------------------|
|--------------------------------|-------------------------------|


    Q     Q            Q           Q
    |     |            |           |
    /     /            /           /

    E  E  E      +E   +E   E      +E   E
|--------------------------------------------|
|--------14b15==(15)r(14)-14pb15r(14)-14pb15r|
|-----12-14b16==(16)r(14)-14pb16r(14)-14pb16r|
|-/14----------------------------------------|
|--------------------------------------------|
|--------------------------------------------|

                                          end half time feel
    Q           Q           Q    Q       Q     Q  H      W
    |           |           |    |       |
    /           /           /    /       /

                            ~~~~
                                         |3-|
   +E   E      +E   E      +Q    E  E    E  Q  Q  H      W
|-------------------------------------|----------------|------||
|-(14)-14pb15r(14)-14pb15r(14)--12----|----------------|------||
|-(14)-14pb16r(14)-14pb16r(14)--12----|-12-------------|------||
|----------------------------------14-|----14\---------|------||
|-------------------------------------|----------------|------||
|-------------------------------------|----------------|------||


 2/4         4/4
  Gtrs I, II
          ~~~~~~~~      ~~~~~~                    ~~~~~~      ~
      |-3-|         |-3-|       |-3-|         |-3-|       |-3-|
  E E E E E   +E  E E E E +E  E E E E   +E  E E E E +E  E E E E
|-----------|-------------------------|-------------------------|
|-----------|-------------------------|-------------------------|
|-----------|-------------------------|-------------------------|
|-----------|-------------------------|-------------------------|
|-----------|-------------------------|-------------------------|
|-0-0-3s5-6-|-(6)-0-3s5-6-(6)-0-3h5-0-|-(0)-0-3h5-0-(0)-0-3s5-6-|



Chorus
  Gtr I
   ~~~      ~~~~~~                    ~~~~~~          ~~~~
        |-3-|       |-3-|         |-3-|       |---3---|
  +E  E E E E +E  E E E E   +E  E E E E +E  E E    E  E
|-------------------------|-----------------------------||
|-------------------------|-----------------------------||
|-------------------------|-----------------------------||
|-------------------------|-----------------------------||
|-------------------------|-----------------------------||
|-(6)-0-3s5-6-(6)-0-3h5-0-|-(0)-0-3h5-0-(0)-0-3s===5--6-||
|
| Gtr II
|  ~~~      ~~~~~~                    ~~~~~~
|       |-3-|       |-3-|         |-3-|       |---3---|
| +E  E E E E +E  E E E E   +E  E E E E +Q    E   +E  E
|-------------------------|-----------------------------||
|-------------------------|-----------------------------||
|-------------------------|-----------------------------||
|-------------------------|-----------------------------||
|-------------------------|-------------------5b6-(6)-7-||
|-(6)-0-3s5-6-(6)-0-3h5-0-|-(0)-0-3h5-0-(0)-------------||


 Outro
 ~~~~~          ~~~~~~
        |---3---|       |---3---|
   E  E E    E  E +E  E E    E  E
|----------------------------------|
|----------------------------------|
|----------------------------------|
|----------------------------------|
|----------------------------------|
|--6--0-3s===5--6-(6)-0-3h===5--0--|
|
|               ~~~~~~          ~
|       |---3---|       |---3---|
| +E  E E   +E  E +E  E E   +E  E
|----------------------------------|
|----------------------------------|
|----------------------------------|
|----------------------------------|
|-(7)-7-5b6-(6)-7-(7)-7-5b6-(6)-7--|
|----------------------------------|


                ~~~~~~          ~~~~~~~~          ~~~~~~
        |---3---|       |---3---|         |---3---|       |---3---|
  +E  E E    E  E +E  E E    E  E   +E  E E    E  E +E  E E    E  E
|---------------------------------|---------------------------------|
|---------------------------------|---------------------------------|
|---------------------------------|---------------------------------|
|---------------------------------|---------------------------------|
|---------------------------------|---------------------------------|
|-(0)-0-3h===5--0-(0)-0-3s===5--6-|-(6)-0-3s===5--6-(6)-0-3h===5--0-|
|
|  ~~~          ~~~~~~               ~~~          ~~~~~~          ~~~
|       |---3---|       |---3---|         |---3---|       |---3---|
| +E  E E   +E  E +E  E E   +E  E    E  E E   +E  E +E  E E   +E  E
|---------------------------------|---------------------------------|
|---------------------------------|---------------------------------|
|---------------------------------|---------------------------------|
|---------------------5-7b9r(7)p5-|---------------------------------|
|-(7)-7-5b6-(6)-7-(7)-------------|--7--7-5b6-(6)-7-(7)-7-5b6-(6)-7-|
|---------------------------------|---------------------------------|


                ~~~~~~          ~
        |---3---|       |---3---|
  +E  E E    E  E +E  E E    E  E
|------------------------------------|
|------------------------------------|
|------------------------------------|
|------------------------------------|
|------------------------------------|
|-(0)-0-3h===5--0-(0)-0-3s===5--6----|
|
|~~~~~          ~~~~~~
|       |---3---|       |---3---|
| +E  E E   +E  E +E  E E   +E  E
|------------------------------------|
|------------------------------------|
|------------------------------------|
|---------------------5-7b9r(7)p5----|
|-(7)-7-5b6-(6)-7-(7)----------------|
|------------------------------------|


   ~~~          ~~~~~~                            ~~~~~~          ~~~
        |---3---|       |---3---|         |---3---|       |---3---|
  +E  E E    E  E +E  E E    E  E   +E  E E    E  E +E  E E    E  E
|---------------------------------|---------------------------------|
|---------------------------------|---------------------------------|
|---------------------------------|---------------------------------|
|---------------------------------|---------------------------------|
|---------------------------------|---------------------------------|
|-(6)-0-3s===5--6-(6)-0-3h===5--0-|-(0)-0-3h===5--0-(0)-0-3s===5--6-|
|
|  ~~~          ~~~~~~          ~~~~~~~~          ~~~~~~
|       |---3---|       |---3---|         |---3---|       |---3---|
|  E  E E   +E  E +E  E E   +E  E   +E  E E   +E  E +E  E E   +E  E
|---------------------------------|---------------------------------|
|---------------------------------|---------------------------------|
|---------------------------------|---------------------------------|
|---------------------------------|---------------------5-7b9r(7)p5-|
|--7--7-5b6-(6)-7-(7)-7-5b6-(6)-7-|-(7)-7-5b6-(6)-7-(7)-------------|
|---------------------------------|---------------------------------|


 ~~~~~          ~~~~~~
        |---3---|       |---3---|
  +E  E E    E  E +E  E E    E  E
|----------------------------------|
|----------------------------------|
|----------------------------------|
|----------------------------------|
|----------------------------------|
|-(6)-0-3s===5--6-(6)-0-3h===5--0--|
|
|  ~~~          ~~~~~~          ~
|       |---3---|       |---3---|
|  E  E E   +E  E +E  E E   +E  E
|----------------------------------|
|----------------------------------|
|----------------------------------|
|----------------------------------|
|--7--7-5b6-(6)-7-(7)-7-5b6-(6)-7--|
|----------------------------------|


        |---3---|
  +E  E E    E  E  Q    E       E
|-----------------------------------|
|-----------------------------------|
|-----------------------------------|
|-----------------------------------|
|-----------------------2-------2---|
|-(0)-0-3h===5--0--x\---0-------0---|
|
|  ~~~          ~~~~~~
|       |---3---|       |----3----|
| +E  E E   +E  E +E  E E   +E    E
|-----------------------------------|
|-----------------------------------|
|-----------------------------------|
|---------------------5-7b9r(7)p==5-|
|-(7)-7-5b6-(6)-7-(7)---------------|
|-----------------------------------|


  +H.                   E       E     +H.                   E       E
|-----------------------------------|-----------------------------------|
|-----------------------------------|-----------------------------------|
|-----------------------------------|-----------------------------------|
|-----------------------5-------5---|-(5)-------------------7-------7---|
|-(2)-------------------5-------5---|-(5)-------------------7-------7---|
|-(0)-------------------3-------3---|-(3)-------------------5-------5---|
|
|  ~~~          ~~~~~~            ~~~~~~~~          ~~~~~~
|       |---3---|       |----3----|         |---3---|       |----3----|
|  E  E E   +E  E +E  E E   +E    E   +E  E E   +E  E +E  E E   +E    E
|-----------------------------------|-----------------------------------|
|-----------------------------------|-----------------------------------|
|-----------------------------------|-----------------------------------|
|-----------------------------------|---------------------5-7b9r(7)p==5-|
|--7--7-5b6-(6)-7-(7)-7-5b6-(6)---7-|-(7)-7-5b6-(6)-7-(7)---------------|
|-----------------------------------|-----------------------------------|


  H.                   E       E
|----------------------------------|
|----------------------------------|
|----------------------------------|
|-7--------------------5-----------|
|-7--------------------5-----------|
|-5--------------------3-------0---|
|
| ~~           ~~~~~~            ~~~
|      |---3---|       |----3----|
| E  E E   +E  E +E  E E   +E    E
|----------------------------------|
|----------------------------------|
|----------------------------------|
|----------------------------------|
|-7--7-5b6-(6)-7-(7)-7-5b6-(6)---7-|
|----------------------------------|


                            ~~~~~~~~      ~~~~~~
                        |-3-|         |-3-|       |-3-|
   H              +E  E E E E   +E  E E E E +E  E E E E
|-----------------------------|-------------------------|
|-----------------------------|-------------------------|
|-----------------------------|-------------------------|
|--5--------------(5)---------|-------------------------|
|--5--------------(5)---------|-------------------------|
|--3--------------(3)-0-3s5-6-|-(6)-0-3s5-6-(6)-0-3h5-0-|
|
|~~~~~          ~~~~~~      ~~~~~~~~      ~~~~~~
|       |---3---|       |-3-|         |-3-|       |-3-|
| +E  E E   +E  E +E  E E E E   +E  E E E E +E  E E E E
|-----------------------------|-------------------------|
|-----------------------------|-------------------------|
|-----------------------------|-------------------------|
|-----------------------------|-------------------------|
|-(7)-7-5b6-(6)-7-(7)---------|-------------------------|
|---------------------0-3s5-6-|-(6)-0-3s5-6-(6)-0-3h5-0-|


  Gtrs I, II
            ~~~~~~      ~~~~~~~~      ~~~~~~                    ~~~~~~
        |-3-|       |-3-|         |-3-|       |-3-|         |-3-|
  +E  E E E E +E  E E E E   +E  E E E E +E  E E E E   +E  E E E E +Q   Q
|-------------------------|-------------------------|----------------------||
|-------------------------|-------------------------|----------------------||
|-------------------------|-------------------------|----------------------||
|-------------------------|-------------------------|----------------------||
|-------------------------|-------------------------|----------------------||
|-(0)-0-3h5-0-(0)-0-3s5-6-|-(6)-0-3s5-6-(6)-0-3h5-0-|-(0)-0-3h5-0-(0)--x\--||


  E5                      G5                      A5
  Gtr I
    H.              E E     H.              E E     H.              Q
    |               | |     |               | |     |               |
    /               / x     /               / x     /               /

  Gtr II
    Q    Q      Q   E E     Q    Q      Q   E E     Q    Q      Q   E E
|-----------------------|-----------------------|-----------------------|
|-----------------------|-----------------------|-----------------------|
|-----------------------|-----------------------|-----------------------|
|-/14-------------------|-/14-------------------|-/14-------------------|
|-------12b13--12--10s7-|-------12b13--12--10s7-|-------12b13--12--10s7-|
|-----------------------|-----------------------|-----------------------|


                                                               Fine
  F5                                            E5
  |-3-| |-3-| |-3-| |-3-|   |-3-| |-3-| |-3-|
  E E E E E E E E E E E E   E E E E E E q q q    W
  | | | | | | | | | | | |   | | | | | | | | |    |
  / / / / / / / / / / / /   / / / / / / / / /    /

  |-3-| |-3-| |-3-| |-3-|   |-3-| |-3-| |-3-|
  E E E E E E E E E E E E   E E E E E E q q Q    Q   +H      Q
|-------------------------|-------------------|-----------------*|
|-------------------------|-------------------|-12--(12)\-------*|
|-------------------------|-------------------|-12--(12)\-------*|
|-3-3-3-3-3-3-3-3-3-3-3-3-|-3-3-3-3-3-3-3-3-3-|-----------------*|
|-3-3-3-3-3-3-3-3-3-3-3-3-|-3-3-3-3-3-3-3-3-3-|-----------------*|
|-1-1-1-1-1-1-1-1-1-1-1-1-|-1-1-1-1-1-1-1-1-1-|-----------------*|


   Fill 2
    Gtr III
     |--3--|  |--3--|  |--3--|  |--3--|                |--3--|
     E  E  E  E  E  E  E  E  E  E  E  E  8x Q   Q   Q  E  E  E
||---------------------------------------||--------------------|
||o-------------------------------------o||--------------------|
||---------------------------------------||--------------12-12-|
||--14-14-14-14-14-14-14-14-14-14-14-14--||----14--14----------|
||o-------------------------------------o||--------------------|
||---------------------------------------||--------------------|


   |--3--|  |--3--|
   E  E  E  E  E  E  E     E  Q     +W            q   q   Q   Q
|--------------------------------|-------------|-------------------||
|--------------------------------|-------------|-12--12--12--12/---||
|-12-12-12-12-12-12-12b13----14--|-(14)--------|-12--12--12--12/---||
|-------------------------14-----|-------------|-------------------||
|--------------------------------|-------------|-------------------||
|--------------------------------|-------------|-------------------||
1 comment total.
0 reply
monkey_xxx2003 wrote on March 5 2005, 12:00 am

good tab

I want to post or [tab]
guest
You may want to rate the tab now too:
select rating
Please do not post tabs as comments. Select "correction" instead!