Oops, an error
Loading. Please wait.

Aint My Bitch Tab

ver4
ver4

Whole song

Interactive

More versions @911Tabs.com
21,374 views 39 this week
2 commentsread comments
1 2 3 4 5
excellent!
x 12
add to favorites launch autoscroll
font size
0
reset
Autoscroll
+/-
esc
set tempo
stop
Contributor
WARNING: You are trying to view
                                    content from Ultimate-Guitar.com
                                    in an unauthorized application,
                                    which is prohibited.

                                    Please use an official Ultimate
                                    Guitar Tabs application for iPhone,
                                    iPad or Android to access legitimate
                                    chords, guitar, bass, and drum tabs
                                    from Ultimate-Guitar.com database.

                                    Type "ultimate guitar tabs" in Apple
                                    App Store's or Android Market's
                                    search to find the application.
Band- Metallica
Song- Aint My Bitch

Gtr I (Eb Ab Db Gb Bb Eb) - 'James Hetfield - Rhythm w/dist'
Gtr II (Eb Ab Db Gb Bb Eb) - 'Kirk Hammett - Rhythm w/dist'
Gtr III (Eb Ab Db Gb Bb Eb) - 'Kirk Hammett - Lead w/dist'

Intro
  Q=168
 4/4
  Gtr II
    PM------|
  E E   +E  E H    Q     W               W
|-----|----------------|---------------|---------------|
|-----|----------------|---------------|---------------|
|-----|----------------|---------------|---------------|
|-----|-------5--------|---------------|---------------|
|-5-7-|-(7)---5----2---|---------------|---------------|
|-0-0-|-(0)-0-3----0---|---------------|---------------|
|
| Gtr I
|   PM------|                                ~
| E E   +E  E H    E E   E E q  q  E E   E E Q  q  E E
|-----|----------------|---------------|---------------|
|-----|----------------|---------------|---------------|
|-----|----------------|---------------|---------------|
|-----|-------5--------|---------------|-----5---------|
|-5-7-|-(7)---5----5-6-|-7-7-7--7--7-5-|-7-7----7--7-5-|
|-0-0-|-(0)-0-3----0-0-|-0-0-0--0--0-0-|-0-0----0--0-0-|


  H      Q  E E   +E  E H    Q     W               W
|---------------|----------------|---------------|---------------|
|---------------|----------------|---------------|---------------|
|---------------|----------------|---------------|---------------|
|---------------|-------5--------|---------------|---------------|
|-----------5-7-|-(7)---5----2---|---------------|---------------|
|-----------0-0-|-(0)-0-3----0---|---------------|---------------|
|-Rhy Fill 1      end Rhy Fill 1-|    
|
|             PM------|                                ~
| E E q  q  E E   +E  E H    E E   E E q  q  E E   E E Q  q  E E
|---------------|----------------|---------------|---------------|
|---------------|----------------|---------------|---------------|
|---------------|----------------|---------------|---------------|
|---------------|-------5--------|---------------|-----5---------|
|-7-7-7--7--5-7-|-(7)---5----5-6-|-7-7-7--7--7-5-|-7-7----7--7-5-|
|-0-0-0--0--0-0-|-(0)-0-3----0-0-|-0-0-0--0--0-0-|-0-0----0--0-0-|


  Gtr I    Gtrs I, II
              PM------|                  PM  PM
  E E q  q  E E   +E  E H    E E   E E E E E E E E
|---------------|----------------|-----------------|
|---------------|----------------|-----------------|
|---------------|----------------|-----------------|
|---------------|-------5--------|-----------------|
|-7-7-7--7--5-7-|-(7)---5----5-6-|-7-7-7---7---7-5-|
|-0-0-0--0--0-0-|-(0)-0-3----0-0-|-0-0-0-0-0-0-0-0-|
                                 |-Rhy Fig 1

      ~    PM            PM  PM      PM|
  E E Q  E E E E   E E E E E E E E   E E H    E E
|----------------|-----------------|--------------|
|----------------|-----------------|--------------|
|----------------|-----------------|--------------|
|-----5----------|-----------------|-----5--------|
|-7-7----7---7-5-|-7-7-7---7---5-7-|-----5----5-6-|
|-0-0----0-0-0-0-|-0-0-0-0-0-0-0-0-|-0-0-3----0-0-|
                                    end Rhy Fig 1-|

w/Rhy Fig 1 x2
  Gtr II
        PM  PM          ~    PM            PM  PM
  E E E E E E E E   E E Q  E E E E   E E E E E E E E   E E H    E E
|-----------------|----------------|-----------------|--------------|
|-----------------|----------------|-----------------|--------------|
|-----------------|----------------|-----------------|--------------|
|-----------------|-----5----------|-----------------|-----5--------|
|-7-7-7---7---7-5-|-7-7----7---7-5-|-7-7-7---7---5-7-|-----5----5-7-|
|-0-0-0-0-0-0-0-0-|-0-0----0-0-0-0-|-0-0-0-0-0-0-0-0-|-0-0-3--------|


  E E E E E     E E E   E E E E E     E E E
|---------------------|---------------------|
|---------------------|---------------------|
|---------------------|---------------------|
|-5---7---5b5.5-------|-5---7---5b5.5-------|
|---7---7-------7-5-7-|---7---7-------7-5-7-|
|---------------------|---------------------|


                            ~
  E E E E E     E E E   E E H    E E
|---------------------|--------------|
|---------------------|--------------|
|---------------------|--------------|
|-5---7---5b5.5-------|-5---5--------|
|---7---7-------7-5-7-|---7------5-7-|
|---------------------|--------------|

w/Rhy Fig 1 (1st 2 bars)
  E E E E E     E  E  E    E  E  E  E  E       E  E  E
|-----------------------|------------------------------|
|-----------------------|------------------------------|
|-----------------------|-12----14----12b12.5----------|
|-5---7---5b5.5---12-14-|----14----14---------14-12-14-|
|---7---7-------7-------|------------------------------|
|-----------------------|------------------------------|


   E  E  E  E  E       E  E  E    E  E  Q   +Q        +Q
|------------------------------|----------------------------||
|-------14---------------------|-------12--(12)b14===(12)r--||
|-12----14----12b12.5----------|-12----12--(12)b13===(12)r--||
|----14----14---------14-12-14-|----14----------------------||
|------------------------------|----------------------------||
|------------------------------|----------------------------||
|
|           PM         PM         PM|
|  E  E  E  E  E       E  E  E    E  E  H              Q
|------------------------------|----------------------------||
|------------------------------|----------------------------||
|------------------------------|----------------------------||
|------------------------------|--------5-------------------||
|--7--7--7-----7----------5--7-|--------5-------------------||
|--0--0--0--0--0-------0--0--0-|--0--0--3--------------x\---||


 Verse 1 + 3
  $$
  Gtrs I, II
  Rhy Fig 1


        PM  PM          ~    PM            PM  PM      PM|
  E E E E E E E E   E E Q  E E E E   E E E E E E E E   E E H    E E
|-----------------|----------------|-----------------|--------------|
|-----------------|----------------|-----------------|--------------|
|-----------------|----------------|-----------------|--------------|
|-----------------|-----5----------|-----------------|-----5----5-6-|
|-7-7-7---7---7-5-|-7-7----7---7-5-|-7-7-7---7---5-7-|-----5----0-0-|
|-0-0-0-0-0-0-0-0-|-0-0----0-0-0-0-|-0-0-0-0-0-0-0-0-|-0-0-3--------|
                                                     |-Rhy Fig 1A

        PM  PM          ~    PM            PM
  E E E E E E E E   E E Q  E E E E   E E E E E E E E   +E  E H.
|-----------------|----------------|-----------------|-------------||
|-----------------|----------------|-----------------|-------------||
|-----------------|-----5----------|-----------------|-------------||
|-7-7-7---7---7-5-|-7-7----7---7-5-|-7-7-7---7-7-5-7-|-(7)---5-----||
|-0-0-0-0-0-0-0-0-|-0-0----0-0-0-0-|-0-0-0-0-0-0-0-0-|-(0)-0-5-----||
|-----------------|----------------|-----------------|-------3-----||
                                                    end Rhy Fig 1A-|

 Pre-Chorus
  $
  Gtrs I, II
  E5
  W          +W          +W
  |           |           |
  /           /           /        To Dbl. Coda
|----------|-----------|-----------|


  +W          E E E E E E E E   E E E E E E E E
   |          | | | | | | | |   | | | | | | | |
   /          / / / / / / / /   / / / / / / / /
|-----------|-----------------|-----------------||


 Chorus
  Gtrs I, II
                                           PM--|
  H..       S S   H..       S S   H    +E  E E E
|---------------|---------------|-----------------|
|---------------|---------------|-----------------|
|-4---------x-x-|-2---------x-x-|-----------------|
|-4---------x-x-|-2---------x-x-|-5----(5)--------|
|-2---------x-x-|-0---------x-x-|-5----(5)-5-4-3--|
|---------------|---------------|-3----(3)-3-2-1--|
|-Rhy Fig 2

  PM--------------------------------------------------------------|
  S S S S S S S S S S S S S S S S   S S S S S S S S S S S S S S S S
|---------------------------------|---------------------------------|
|---------------------------------|---------------------------------|
|---------------------------------|---------------------------------|
|---------------------------------|---------------------------------|
|---------------------------------|---------------------------------|
|-0-0-0-0-3p0-0-0-0-0-3p0-0-0-3p0-|-0-0-0-0-3p0-0-0-0-0-3p0-0-0-3p0-|
                                                      end Rhy Fig 2-|

  Gtr II
  Q    E E +H          Q    E E +H
|--------0-(0)-------|--------0-(0)-------|
|------0-------------|------0-------------|
|-4------------------|-2------------------|
|-4------------------|-2------------------|
|-2------------------|-0------------------|
|--------------------|--------------------|
|
| Gtr I
| H..            S S   H..            S S
|--------------------|--------------------|
|--------------------|--------------------|
|-4--------------x-x-|-2--------------x-x-|
|-4--------------x-x-|-2--------------x-x-|
|-2--------------x-x-|-0--------------x-x-|
|--------------------|--------------------|


                             To Coda
             PM------|
  Q  E E +E  E E E   E E Q  Q  E E
|------0-(0)-------|-----------------||
|----0-------------|-----------------||
|------------------|-----------------||
|-5----------------|-----------------||
|-5----------5-4-3-|-2---------5-6---||
|-3----------3-2-1-|-0---------0-0---||
|
|            PM------|
| H      +E  E E E   E E Q  Q  E E
|------------------|-----------------||
|------------------|-----------------||
|------------------|-----------------||
|-5------(5)-------|-----------------||
|-5------(5)-5-4-3-|-2---------5-6---||
|-3------(3)-3-2-1-|-0---------0-0---||

w/Rhy Fig 1
        PM  PM          ~    PM            PM  PM      PM|
  E E E E E E E E   E E Q  E E E E   E E E E E E E E   E E H    E E
|-----------------|----------------|-----------------|--------------|
|-----------------|----------------|-----------------|--------------|
|-----------------|----------------|-----------------|--------------|
|-----------------|-----5----------|-----------------|-----5--------|
|-7-7-7---7---7-5-|-7-7----7---7-5-|-7-7-7---7---5-7-|-----5----5-7-|
|-0-0-0-0-0-0-0-0-|-0-0----0-0-0-0-|-0-0-0-0-0-0-0-0-|-0-0-3--------|


w/Rhy Fig 1 (1st 2 bars)
  E E E E E     E E E   E E E E E     E  E  E
|---------------------|-----------------------|
|---------------------|-----------------------|
|---------------------|-----------------------|
|-5---7---5b5.5-------|-5---7---5b5.5---12-14-|
|---7---7-------7-5-7-|---7---7-------7-------|
|---------------------|-----------------------|


   E  E  E  E  E       E  E  E    E  E  Q   +Q         +Q
|------------------------------|------------------------------||
|-------14---------------------|-------12--(12)b14====(12)r---||
|-12----14----12b12.5----------|-12----12--(12)b13====(12)r---||
|----14----14---------14-12-14-|----14------------------------||
|------------------------------|------------------------------||
|------------------------------|------------------------------||
|
|           PM         PM         PM|               PM------|
|  E  E  E  E  E       E  E  E    E  E  Q   +E      E   E   E
|------------------------------|------------------------------||
|------------------------------|------------------------------||
|------------------------------|------------------------------||
|------------------------------|--------5---(5)---------------||
|--7--7--7-----7----------5--7-|--------5---(5)-----5---4---3-||
|--0--0--0--0--0-------0--0--0-|--0--0--3---(3)-----3---2---1-||


 Verse 2
w/Rhy Fig 1

|-----------------|----------------|-----------------|



  Gtr III                            |-w/Rhy Fig 1 (1st 3 bars)
  E   E  E  E  a      +E   +E   E  E    H.            +Q       W
|------------------------------------|-----------------------|----------------|
|-------12-14-14b15==(14)r(14)-12----|-----------------------|----------------|
|-------12-14-14b16==(14)r(14)-12-12-|-12------------(12)\---|----------------|
|---/14---------------------------14-|-14------------(14)\---|----------------|
|------------------------------------|-----------------------|----------------|
|------------------------------------|-----------------------|----------------|


                    |-w/Rhy Fig 1a
  H       Q    E  E    +E   E  E  Q   E  E  E    W
|-------------------|-------------------------|------------------|
|-------------14-12-|-(12)-12-14-12--12-12h13-|-14---------------|
|-------------14-12-|-(12)-12-14-12--12-12h13-|-14---------------|
|-------------------|-------------------------|------------------|
|-------------------|-------------------------|------------------|
|-------------------|-------------------------|------------------|



   +W                  +W                   +Q    H     Q    D.S. al Coda
|-------------------|--------------------|-----------------||
|-(14)--------------|-(14)---------------|-(14)------------||
|-(14)--------------|-(14)---------------|-(14)------------||
|-------------------|--------------------|-----------------||
|-------------------|--------------------|-----------------||
|-------------------|--------------------|-----------------||


  &
  Gtr II
  W               W               H      Q  E E
|---------------|---------------|---------------|
|---------------|---------------|---------------|
|---------------|---------------|---------------|
|---------------|---------------|---------------|
|---------------|---------------|-----------5-7-|
|---------------|---------------|-----------0-0-|
|
| Gtr I
|                     ~                     PM|
| E E q  q  E E   E E Q  q  E E   E E q  q  E E
|---------------|---------------|---------------|
|---------------|---------------|---------------|
|---------------|---------------|---------------|
|---------------|-----5---------|---------------|
|-7-7-7--7--7-5-|-7-7----7--7-5-|-7-7-7--7--5-7-|
|-0-0-0--0--0-0-|-0-0----0--0-0-|-0-0-0--0--0-0-|


   PM-|
  +E  E H    Q       E E E E E     E E E   E E E E E     E E E
|----------------||----------------------|---------------------|
|----------------||o---------------------|---------------------|
|----------------||----------------------|---------------------|
|-------5--------||--5---7---5b5.5-------|-5---7---5b5.5-------|
|-(7)---5----2---||o---7---7-------7-5-7-|---7---7-------7-5-7-|
|-(0)-0-3----0---||----------------------|---------------------|
|
|  PM-|
| +E  E H    E E     E E E E E     E E E   E E E E E     E E E
|----------------||----------------------|---------------------|
|----------------||o---------------------|---------------------|
|----------------||----------------------|---------------------|
|-------5--------||--5---7---5b5.5-------|-5---7---5b5.5-------|
|-(7)---5----5-7-||o---7---7-------7-5-7-|---7---7-------7-5-7-|
|-(0)-0-3--------||----------------------|---------------------|
                  |-Riff A

  Gtr I                              Gtrs I, II
                            ~
  E E E E E     E E E   E E H    E E   E E E E E     E E E
|---------------------|--------------|---------------------|
|---------------------|--------------|---------------------|
|---------------------|--------------|---------------------|
|-5---7---5b5.5-------|-5---5--------|-5---7---5b5.5-------|
|---7---7-------7-5-7-|---7------5-7-|---7---7-------7-5-7-|
|---------------------|--------------|---------------------|


  1.
                                                      ~
  E E E   +E  E     E E E   E E E E E     E E E   E E H    E E
|-------------------------|---------------------|---------------||
|-------------------------|---------------------|--------------o||
|-------------------------|---------------------|---------------||
|-5-7-7b9r(7)-5b5.5-------|-5---7---5b5.5-------|-5---5---------||
|-------------------7-5-7-|---7---7-------7-5-7-|---7------5-7-o||
|-------------------------|---------------------|---------------||
               end Riff A-|

  2.
  Gtr III
  W                     W                     W
|---------------------|---------------------|--------------||
|---------------------|---------------------|--------------||
|---------------------|---------------------|-4S===========||
|---------------------|---------------------|-4S===========||
|---------------------|---------------------|--------------||
|---------------------|---------------------|--------------||
|
| Gtrs I, II
|                                                 ~
| E E E   +E  E E E E   E E E E E     E E E   E E H    E E
|---------------------|---------------------|--------------||
|---------------------|---------------------|--------------||
|---------------------|---------------------|--------------||
|-5-7-7b9r(7)-5h7-----|-5---7---5b5.5-------|-5---5--------||
|-----------------5-7-|---7---7-------7-5-7-|---7------2-4-||
|---------------------|---------------------|--------------||


                    ~~~~~~~~~~~~~~~~~~~~~~
   H        E E  E  E     +H         +E   E  E   E
|----------------------|----------------------------|
|----------------------|------------------------11--|
|-11-------11s9----11\-|-(11)-------(11)\-9s11-(11)-|
|-11------------11-----|----------------------------|
|----------------------|----------------------------|
|----------------------|----------------------------|
|
|  E E E E  E E  E  E      E  E E E   E   E  E   E
|----------------------|----------------------------|
|----------------------|----------------------------|
|--2---4----2----------|---2----4-----2-------------|
|--2---4----2----------|---2----4-----2-------------|
|----4---4----4--2--4--|------4---4-------4--2---4--|
|----------------------|----------------------------|


                   |----3----|
   +Q     +Q       Q    Q    Q
|--------------------------------|
|-(11)---(11)\---/11---12---13---|
|-(11)---(11)\-------------------|
|--------------------------------|
|--------------------------------|
|--------------------------------|
|
|   E  E   E   E   E E    E    E
|--------------------------------|
|--------------------------------|
|---2------4-------2-------------|
|---2------4-------2-------------|
|------4-------4-----4----2----4-|
|--------------------------------|


  E   Q.     +Q.     E    E  E  E  E  E  E  E  E    E  E  E    E  E  E  E  E
|----------------------|-------14----------14----|-------14------------14-----|
|---/14-----(14)----14s|=12s14----14s12s14----14s|=12s14------14s12s14----14s=|
|----------------------|-------------------------|----------------------------|
|----------------------|-------------------------|----------------------------|
|----------------------|-------------------------|----------------------------|
|----------------------|-------------------------|----------------------------|
|
| E   E  H        E  E    E  E  E  E  E  E  E  E    E  E  E    E  E  E  E  E

|----------------------|-------------------------|----------------------------|
|----------------------|-------------------------|----------------------------|
|-2------2-------------|--2-----4-----2----------|--2-----4b5--4--2-----------|
|-2------2-------------|--2-----4-----2----------|--2--4--4b5--4--2--4--------|
|-----4-----------2--4-|-----4-----4-----4--2--4-|----------------------2--4--|
|----------------------|-------------------------|----------------------------|


                                     ~~                 ~~~~~~~~~~~~      ~~
   E  E  E  E  E  E  Q      H        Q   +Q          E  Q    E  +Q     E  E
|-------14----------14---|-14S======17--(17)\---||-----16-------------16-----|
|-12s14----14s12s14------|-14/------------------||-/16------16-(16)------16--|
|------------------------|----------------------||---------------------------|
|------------------------|----------------------||---------------------------|
|------------------------|----------------------||---------------------------|
|------------------------|----------------------||---------------------------|
|
|  E  E  E  E  E  E  E E    E  E H        E   E      E  E E  E   E  E  E  E
|------------------------|----------------------||---------------------------|
|------------------------|----------------------||---------------------------|
|--2-----4-----2---------|--2----2--------4---3-||---4----6------4-----------|
|--2-----4-----2---------|--2----2--------4---3-||---4----6------4-----------|
|-----4-----4-----4--2-4-|-----4----------------||------6----6------6--4--6--|
|------------------------|----------------------||---------------------------|


    ~~~~     ~~                                        ~~~
   +Q     E  E  +E   E  Q        E   Q.       Q.       E
|--------16---------16-------|-/19-(19)\-----------------|
|-(16)------16-(16)----16\---|------19\--------------/12-|
|----------------------------|---------------/9\---------|
|----------------------------|---------------------------|
|----------------------------|---------------------------|
|----------------------------|---------------------------|
|
|   E  E  E  E   E   E  E  E     E   E   E E  E  E E   E
|----------------------------|---------------------------|
|----------------------------|---------------------------|
|---4-----6------4-----------|---4-------6----4----------|
|---4-----6------4-----------|---4-------6----4----------|
|------6-----6-------6--4--6-|-------6-----6-----6-4---6-|
|----------------------------|---------------------------|


 ~~~~~~
   +H        +H           Q.    E Q   Q
|----------------------|------------------|
|-(12)------(12)\------|-/7s====5-9s==7---|
|----------------------|------------------|
|----------------------|------------------|
|----------------------|------------------|
|----------------------|------------------|
|
|   E  E H         E E    E E E E E E E E
|----------------------|------------------|
|----------------------|------------------|
|---4----4-------------|--4---6---4-------|
|---4----4-------------|--4---6---4-------|
|------6-----------4-6-|----6---6---6-4-6-|
|----------------------|------------------|


              ~~~~~~~~~~~~~~~
   E  E  E    E  +Q     +Q        Q.    E Q   Q      E  E  E  E  Q     Q
|-------11s==14-(14)---(14)\---|------------------|-------11s14-14\--/19\---||
|-12s11------------------------|-/7s====5-9s==7---|-12s11-------------------||
|------------------------------|------------------|-------------------------||
|------------------------------|------------------|-------------------------||
|------------------------------|------------------|-------------------------||
|------------------------------|------------------|-------------------------||
|
|  E  E  E    E   E  E   E   E    E E E E E E E E    Q     Q     Q     E  E
|------------------------------|------------------|-------------------------||
|------------------------------|------------------|-------------------------||
|--4--6--6b7--6---4------------|--4---6---4-------|--4-----4-----4----------||
|--4--6--6b7--6---4------------|--4---6---4-------|--4-----4-----4----------||
|--------------------6---4---6-|----6---6---6-4-6-|--------------------5--7-||
|------------------------------|------------------|-------------------------||


w/Riff A
    ~~~~~~~~~~~~~~~~~~~~~~~~~~~~~~
    Q    +H.                  +H.                +Q
|-/19---(19)---------------|-(19)---------------(19)\---|
|--------------------------|----------------------------|
|--------------------------|----------------------------|
|--------------------------|----------------------------|
|--------------------------|----------------------------|
|--------------------------|----------------------------|
|
| Gtr II
|   E E   E  E E     E E E     E  E E E E     E   E   E
|--------------------------|----------------------------|
|--------------------------|----------------------------|
|--------------------------|----------------------------|
|---5-----7----5b5.5-------|---5----7---5b5.5-----------|
|-----7------7-------7-5-7-|------7---7-------7---5---7-|
|--------------------------|----------------------------|

    H          H               Q.     E +H
|-/19\-------/12\----------|------------------------|
|--------------------------|-/12\-----7-(7)s========|
|--------------------------|----------7-(7)s========|
|--------------------------|------------------------|
|--------------------------|------------------------|
|--------------------------|------------------------|
|
|                                   ~~~~~~~~~~~~~~~~
|   E  E E E   E     E E E     E  E Q   +Q.    +E
|--------------------------|------------------------|
|--------------------------|------------------------|
|--------------------------|------------------------|
|---5----7-----5b5.5-------|---5----5---(5)----(5)\-|
|------7---7---------7-5-7-|------7-----------------|
|--------------------------|------------------------|


  E5
  Gtr II
  W                     +W
  |                      |
  /                      /

  Gtr III
  W                     +W
|---------------------|-----------------------|
|-9-------------------|-(9)-------------------|
|-9-------------------|-(9)-------------------|
|---------------------|-----------------------|
|---------------------|-----------------------|
|---------------------|-----------------------|



  +W                      +W
   |                       |
   /                       /

  +W                      +W               D.S.S. al Dbl. Coda
|-----------------------|-----------------||
|-(9)-------------------|-(9)-------------||
|-(9)-------------------|-(9)-------------||
|-----------------------|-----------------||
|-----------------------|-----------------||
|-----------------------|-----------------||
|
|                               ~
|  E  E E E E     E E E    E  E H    E E
|-----------------------|-----------------||
|-----------------------|-----------------||
|-----------------------|-----------------||
|--5----7---5b5.5-------|--5----5---------||
|-----7---7-------7-5-7-|-----7------5-6--||
|-----------------------|------------0-0--||


  &&
  E5          G5
  Gtrs I, II
  +W          W          +W
   |          |           |
   /          /           /
|-----------|----------|-------|


  F#5        F5         E5
  W          W          E E E E E E E E   E E E E E E E E
  |          |          | | | | | | | |   | | | | | | | |
  /          /          / / / / / / / /   / / / / / / / /
|----------|----------|-----------------|------------------||


w/Rhy Fig 2 x4
  Gtr II
                                           PM-----
  H..       S S   H..       S S   H    +E  E E E
|---------------|---------------|----------------|
|---------------|---------------|----------------|
|-4---------x-x-|-2---------x-x-|----------------|
|-4---------x-x-|-2---------x-x-|-5----(5)-------|
|-2---------x-x-|-0---------x-x-|-5----(5)-5-4-3-|
|---------------|---------------|-3----(3)-3-2-1-|
|-Rhy Fig 2A

 -----|        PM--|        PM|
  S S E    E   S S E    E   S S  E
|--------------------------------------|
|--------------------------------------|
|---------12-----------12-------12-----|
|---------12-----------12-------12-----|
|--------------------------------------|
|-0-0-0--------0-0-0--------0-0--------|


  PM--|        PM--|        PM|
  S S E    E   S S E    E   S S  E     Q    E E +H          Q    E E +H
|------------------------------------|--------0-(0)-------|--------0-(0)-------|
|------------------------------------|------0-------------|------0-------------|
|---------12-----------12-------12---|-4------------------|-2------------------|
|---------12-----------12-------12---|-4------------------|-2------------------|
|------------------------------------|-2------------------|-0------------------|
|-0-0-0--------0-0-0--------0-0------|--------------------|--------------------|


             PM---------------------------------------
  Q  E E +E  E E E   S S S S S S S S S S S S S S S S
|------0-(0)-------|---------------------------------|
|----0-------------|---------------------------------|
|------------------|---------------------------------|
|-5----------------|---------------------------------|
|-5----------5-4-3-|---------------------------------|
|-3----------3-2-1-|-0-0-0-0-3p0-0-0-0-0-3p0-0-0-3p0-|


 -------------------------------|
  S S S S S S S S S S S S S S S S
|-----------------------------------|
|-----------------------------------|
|-----------------------------------|
|-----------------------------------|
|-----------------------------------|
|-0-0-0-0-3p0-0-0-0-0-3p0-0-0-3p0---|
                     end Rhy Fig 2A-|

Rhy Fig 2A


  Gtr II
  PM-----------------------------------------------------------------|
  S S S S S S S S S S S S S S S S   S S S S S S S S S S  S S  S  S S S
|---------------------------------|------------------------------------|
|---------------------------------|------------------------------------|
|---------------------------------|------------------------------------|
|---------------------------------|------------------------------------|
|---------------------------------|------------------------------------|
|-0-0-0-0-3p0-0-0-0-0-3p0-0-0-3p0-|-0-0-0-0-3p0-0-0-0-0--3p0--0--0-3p0-|
|
| Gtr I
| PM----------------------------|
| S S S S S S S S S S S S S S S S   E   E   E   E   E    E    Q
|---------------------------------|------------------------------------|
|---------------------------------|------------------------------------|
|---------------------------------|------------------------------------|
|---------------------------------|-5s==7---7s==9---9s==10---10\-------|
|---------------------------------|------------------------------------|
|-0-0-0-0-3p0-0-0-0-0-3p0-0-0-3p0-|-3s==5---5s==7---7s===8----8\-------|


  Gtrs I, II
|-Rhy Fig 3                            end Rhy Fig 3-|
  B5            A5           G5           E5
   W            W            W            W
   |            |            |            |
   /            /            /            /

  Gtr III
   H.      Q    H.      Q    H.      Q    H.      Q
|-------------|------------|------------|-------------|
|-------------|------------|------------|-------------|
|-------------|------------|------------|-------------|
|-/9-------9s=|=7-------7s=|=5-------5s=|=2-------2s==|
|-------------|------------|------------|-------------|
|-------------|------------|------------|-------------|


w/Rhy Fig 3 x2.5

  H.      Q    H.      Q    H.        Q
|------------|------------|--------------|
|------------|------------|--------------|
|------------|------------|--------------|
|-9-------9s=|=7-------7s=|=5-------/14--|
|------------|------------|--------------|
|------------|------------|--------------|



  W              H.      Q     H.       Q
|----------|----------------|---------------|
|----------|---/12------12s=|=10-------10s==|
|----------|----------------|---------------|
|----------|----------------|---------------|
|----------|----------------|---------------|
|-0--------|----------------|---------------|


w/Rhy Fig 2 (bars 3 + 4 only)
  H.                       Q
|-----------------------------------|
|-8------------------------8\-------|
|-----------------------------------|
|-----------------------------------|
|-----------------------------------|
|-----------------------------------|


    E    E    E     E    E    E    Q            E  E  E  E  Q   Q
|-------12---12---------12--------12\-------|-----12-12-12-12--12\----|
|-/12-------------/12--------12---12\-------|-/12-12-12-12-12--12\----|
|-------------------------------------------|-------------------------|
|-------------------------------------------|-------------------------|
|-------------------------------------------|-------------------------|
|-------------------------------------------|-------------------------|


  A5                      G5                 F#5 F5
  Gtr I                 Gtrs I, II
    W                       H          +E  E  E  E
    |                       |           |  |  |  |
    /                       /           /  /  /  /

  Gtr III
    E  E  E  E  Q   Q       E  E  E  E  E  E  Q
|-----12-12-12-12--12\--|-----12-12-12-12-12-12\---|
|-/12-12-12-12-12--12\--|-/12----------------------|
|-----------------------|--------------------------|
|-----------------------|--------------------------|
|-----------------------|--------------------------|
|-----------------------|--------------------------|


    Q    Q     Q   Q      a   Q    Q   H
|-/12------------------|----------------------|
|-------12\------------|----------------------|
|------------------9---|-(9)s12\---9----------|
|-------------/9-------|----------------------|
|----------------------|----------------------|
|----------------------|----------------------|
|
| Gtrs I, II                           Gtr I
|   PM---------------|
|   E E  E  E  E E E E        E  E E E Q  E E
|----------------------|----------------------|
|----------------------|----------------------|
|----------------------|----------------------|
|----------------------|----------------------|
|---2-5--4--3--2-5-4-3-|------2--5-4-3----5-6-|
|---0-3--2--1--0-3-2-1-|------0--3-2-1----0-0-|


                                |-w/Rhy Fill 1
                      ~                       PM------|
  E E q  q  E E   E E Q  q  E E   E E q  q  E E   +E  E Q  +E     +E   Q
|---------------|---------------|---------------|-------------------------*|
|---------------|---------------|---------------|-------------------------*|
|---------------|---------------|---------------|-------------------------*|
|---------------|-----5---------|---------------|-------------------------*|
|-7-7-7--7--7-5-|-7-7----7--7-5-|-7-7-7--7--5-7-|-(7)------------------2--*|
|-0-0-0--0--0-0-|-0-0----0--0-0-|-0-0-0--0--0-0-|-(0)-0-3--(3)b5==(3)r-0--*|
comments
print report bad tab
2 comments total.
0 reply
modestguitarist wrote on August 26 2009, 07:57 am

Absolutely spot on mate....top job!

0 reply
CAPTAINBEEFHEAR wrote on January 3 2011, 12:34 pm

ach cut the dss al coda pish n tell us it in english pal. whats played at 3:50 with the slightly extended final pre-chorus

other than the fact that it looks too much like a music score to be called a tab, brilliant job

I want to post or [tab]
guest
You may want to rate the tab now too:
select rating
Please do not post tabs as comments. Select "correction" instead!