Oops, an error
Loading. Please wait.

All Nightmare Long Bass Tab

ver2
ver2
More versions @911Tabs.com
42,093 views 51 this week
3 commentsread comments
1 2 3 4 5
excellent!
x 11
Autoscroll
+/-
esc
set tempo
stop
Contributor
Tuning
D A D G B E
Hey! There's an official Ultimate Guitar app which is ideal
for learning songs when you're away from computer. Get the app
WARNING: You are trying to view
                                    content from Ultimate-Guitar.com
                                    in an unauthorized application,
                                    which is prohibited.

                                    Please use an official Ultimate
                                    Guitar Tabs application for iPhone,
                                    iPad or Android to access legitimate
                                    chords, guitar, bass, and drum tabs
                                    from Ultimate-Guitar.com database.

                                    Type "ultimate guitar tabs" in Apple
                                    App Store's or Android Market's
                                    search to find the application.
Band: Metallica
Song: All Nightmare Long
Album: Death Magnetic (2008)
Bassist: Robert Trujillo
Tuning: Drop D

Note:
I made this tab based on the bass master track of the song, so you can be
completely sure that this tab is 100% correct. 

You can hear the bass master track here:
www.youtube.com/watch?v=vK74taWRRC4

Intro

G|----------|
D|----------|
A|----------| x2
D|-0-6-5-00-|
B|----------|

G|-------------|
D|-------------|
A|-------------|
D|-0-6-5-0-0-0-|
B|-------------|

G|----------------------------|
D|----------------------------|
A|----------------------------|
D|-0-6-5-00-0--00-0--65-0--65-|
B|----------------------------|

G|-----------------------------------------------------------------
D|-----------------------------------------------------------------
A|-----------------------------------------------------------------
D|-1212121212121212121212121212121212121212121212121212121212121212
B|-----------------------------------------------------------------

---------------------------------------------|
---------------------------------------------|
---------------------------------------------| (12, 11 and 10, not
12121212111111111010101099998888777766665555-|  1 and 2, 1 and 0
---------------------------------------------|  or 1)

G|---------------------------------|
D|---------------------------------|
A|---------------------------------| x4
D|-111-0-0-0-0-0-0-0-0-0-0-0-0-0-0-|
B|---------------------------------|

G|-------------------------------------|
D|-------------------------------------|
A|-------------------------------------|
D|-111-0-0-0-1-1-0-0-1-1-0-222-333-111-|
B|-------------------------------------|

G|---------------------------------|
D|---------------------------------|
A|---------------------------------| x6
D|-0-0-0-1-1-0-0-1-1-0-222-333-111-|
B|---------------------------------|

G|-------------------|
D|-------------------|
A|-------------------|
D|-0-0-0-1-1-0-0-1-1-|
B|-------------------|

G|-----------------|
D|-----------------|
A|-----------------|
D|-3-0-5-0-3-0-5-0-|
B|-----------------|

G|--------------|--------------|--------------|----------|
D|--------------|--------------|--------------|----------|
A|--------------|--------------|--------------|----------| x2
D|-----3--------|-----3--------|-----3--------|----------|
B|-3-3---333333-|-3-3---333333-|-3-3---333333-|-33-11-66-|

G|-------------------------------|
D|-------------------------------|
A|-------4--5--------------------|
D|-7--8--------3-33-33-33-55555\-|
B|-------------------------------|

G|--------------|--------------|--------------|----------|
D|--------------|--------------|--------------|----------|
A|--------------|--------------|--------------|----------|
D|-----3--------|-----3--------|-----3--------|----------|
B|-3-3---333333-|-3-3---333333-|-3-3---333333-|-33-11-66-|

G|--------------------------|
D|--------------------------|
A|-------4--5--888888888----|
D|-7--8-------------------2-|
B|--------------------------|

G|--------------------------------------------------------------------|
D|--------------------------------------------------------------------|
A|--------------------------------------------------------------------|
D|-22222222222222222222222222222222222222222222222222222222222222-0-0-|
B|--------------------------------------------------------------------|

Verse 1

G|------------------------------------|
D|------------------------------------|
A|------------------------------------| x2
D|-222222222222222222222222222222-0-0-|
B|------------------------------------|

G|----------------------------------|
D|----------------------------------|
A|----------------------------------|
D|-22222222222222222222222222222222-|
B|----------------------------------|
 |
G|--------------------------------------------------|
D|--------------------------------------------------|
A|--------------------------------------------------|
D|-222222222222222210101010101010101010101010101010-| (10, not 1 and 0)
B|--------------------------------------------------|

G|---------------|
D|---------------|
A|---------------| x3
D|-999922223333/-|
B|---------------|

G|--------------|
D|--------------|
A|--------------|
D|-999922223333-|
B|--------------|

G|---------------------------|
D|---------------------------|
A|---------------------------|
D|-2-2-2-2-0-0-0-2-2-2-2-0-0-|
B|---------------------------|

G|-----------------------|
D|-----------------------|
A|-------4--5------------|
D|-7--8--------333333333-|
B|-----------------------|

G|--------------|--------------|--------------|----------|
D|--------------|--------------|--------------|----------|
A|--------------|--------------|--------------|----------|
D|-----3--------|-----3--------|-----3--------|----------|
B|-3-3---333333-|-3-3---333333-|-3-3---333333-|-33-11-66-|

G|-----------------------|
D|-----------------------|
A|-------4--5------------|
D|-7--8--------333333333-|
B|-----------------------|

Chorus

G|------------------------------------------------------------|
D|------------------------------------------------------------|
A|------------------------------------------------------------| x4
D|----------------------------------------------10-10-9-9-9-7-|
B|-3-3--3-3-3-3-3-3-3--3-3-3-3-3-3-3--3-3-3-3-3---------------|

G|-------|
D|-------|
A|-------|
D|-------|
B|-4-4-4-|

G|-------------------------------------|
D|-------------------------------------|
A|-------------------------------------|
D|-111-0-0-0-1-1-0-0-1-1-0-222-333-111-|
B|-------------------------------------|

G|---------------------------------|
D|---------------------------------|
A|---------------------------------| x2
D|-0-0-0-1-1-0-0-1-1-0-222-333-111-|
B|---------------------------------|

G|-------------------|
D|-------------------|
A|-------------------|
D|-0-0-0-1-1-0-0-1-1-|
B|-------------------|

G|-----------------|
D|-----------------|
A|-----------------|
D|-3-0-5-0-3-0-5-0-|
B|-----------------|

G|--------------|--------------|--------------|----------|
D|--------------|--------------|--------------|----------|
A|--------------|--------------|--------------|----------| x2
D|-----3--------|-----3--------|-----3--------|----------|
B|-3-3---333333-|-3-3---333333-|-3-3---333333-|-33-11-66-|

G|--------------------------|
D|--------------------------|
A|-------4--5--888888888----|
D|-7--8-------------------2-|
B|--------------------------|

G|--------------------------------------------------------------------|
D|--------------------------------------------------------------------|
A|--------------------------------------------------------------------|
D|-22222222222222222222222222222222222222222222222222222222222222-0-0-|
B|--------------------------------------------------------------------|

Verse 2

G|------------------------------------|
D|------------------------------------|
A|------------------------------------| x2
D|-222222222222222222222222222222-0-0-|
B|------------------------------------|

G|----------------------------------|
D|----------------------------------|
A|----------------------------------|
D|-22222222222222222222222222222222-|
B|----------------------------------|
 |
G|--------------------------------------------------|
D|--------------------------------------------------|
A|--------------------------------------------------|
D|-222222222222222210101010101010101010101010101010-| (10, not 1 and 0)
B|--------------------------------------------------|

G|---------------|
D|---------------|
A|---------------| x3
D|-999922223333/-|
B|---------------|

G|--------------|
D|--------------|
A|--------------|
D|-999922223333-|
B|--------------|

G|---------------------------|
D|---------------------------|
A|---------------------------|
D|-2-2-2-2-0-0-0-2-2-2-2-0-0-|
B|---------------------------|

G|-----------------------|
D|-----------------------|
A|-------4--5------------|
D|-7--8--------333333333-|
B|-----------------------|

G|--------------|--------------|--------------|----------|
D|--------------|--------------|--------------|----------|
A|--------------|--------------|--------------|----------|
D|-----3--------|-----3--------|-----3--------|----------|
B|-3-3---333333-|-3-3---333333-|-3-3---333333-|-33-11-66-|

G|-----------------------|
D|-----------------------|
A|-------4--5------------|
D|-7--8--------333333333-|
B|-----------------------|

Chorus

G|------------------------------------------------------------|
D|------------------------------------------------------------|
A|------------------------------------------------------------|
D|----------------------------------------------10-10-9-9-9-7-|
B|-3-3--3-3-3-3-3-3-3--3-3-3-3-3-3-3--3-3-3-3-3---------------|

G|---------------------------------------------------------------|
D|---------------------------------------------------------------|
A|---------------------------------------------------------------|
D|----------------------------------------------10-10-10-9-9-9-7-|
B|-3-3--3-3-3-3-3-3-3--3-3-3-3-3-3-3--3-3-3-3-3------------------|

G|------------------------------------------------------------|
D|------------------------------------------------------------|
A|------------------------------------------------------------| x2
D|----------------------------------------------10-10-9-9-9-7-|
B|-3-3--3-3-3-3-3-3-3--3-3-3-3-3-3-3--3-3-3-3-3---------------|

G|-------|
D|-------|
A|-------|
D|-------|
B|-4-4-4-|

G|-------------------|
D|-------------------|
A|-------------------|
D|-77773333555511110-|
B|-------------------|

Guitar solo 1

G|--------|
D|--------|
A|--------| x4
D|-000007-|
B|--------|

G|-----|
D|-----|
A|-----|
D|-321-|
B|-----|

G|-----------|------------|
D|-----------|------------|
A|-----------|------------| x8
D|-000007-77-|-333333-321-|
B|-----------|------------|

G|---------|----------|---------|------------|
D|---------|----------|---------|------------|
A|-----2-2-|-1--------|-----2-2-|-1----------|
D|-2-0-----|---0-3-33-|-2-0-----|---0-3--321-|
B|---------|----------|---------|------------|

G|---------|---------|-------------------|
D|---------|---------|-------------------|
A|-----2-2-|-1-------|-----2-2/----------|
D|-2-0-----|---0-3-3-|-2-0------77--555--|
B|---------|---------|------------66---4-|

G|--------|
D|--------| x3
A|--------|
D|-000007-|
B|--------|

G|-------------------|
D|-------------------| x2
A|-------------------|
D|-000007\-000007\/7-|
B|-------------------|

G|-----|
D|-----|
A|-----|
D|-3/7-|
B|-----|

G|---------------------------|
D|---------------------------|
A|---------------------------| x2
D|-7-8-7-3-7-8-7-3-0-0-0-0-0-|
B|---------------------------|

G|---------------------------------------------------|
D|---------------------------------------------------|
A|---------------------------------------------------|
D|-7-8-7-3-0-7-7-8-7-7-7-7-7-6-6-7-6-2-2-3-2-2-2-2-2-|
B|---------------------------------------------------|

G|---------------------------|
D|---------------------------|
A|---------------------------| x2
D|-7-8-7-3-7-8-7-3-0-0-0-0-0-|
B|---------------------------|

G|---------------------------------------------------|
D|---------------------------------------------------|
A|---------------------------------------------------|
D|-7-8-7-3-0-7-7-8-7-7-7-7-7-6-6-7-6-2-2-3-2-2-2-2-2-|
B|---------------------------------------------------|

G|------------------------------------------------------|
D|------------------------------------------------------|
A|------------------------------------------------------|
D|-0000000000000000000000000000002222222222222222222222-|
B|------------------------------------------------------|

Guitar solo 2

G|---------|
D|---------|
A|---------|
D|-9-5-7-3-|
B|---------|

G|-----------------------------------------|
D|-----------------------------------------|
A|-----------------------------------------|
D|-222-2-2-2-2-2-2-2-2-222-2-2-2-2-2-2-2-2-|
B|-----------------------------------------|
 
G|-----------------------------------------|
D|-----------------------------------------|
A|-----------------------------------------|
D|-333-3-3-3-3-3-3-3-3-333-3-3-3-3-3-3-3-3-|
B|-----------------------------------------|
 
G|-----------------------------------------|
D|-----------------------------------------|
A|-333-3-3-3-3-3-3-3-3-333-3-3-3-3-3-3-3-3-|
D|-----------------------------------------|
B|-----------------------------------------|

G|-----------------------------------|
D|-----------------------------------|
A|-----------------------------------|
D|-555-5-5-5-5-5-5-5-5-555-5-5-5-4-3-|
B|-----------------------------------|

G|-----------------------|
D|-----------------------|
A|-----------------------|
D|-222-22-22-2-22-2-22-2-|
B|-----------------------|

G|---------------------|
D|---------------------|
A|---------------------|
D|-33-3-33-3-33-3-33-3-|
B|---------------------|

G|---------------------|
D|---------------------|
A|-33-3-33-3-33-3-33-3-|
D|---------------------|
B|---------------------|

G|----------------------|
D|----------------------|
A|----------------------|
D|-55-5-55-5-55-5-5-4-3-|
B|----------------------|

G|---------------------|
D|---------------------|
A|---------------------|
D|-22-2-22-2-22-2-22-2-|
B|---------------------|

G|-------------------------------------------|
D|-------------------------------------------|
A|-------------------------------8-7-6-5-6-7-|
D|-00000000000000000000000000000-------------|
B|-------------------------------------------|

G|---------------------------|
D|---------------------------|
A|---------------8-7-6-5-6-7-|
D|-0000000000000-------------|
B|---------------------------|

G|--------------------------------------|
D|--------------------------------------|
A|---------------8-7-6-5-6-7--5-4-3-2-3-|
D|-0000000000000------------------------|
B|--------------------------------------|

G|--------------------------------|
D|--------------------------------|
A|--------------------------------|
D|-00000000000000000000000000-321-|
B|--------------------------------|

G|------------------|
D|------------------|
A|-55555555555\-----| x4
D|--------------321-|
B|------------------|

G|-----------------|
D|-----------------|
A|-55555555555\----|
D|--------------32-|
B|-----------------|

Chorus

G|------------------------------------------------------------|
D|------------------------------------------------------------|
A|------------------------------------------------------------|
D|----------------------------------------------10-10-9-9-9-7-|
B|-3-3--3-3-3-3-3-3-3--3-3-3-3-3-3-3--3-3-3-3-3---------------|

G|---------------------------------------------------------------|
D|---------------------------------------------------------------|
A|---------------------------------------------------------------|
D|----------------------------------------------10-10-10-9-9-9-7-|
B|-3-3--3-3-3-3-3-3-3--3-3-3-3-3-3-3--3-3-3-3-3------------------|

G|------------------------------------------------------------|
D|------------------------------------------------------------|
A|------------------------------------------------------------| x2
D|----------------------------------------------10-10-9-9-9-7-|
B|-3-3--3-3-3-3-3-3-3--3-3-3-3-3-3-3--3-3-3-3-3---------------|

G|-------|
D|-------|
A|-------|
D|-------|
B|-4-4-4-|

Outro

G|-------------------------------------|
D|-------------------------------------|
A|-------------------------------------|
D|-111-0-0-0-1-1-0-0-1-1-0-222-333-111-|
B|-------------------------------------|

G|-----------------------------|
D|-----------------------------|
A|-----------------------------|
D|-0-0-0-1-1-0-0-1-1-0-222-333-|
B|-----------------------------|

G|-------|
D|-------| x4
A|-------|
D|-0--51-|
B|-------|

G|---------------------|
D|---------------------|
A|---------------------| x4
D|-3-0-5-0-3-0-5-0-----|
B|-----------------3-3-|

G|-------------|
D|-----5-------|
A|-------6-5-5-| x3
D|-3-0---------|
B|-------------|

G|----------------------------|
D|-----5-------5-6-5------5---|
A|-------6---5----------5-----|
D|-3-0-----0----------0-------|
B|--------------------------3-|

Legend
------
| / = slide up
| \ = slide down
comments
print report bad tab
3 comments total.
0 reply
josep94 wrote on May 30 2010, 06:17 pm

this tab is at least 99% correct nice job dude. 5 *

0 reply
Tanner Streeter wrote on March 21 2012, 01:56 am

You deserve a ****ing medal for tabbing this man great job

+1 reply
tonello wrote on November 5 2012, 12:40 am

This is a great tab, and although a 5 string is not needed (the intro is actually a little easier on the low D string), it's does get helpful in some areas. Thanks man. 5*.

I want to post or [tab]
guest
You may want to rate the tab now too:
select rating
Please do not post tabs as comments. Select "correction" instead!