Oops, an error
Loading. Please wait.

All Nightmare Long Tab

ver6
ver6

Intro

Solo

More versions @911Tabs.com
5,459 views 9 this week
no commentswrite comment
1 2 3 4 5
accurate
x 2
Autoscroll
+/-
esc
set tempo
stop
Contributor
WARNING: You are trying to view
                                    content from Ultimate-Guitar.com
                                    in an unauthorized application,
                                    which is prohibited.

                                    Please use an official Ultimate
                                    Guitar Tabs application for iPhone,
                                    iPad or Android to access legitimate
                                    chords, guitar, bass, and drum tabs
                                    from Ultimate-Guitar.com database.

                                    Type "ultimate guitar tabs" in Apple
                                    App Store's or Android Market's
                                    search to find the application.
                              All Nightmare Long                                


                                                                       Metallica
Gtrs 1 & 3 (James)



     Clean                                                  
     E     E  E  E   Q    Q       E  E  E  E   E  E  E  E   
E||----------------------------|---------------------------|
B||----------------------------|---------------------------|
G||----------------------------|---------------------------|
D||-----------5--6~--L----5----|--------5------------5-----|
A||--------5-------------------|-----5------------------6--|
D||--0-------------------------|--0--------3~--L--0--------|


  E  E  E  E   Q    Q       E  E  E  E   E  E  E  E     E  E  E  E   Q    Q     
-------------------------|---------------------------|-------------------------|
-------------------------|---------------------------|-------------------------|
-------------------------|---------------------------|-------------------------|
--------5--6~--L----5----|--------5------------5-----|--------5--6~--L----5----|
-----5-------------------|-----5------------------6--|-----5-------------------|
--0----------------------|--0--------3~--L--0--------|--0----------------------|


  E  E  E  E   E  E  E  E     E  E  E  E   Q    Q     
---------------------------|-------------------------|
---------------------------|-------------------------|
---------------------------|-------------------------|
--------5------------5-----|--------5--6~--L----5----|
-----5------------------6--|-----5-------------------|
--0--------3~--L--0--------|--0----------------------|


  E  E  E  E   E  E  E  E     E  E  E  E   Q    Q     
---------------------------|-------------------------|
---------------------------|-------------------------|
---------------------------|-------------------------|
--------5------------5-----|--------5--6~--L----5----|
-----5------------------6--|-----5-------------------|
--0--------3~--L--0--------|--0----------------------|


  E  E  E  E   E  E  E  E     E  E  E  E   Q    Q     
---------------------------|-------------------------|
---------------------------|-------------------------|
---------------------------|-------------------------|
--------5------------5-----|--------5--6~--L----5----|
-----5------------------6--|-----5-------------------|
--0--------3~--L--0--------|--0----------------------|


  E  E  E  E   E  E  E  E     E  E  E  E   Q    Q     
---------------------------|-------------------------|
---------------------------|-------------------------|
---------------------------|-------------------------|
--------5------------5-----|--------5--6~--L----5----|
-----5------------------6--|-----5-------------------|
--0--------3~--L--0--------|--0----------------------|


  E  E  E  E   E  E  E  E     H.            
---------------------------|---------------|
---------------------------|---------------|
---------------------------|---------------|
--------5------------5-----|---------------|
-----5------------------6--|---------------|
--0--------3~--L--0--------|---------------|


  Distorted                                        
  >         PM > PM > PM > PM > PM > PM > PM > PM  
  S         S  S S  S S  S S  S S  S S  S S  S S   
--------------------------------------------------|
--------------------------------------------------|
--------------------------------------------------|
--------------------------------------------------|
--------------------------------------------------|
--0---------0--0-0--0-0--0-0--0-0--0-0--0-0--0-0--|


  > PM > PM > PM > PM > PM > PM > PM > PM  
  S S  S S  S S  S S  S S  S S  S S  S S   
------------------------------------------|
------------------------------------------|
------------------------------------------|
------------------------------------------|
------------------------------------------|
--0-0--0-0--0-0--0-0--0-0--0-0--0-0--0-0--|


  > PM > PM > PM > PM > PM > PM > PM > PM       NH              NH     
  S S  S S  S S  S S  S S  S S  S S  S S        H.              S E.   
------------------------------------------|---------------------------|
------------------------------------------|---------------------------|
------------------------------------------|---------------------------|
------------------------------------------|---------------------------|
------------------------------------------|---------------------------|
--0-0--0-0--0-0--0-0--0-0--0-0--0-0--0-0--|--<>12s------------<>3-0---|


  > PM PM >  PM >  PM >  PM    >  PM >  PM >  PM >  PM  
  S S  E  E  E  E  E  E  E     E  E  E  E  E  E  E  E   
----------------------------|--------------------------|
----------------------------|--------------------------|
----------------------------|--------------------------|
----------------------------|--------------------------|
----------------------------|--------------------------|
--2-1--0--0--0--0--0--0--0--|--0--0--0--0--0--0--0--0--|


  > PM PM >  PM >  PM >  PM    >  PM >  PM >  PM >  PM  
  S S  E  E  E  E  E  E  E     E  E  E  E  E  E  E  E   
----------------------------|--------------------------|
----------------------------|--------------------------|
----------------------------|--------------------------|
----------------------------|--------------------------|
----------------------------|--------------------------|
--2-1--0--0--0--0--0--0--0--|--0--0--0--0--0--0--0--0--|


  > PM PM >  PM >  PM >  PM    >  PM >  PM >  PM >  PM  
  S S  E  E  E  E  E  E  E     E  E  E  E  E  E  E  E   
----------------------------|--------------------------|
----------------------------|--------------------------|
----------------------------|--------------------------|
----------------------------|--------------------------|
----------------------------|--------------------------|
--2-1--0--0--0--0--0--0--0--|--0--0--0--0--0--0--0--0--|


  > PM PM >  PM >  PM >  PM    >  PM >  PM >  PM >  PM  
  S S  E  E  E  E  E  E  E     E  E  E  E  E  E  E  E   
----------------------------|--------------------------|
----------------------------|--------------------------|
----------------------------|--------------------------|
----------------------------|--------------------------|
----------------------------|--------------------------|
--2-1--0--0--0--0--0--0--0--|--0--0--0--0--0--0--0--0--|


  > PM PM PM PM PM >  >  PM    PM >  >  PM PM PM PM PM PM PM  
  S S  E  E  E  E  E  E  E     E  E  E  E  S  S  E  S  S  E   
----------------------------|--------------------------------|
----------------------------|--------------------------------|
----------------------------|--------------------------------|
-------------------1--1-----|-----1--1-----------------------|
-------------------1--1-----|-----1--1-----------------------|
--2-1--0--0--0--0--1--1--0--|--0--1--1--0--2--2--2--3--3--3--|


  > PM PM PM PM PM >  >  PM    PM >  >  PM PM PM PM PM PM PM  
  S S  E  E  E  E  E  E  E     E  E  E  E  S  S  E  S  S  E   
----------------------------|--------------------------------|
----------------------------|--------------------------------|
----------------------------|--------------------------------|
-------------------1--1-----|-----1--1-----------------------|
-------------------1--1-----|-----1--1-----------------------|
--2-1--0--0--0--0--1--1--0--|--0--1--1--0--2--2--2--3--3--3--|


  > PM PM PM PM PM >  >  PM    PM >  >  PM PM PM PM PM PM PM  
  S S  E  E  E  E  E  E  E     E  E  E  E  S  S  E  S  S  E   
----------------------------|--------------------------------|
----------------------------|--------------------------------|
----------------------------|--------------------------------|
-------------------1--1-----|-----1--1-----------------------|
-------------------1--1-----|-----1--1-----------------------|
--2-1--0--0--0--0--1--1--0--|--0--1--1--0--2--2--2--3--3--3--|


  > PM PM PM PM PM >  >  PM    PM >  >  PM PM PM PM PM PM PM  
  S S  E  E  E  E  E  E  E     E  E  E  E  S  S  E  S  S  E   
----------------------------|--------------------------------|
----------------------------|--------------------------------|
----------------------------|--------------------------------|
-------------------1--1-----|-----1--1-----------------------|
-------------------1--1-----|-----1--1-----------------------|
--2-1--0--0--0--0--1--1--0--|--0--1--1--0--2--2--2--3--3--3--|


  > PM PM PM PM PM >  >  PM    PM >  >  PM PM PM PM PM PM PM  
  S S  E  E  E  E  E  E  E     E  E  E  E  S  S  E  S  S  E   
----------------------------|--------------------------------|
----------------------------|--------------------------------|
----------------------------|--------------------------------|
-------------------1--1-----|-----1--1-----------------------|
-------------------1--1-----|-----1--1-----------------------|
--2-1--0--0--0--0--1--1--0--|--0--1--1--0--2--2--2--3--3--3--|


  > PM PM PM PM PM >  >  PM    PM >  >  PM PM PM PM PM PM PM  
  S S  E  E  E  E  E  E  E     E  E  E  E  S  S  E  S  S  E   
----------------------------|--------------------------------|
----------------------------|--------------------------------|
----------------------------|--------------------------------|
-------------------1--1-----|-----1--1-----------------------|
-------------------1--1-----|-----1--1-----------------------|
--2-1--0--0--0--0--1--1--0--|--0--1--1--0--2--2--2--3--3--3--|


  > PM PM PM PM PM >  >  PM    PM >  >  PM PM PM PM PM PM PM  
  S S  E  E  E  E  E  E  E     E  E  E  E  S  S  E  S  S  E   
----------------------------|--------------------------------|
----------------------------|--------------------------------|
----------------------------|--------------------------------|
-------------------1--1-----|-----1--1-----------------------|
-------------------1--1-----|-----1--1-----------------------|
--2-1--0--0--0--0--1--1--0--|--0--1--1--0--2--2--2--3--3--3--|


  > PM PM PM PM PM >  >  PM    PM >  >                    PM    PM    PM    PM  
  S S  E  E  E  E  E  E  E     E  E  E  H        E     E  E  E  E  E  E  E  E   
----------------------------|-----------------------|--------------------------|
----------------------------|-----------------------|--------------------------|
----------------------------|-----------------------|--------------------------|
-------------------1--1-----|-----1--1--------------|--3-----5-----3-----5-----|
-------------------1--1-----|-----1--1--------------|--3-----5-----3-----5-----|
--2-1--0--0--0--0--1--1--0--|--0--1--1--------------|--3--0--5--0--3--0--5--0--|


                  PM PM PM PM PM PM                    PM PM PM PM PM PM  
    Q    E  E  E  S  S  S  S  S  S       Q    E  E  E  S  S  S  S  S  S   
------------------------------------|------------------------------------|
------------------------------------|------------------------------------|
------------------------------------|------------------------------------|
------------3--L--------------------|------------3--L--------------------|
--3g5----5--3--L--------------------|--3g5----5--3--L--------------------|
----0----0--3--L--0--0--0--0--0--0--|----0----0--3--L--0--0--0--0--0--0--|


                  PM PM PM PM PM PM                               
    Q    E  E  E  S  S  S  S  S  S     E  Q    E  E    E   Q      
------------------------------------|----------------------------|
------------------------------------|----------------------------|
------------------------------------|----------------------------|
------------3--L--------------------|--7--7----5--5s--10--10\----|
--3g5----5--3--L--------------------|--5--5----3--3s---8---8\----|
----0----0--3--L--0--0--0--0--0--0--|----------------------------|


                  PM PM PM PM PM PM                    PM PM PM PM PM PM  
    Q    E  E  E  S  S  S  S  S  S       Q    E  E  E  S  S  S  S  S  S   
------------------------------------|------------------------------------|
------------------------------------|------------------------------------|
------------------------------------|------------------------------------|
------------3--L--------------------|------------3--L--------------------|
--3g5----5--3--L--------------------|--3g5----5--3--L--------------------|
----0----0--3--L--0--0--0--0--0--0--|----0----0--3--L--0--0--0--0--0--0--|


                  PM PM PM PM PM PM                               
    Q    E  E  E  S  S  S  S  S  S     E  Q    E  E    E   Q      
------------------------------------|----------------------------|
------------------------------------|----------------------------|
------------------------------------|----------------------------|
------------3--L--------------------|--7--7----5--5s--10--10\----|
--3g5----5--3--L--------------------|--5--5----3--3s---8---8\----|
----0----0--3--L--0--0--0--0--0--0--|----------------------------|


  >      >          >      >          PM PM PM PM PM PM PM PM PM PM PM PM  
  Q.     E  Q       Q.     E  Q       E  S  S  E  S  S  E  S  S  E  S  S   
-----------------|-----------------|--------------------------------------|
-----------------|-----------------|--------------------------------------|
-----------------|--6------7--L----|--------------------------------------|
--7------8--L----|--6------7--L----|--------------------------------------|
--7------8--L----|--4------5--L----|--8--8--8--8--8--8--8--8--8--8--8--8--|
--7------8--L----|-----------------|--------------------------------------|


   PM PM PM PM PM PM PM PM                   PM PM PM PM PM PM  
   S  S  S  S  S  S  S  S      Q    E  E  E  S  S  S  S  S  S   
--------------------------|------------------------------------|
--------------------------|------------------------------------|
--------------------------|------------------------------------|
--------------------------|------------3--L--------------------|
--10-10-10-10-10-10-10-10-|--3g5----5--3--L--------------------|
--------------------------|----0----0--3--L--0--0--0--0--0--0--|


                  PM PM PM PM PM PM                    PM PM PM PM PM PM  
    Q    E  E  E  S  S  S  S  S  S       Q    E  E  E  S  S  S  S  S  S   
------------------------------------|------------------------------------|
------------------------------------|------------------------------------|
------------------------------------|------------------------------------|
------------3--L--------------------|------------3--L--------------------|
--3g5----5--3--L--------------------|--3g5----5--3--L--------------------|
----0----0--3--L--0--0--0--0--0--0--|----0----0--3--L--0--0--0--0--0--0--|


                               >      >          >      >        
  E  Q    E  E    E   Q        Q.     E  Q       Q.     E  Q     
----------------------------|-----------------|-----------------|
----------------------------|-----------------|-----------------|
----------------------------|-----------------|--6------7--L----|
--7--7----5--5s--10--10\----|--7------8--L----|--6------7--L----|
--5--5----3--3s---8---8\----|--7------8--L----|--4------5--L----|
----------------------------|--7------8--L----|-----------------|


  > PM > PM > PM > PM  >            > PM > PM > PM > PM > PM > PM > PM > PM  
  S S  S S  S S  S S   E  Q.        S S  S S  S S  S S  S S  S S  S S  S S   
---------------------------------|------------------------------------------|
---------------------------------|------------------------------------------|
---------------------------------|------------------------------------------|
----------------------10---------|------------------------------------------|
--8-8--8-8--8-8--8-8---8---------|------------------------------------------|
---------------------------------|--2-2--2-2--2-2--2-2--2-2--2-2--2-2--2-2--|


  > PM > PM > PM > PM > PM > PM > PM > PM  
  S S  S S  S S  S S  S S  S S  S S  S S   
------------------------------------------|
------------------------------------------|
------------------------------------------|
------------------------------------------|
------------------------------------------|
--2-2--2-2--2-2--2-2--2-2--2-2--2-2--2-2--|


  > PM > PM > PM > PM > PM > PM > PM > PM    PM PM PM PM PM PM             
  S S  S S  S S  S S  S S  S S  S S  S S     E  E  E  E  E  E  S  S  S  S  
------------------------------------------|-------------------------------|
------------------------------------------|-------------------------------|
------------------------------------------|-------------------------------|
------------------------------------------|-----------2-------------------|
------------------------------------------|--2--3--5-----5--3--2h-3p-2p-0-|
--2-2--2-2--2-2--2-2--2-2--2-2--2-2--2-2--|-------------------------------|


  > PM > PM > PM > PM > PM > PM > PM > PM  
  S S  S S  S S  S S  S S  S S  S S  S S   
------------------------------------------|
------------------------------------------|
------------------------------------------|
------------------------------------------|
------------------------------------------|
--2-2--2-2--2-2--2-2--2-2--2-2--2-2--2-2--|


  > PM > PM > PM > PM > PM > PM > PM > PM  
  S S  S S  S S  S S  S S  S S  S S  S S   
------------------------------------------|
------------------------------------------|
------------------------------------------|
------------------------------------------|
------------------------------------------|
--2-2--2-2--2-2--2-2--2-2--2-2--2-2--2-2--|


  > PM > PM > PM > PM > PM > PM > PM > PM    PM PM PM PM PM PM             
  S S  S S  S S  S S  S S  S S  S S  S S     E  E  E  E  E  E  S  S  S  S  
------------------------------------------|-------------------------------|
------------------------------------------|-------------------------------|
------------------------------------------|-------------------------------|
------------------------------------------|-----------2-------------------|
------------------------------------------|--2--3--5-----5--3--2h-3p-2p-0-|
--2-2--2-2--2-2--2-2--2-2--2-2--2-2--2-2--|-------------------------------|


  W                   H.           Q       W                 
-------------------|--------------------|-------------------|
-------------------|--------------------|-------------------|
--4----------------|--L------------4----|--5----------------|
--x----------------|---------------x----|--x----------------|
--2----------------|--L------------2----|--3----------------|
-------------------|--------------------|-------------------|


  W                   W                   W                   W                 
-------------------|-------------------|-------------------|-------------------|
-------------------|-------------------|-------------------|-------------------|
--L----------------|--4----------------|--4----------------|--4----------------|
-------------------|--x----------------|--x----------------|--x----------------|
--L----------------|--2----------------|--2----------------|--2----------------|
-------------------|-------------------|-------------------|-------------------|


  H.           Q        Q.     Q.     Q       Q.     Q.     Q     
---------------------|---------------------|---------------------|
---------------------|---------------------|---------------------|
--5------------------|--4------------------|--4------------------|
--x------------------|--4------2------3----|--4------2------3----|
--3------------------|--2------2------3----|--2------2------3----|
---------------x\----|---------2------3----|---------2------3----|


                                              >  PM PM PM >  PM PM PM  
  Q.     Q.     Q       Q.     Q.     Q       E  E  E  E  E  E  E  E   
---------------------|---------------------|--------------------------|
---------------------|---------------------|--------------------------|
--4------------------|--4------------------|--------------------------|
--4------2------3----|--4------2------3----|--2--2--2--2--2--0--0--0--|
--2------2------3----|--2------2------3----|--2--2--2--2--2--0--0--0--|
---------2------3----|---------2------3----|--2--2--2--2--2--0--0--0--|


  >  PM PM PM >  PM PM PM    >      >          >      >        
  E  E  E  E  E  E  E  E     Q.     E  Q       Q.     E  Q     
--------------------------|-----------------|-----------------|
--------------------------|-----------------|-----------------|
--------------------------|-----------------|--6------7--L----|
--2--2--2--2--2--0--0--0--|--7------8--L----|--6------7--L----|
--2--2--2--2--2--0--0--0--|--7------8--L----|--4------5--L----|
--2--2--2--2--2--0--0--0--|--7------8--L----|-----------------|


  > PM > PM > PM > PM  >                            PM PM PM PM PM PM  
  S S  S S  S S  S S   E  Q.          Q    E  E  E  S  S  S  S  S  S   
---------------------------------|------------------------------------|
---------------------------------|------------------------------------|
---------------------------------|------------------------------------|
----------------------10---------|------------3--L--------------------|
--8-8--8-8--8-8--8-8---8---------|--3g5----5--3--L--------------------|
---------------------------------|----0----0--3--L--0--0--0--0--0--0--|


                  PM PM PM PM PM PM                    PM PM PM PM PM PM  
    Q    E  E  E  S  S  S  S  S  S       Q    E  E  E  S  S  S  S  S  S   
------------------------------------|------------------------------------|
------------------------------------|------------------------------------|
------------------------------------|------------------------------------|
------------3--L--------------------|------------3--L--------------------|
--3g5----5--3--L--------------------|--3g5----5--3--L--------------------|
----0----0--3--L--0--0--0--0--0--0--|----0----0--3--L--0--0--0--0--0--0--|


                               >      >          >      >        
  E  Q    E  E    E   Q        Q.     E  Q       Q.     E  Q     
----------------------------|-----------------|-----------------|
----------------------------|-----------------|-----------------|
----------------------------|-----------------|--6------7--L----|
--7--7----5--5s--10--10\----|--7------8--L----|--6------7--L----|
--5--5----3--3s---8---8\----|--7------8--L----|--4------5--L----|
----------------------------|--7------8--L----|-----------------|


  > PM > PM > PM > PM  >                                       
  S S  S S  S S  S S   E  Q.        E  E  E   E   E  E  E  E   
---------------------------------|----------------------------|
---------------------------------|----------------------------|
---------------------------------|--7--7-----10--10--9--9--7--|
----------------------10---------|--x--x------x---x--x--x--x--|
--8-8--8-8--8-8--8-8---8---------|--5--5------8---8--7--7--5--|
---------------------------------|--0--0------0---0--0--0--0--|


  E  E  E   E   E  E  E  E     E  E  E   E   E  E  E  E   
----------------------------|----------------------------|
----------------------------|----------------------------|
--7--7-----10--10--9--9--7--|--7--7-----10--10--9--9--7--|
--x--x------x---x--x--x--x--|--x--x------x---x--x--x--x--|
--5--5------8---8--7--7--5--|--5--5------8---8--7--7--5--|
--0--0------0---0--0--0--0--|--0--0------0---0--0--0--0--|


  E  E  E  E  E  E  Q       E  E  E   E   E  E  E  E   
-------------------------|----------------------------|
-------------------------|----------------------------|
-------------------------|--7--7-----10--10--9--9--7--|
--5--5-----5--5--2--2----|--x--x------x---x--x--x--x--|
--3--3-----2--2--0--0----|--5--5------8---8--7--7--5--|
-------------------------|--0--0------0---0--0--0--0--|


  E  E  E   E   E  E  E  E     E  E  E   E   E  E  E  E   
----------------------------|----------------------------|
----------------------------|----------------------------|
--7--7-----10--10--9--9--7--|--7--7-----10--10--9--9--7--|
--x--x------x---x--x--x--x--|--x--x------x---x--x--x--x--|
--5--5------8---8--7--7--5--|--5--5------8---8--7--7--5--|
--0--0------0---0--0--0--0--|--0--0------0---0--0--0--0--|


  E  E  E  E  E  E  Q       E  E  E   E   E  E  E  E   
-------------------------|----------------------------|
-------------------------|----------------------------|
-------------------------|--7--7-----10--10--9--9--7--|
--5--5-----5--5--2--2----|--x--x------x---x--x--x--x--|
--3--3-----2--2--0--0----|--5--5------8---8--7--7--5--|
-------------------------|--0--0------0---0--0--0--0--|


  E  E  E   E   E  E  E  E     E  E  E   E   E  E  E  E   
----------------------------|----------------------------|
----------------------------|----------------------------|
--7--7-----10--10--9--9--7--|--7--7-----10--10--9--9--7--|
--x--x------x---x--x--x--x--|--x--x------x---x--x--x--x--|
--5--5------8---8--7--7--5--|--5--5------8---8--7--7--5--|
--0--0------0---0--0--0--0--|--0--0------0---0--0--0--0--|


  E  E  E  E  E  E  Q       E  E  E   E   E  E  E  E   
-------------------------|----------------------------|
-------------------------|----------------------------|
-------------------------|--7--7-----10--10--9--9--7--|
--5--5-----5--5--2--2----|--x--x------x---x--x--x--x--|
--3--3-----2--2--0--0----|--5--5------8---8--7--7--5--|
-------------------------|--0--0------0---0--0--0--0--|


  E  E  E   E   E  E  E  E     E  E  E   E   E  E  E  E   
----------------------------|----------------------------|
----------------------------|----------------------------|
--7--7-----10--10--9--9--7--|--7--7-----10--10--9--9--7--|
--x--x------x---x--x--x--x--|--x--x------x---x--x--x--x--|
--5--5------8---8--7--7--5--|--5--5------8---8--7--7--5--|
--0--0------0---0--0--0--0--|--0--0------0---0--0--0--0--|


                                                     > PM PM PM PM PM >  >  PM  
  E  E  E  E  E  E  Q       E  E  E  E  E  Q.        S S  E  E  E  E  E  E  E   
-------------------------|------------------------|----------------------------|
-------------------------|------------------------|----------------------------|
-------------------------|--3-----3-----3---------|----------------------------|
--5--5-----5--5--2--2----|--3-----3-----3---------|-------------------1--1-----|
--3--3-----2--2--0--0----|--1-----1-----1---------|-------------------1--1-----|
-------------------------|--1-----1-----1---------|--2-1--0--0--0--0--1--1--0--|


  PM >  >  PM PM PM PM PM PM PM    > PM PM PM PM PM >  >  PM  
  E  E  E  E  S  S  E  S  S  E     S S  E  E  E  E  E  E  E   
--------------------------------|----------------------------|
--------------------------------|----------------------------|
--------------------------------|----------------------------|
-----1--1-----------------------|-------------------1--1-----|
-----1--1-----------------------|-------------------1--1-----|
--0--1--1--0--2--2--2--3--3--3--|--2-1--0--0--0--0--1--1--0--|


  PM >  >  PM PM PM PM PM PM PM    > PM PM PM PM PM >  >  PM  
  E  E  E  E  S  S  E  S  S  E     S S  E  E  E  E  E  E  E   
--------------------------------|----------------------------|
--------------------------------|----------------------------|
--------------------------------|----------------------------|
-----1--1-----------------------|-------------------1--1-----|
-----1--1-----------------------|-------------------1--1-----|
--0--1--1--0--2--2--2--3--3--3--|--2-1--0--0--0--0--1--1--0--|


  PM >  >  PM PM PM PM PM PM PM    > PM PM PM PM PM >  >  PM  
  E  E  E  E  S  S  E  S  S  E     S S  E  E  E  E  E  E  E   
--------------------------------|----------------------------|
--------------------------------|----------------------------|
--------------------------------|----------------------------|
-----1--1-----------------------|-------------------1--1-----|
-----1--1-----------------------|-------------------1--1-----|
--0--1--1--0--2--2--2--3--3--3--|--2-1--0--0--0--0--1--1--0--|


  PM >  >                 ^  PM ^  PM ^  PM ^  PM  
  E  E  E  H        E     E  E  E  E  E  E  E  E   
-----------------------|--------------------------|
-----------------------|--------------------------|
-----------------------|--------------------------|
-----1--1--------------|--3-----5-----3-----5-----|
-----1--1--------------|--3-----5-----3-----5-----|
--0--1--1--------------|--3--0--5--0--3--0--5--0--|


                  PM PM PM PM PM PM                    PM PM PM PM PM PM  
    Q    E  E  E  S  S  S  S  S  S       Q    E  E  E  S  S  S  S  S  S   
------------------------------------|------------------------------------|
------------------------------------|------------------------------------|
------------------------------------|------------------------------------|
------------3--L--------------------|------------3--L--------------------|
--3g5----5--3--L--------------------|--3g5----5--3--L--------------------|
----0----0--3--L--0--0--0--0--0--0--|----0----0--3--L--0--0--0--0--0--0--|


                  PM PM PM PM PM PM                               
    Q    E  E  E  S  S  S  S  S  S     E  Q    E  E    E   Q      
------------------------------------|----------------------------|
------------------------------------|----------------------------|
------------------------------------|----------------------------|
------------3--L--------------------|--7--7----5--5s--10--10\----|
--3g5----5--3--L--------------------|--5--5----3--3s---8---8\----|
----0----0--3--L--0--0--0--0--0--0--|----------------------------|


                  PM PM PM PM PM PM                    PM PM PM PM PM PM  
    Q    E  E  E  S  S  S  S  S  S       Q    E  E  E  S  S  S  S  S  S   
------------------------------------|------------------------------------|
------------------------------------|------------------------------------|
------------------------------------|------------------------------------|
------------3--L--------------------|------------3--L--------------------|
--3g5----5--3--L--------------------|--3g5----5--3--L--------------------|
----0----0--3--L--0--0--0--0--0--0--|----0----0--3--L--0--0--0--0--0--0--|


                  PM PM PM PM PM PM                               
    Q    E  E  E  S  S  S  S  S  S     E  Q    E  E    E   Q      
------------------------------------|----------------------------|
------------------------------------|----------------------------|
------------------------------------|----------------------------|
------------3--L--------------------|--7--7----5--5s--10--10\----|
--3g5----5--3--L--------------------|--5--5----3--3s---8---8\----|
----0----0--3--L--0--0--0--0--0--0--|----------------------------|


  >      >          >      >          > PM > PM > PM > PM  >          
  Q.     E  Q       Q.     E  Q       S S  S S  S S  S S   E  Q.      
-----------------|-----------------|---------------------------------|
-----------------|-----------------|---------------------------------|
-----------------|--6------7--L----|---------------------------------|
--7------8--L----|--6------7--L----|----------------------10---------|
--7------8--L----|--4------5--L----|--8-8--8-8--8-8--8-8---8---------|
--7------8--L----|-----------------|---------------------------------|


  > PM > PM > PM > PM > PM > PM > PM > PM  
  S S  S S  S S  S S  S S  S S  S S  S S   
------------------------------------------|
------------------------------------------|
------------------------------------------|
------------------------------------------|
------------------------------------------|
--2-2--2-2--2-2--2-2--2-2--2-2--2-2--2-2--|


  > PM > PM > PM > PM > PM > PM > PM > PM  
  S S  S S  S S  S S  S S  S S  S S  S S   
------------------------------------------|
------------------------------------------|
------------------------------------------|
------------------------------------------|
------------------------------------------|
--2-2--2-2--2-2--2-2--2-2--2-2--2-2--2-2--|


  > PM > PM > PM > PM > PM > PM > PM > PM    PM PM PM PM PM PM             
  S S  S S  S S  S S  S S  S S  S S  S S     E  E  E  E  E  E  S  S  S  S  
------------------------------------------|-------------------------------|
------------------------------------------|-------------------------------|
------------------------------------------|-------------------------------|
------------------------------------------|-----------2-------------------|
------------------------------------------|--2--3--5-----5--3--2h-3p-2p-0-|
--2-2--2-2--2-2--2-2--2-2--2-2--2-2--2-2--|-------------------------------|


  > PM > PM > PM > PM > PM > PM > PM > PM  
  S S  S S  S S  S S  S S  S S  S S  S S   
------------------------------------------|
------------------------------------------|
------------------------------------------|
------------------------------------------|
------------------------------------------|
--2-2--2-2--2-2--2-2--2-2--2-2--2-2--2-2--|


  > PM > PM > PM > PM > PM > PM > PM > PM  
  S S  S S  S S  S S  S S  S S  S S  S S   
------------------------------------------|
------------------------------------------|
------------------------------------------|
------------------------------------------|
------------------------------------------|
--2-2--2-2--2-2--2-2--2-2--2-2--2-2--2-2--|


  > PM > PM > PM > PM > PM > PM > PM > PM    PM PM PM PM PM PM             
  S S  S S  S S  S S  S S  S S  S S  S S     E  E  E  E  E  E  S  S  S  S  
------------------------------------------|-------------------------------|
------------------------------------------|-------------------------------|
------------------------------------------|-------------------------------|
------------------------------------------|-----------2-------------------|
------------------------------------------|--2--3--5-----5--3--2h-3p-2p-0-|
--2-2--2-2--2-2--2-2--2-2--2-2--2-2--2-2--|-------------------------------|


  W                   H.           Q       W                 
-------------------|--------------------|-------------------|
-------------------|--------------------|-------------------|
--4----------------|--L------------4----|--5----------------|
--x----------------|---------------x----|--x----------------|
--2----------------|--L------------2----|--3----------------|
-------------------|--------------------|-------------------|


  W                   W                   W                   W                 
-------------------|-------------------|-------------------|-------------------|
-------------------|-------------------|-------------------|-------------------|
--L----------------|--4----------------|--4----------------|--4----------------|
-------------------|--x----------------|--x----------------|--x----------------|
--L----------------|--2----------------|--2----------------|--2----------------|
-------------------|-------------------|-------------------|-------------------|


  H.           Q        Q.     Q.     Q       Q.     Q.     Q     
---------------------|---------------------|---------------------|
---------------------|---------------------|---------------------|
--5------------------|--4------------------|--4------------------|
--x------------------|--4------2------3----|--4------2------3----|
--3------------------|--2------2------3----|--2------2------3----|
---------------x\----|---------2------3----|---------2------3----|


                                              >  PM PM PM >  PM PM PM  
  Q.     Q.     Q       Q.     Q.     Q       E  E  E  E  E  E  E  E   
---------------------|---------------------|--------------------------|
---------------------|---------------------|--------------------------|
--4------------------|--4------------------|--------------------------|
--4------2------3----|--4------2------3----|--2--2--2--2--2--0--0--0--|
--2------2------3----|--2------2------3----|--2--2--2--2--2--0--0--0--|
---------2------3----|---------2------3----|--2--2--2--2--2--0--0--0--|


  >  PM PM PM >  PM PM PM    >      >          >      >        
  E  E  E  E  E  E  E  E     Q.     E  Q       Q.     E  Q     
--------------------------|-----------------|-----------------|
--------------------------|-----------------|-----------------|
--------------------------|-----------------|--6------7--L----|
--2--2--2--2--2--0--0--0--|--7------8--L----|--6------7--L----|
--2--2--2--2--2--0--0--0--|--7------8--L----|--4------5--L----|
--2--2--2--2--2--0--0--0--|--7------8--L----|-----------------|


  > PM > PM > PM > PM  >                            PM PM PM PM PM PM  
  S S  S S  S S  S S   E  Q.          Q    E  E  E  S  S  S  S  S  S   
---------------------------------|------------------------------------|
---------------------------------|------------------------------------|
---------------------------------|------------------------------------|
----------------------10---------|------------3--L--------------------|
--8-8--8-8--8-8--8-8---8---------|--3g5----5--3--L--------------------|
---------------------------------|----0----0--3--L--0--0--0--0--0--0--|


                  PM PM PM PM PM PM                    PM PM PM PM PM PM  
    Q    E  E  E  S  S  S  S  S  S       Q    E  E  E  S  S  S  S  S  S   
------------------------------------|------------------------------------|
------------------------------------|------------------------------------|
------------------------------------|------------------------------------|
------------3--L--------------------|------------3--L--------------------|
--3g5----5--3--L--------------------|--3g5----5--3--L--------------------|
----0----0--3--L--0--0--0--0--0--0--|----0----0--3--L--0--0--0--0--0--0--|


                               >      >          >      >        
  E  Q    E  E    E   Q        Q.     E  Q       Q.     E  Q     
----------------------------|-----------------|-----------------|
----------------------------|-----------------|-----------------|
----------------------------|-----------------|--6------7--L----|
--7--7----5--5s--10--10\----|--7------8--L----|--6------7--L----|
--5--5----3--3s---8---8\----|--7------8--L----|--4------5--L----|
----------------------------|--7------8--L----|-----------------|


  > PM > PM > PM > PM  >                                       
  S S  S S  S S  S S   E  Q.        E  E  E   E   E  E  E  E   
---------------------------------|----------------------------|
---------------------------------|----------------------------|
---------------------------------|--7--7-----10--10--9--9--7--|
----------------------10---------|--x--x------x---x--x--x--x--|
--8-8--8-8--8-8--8-8---8---------|--5--5------8---8--7--7--5--|
---------------------------------|--0--0------0---0--0--0--0--|


  E  E  E   E   E  E  E  E     E  E  E   E   E  E  E  E   
----------------------------|----------------------------|
----------------------------|----------------------------|
--7--7-----10--10--9--9--7--|--7--7-----10--10--9--9--7--|
--x--x------x---x--x--x--x--|--x--x------x---x--x--x--x--|
--5--5------8---8--7--7--5--|--5--5------8---8--7--7--5--|
--0--0------0---0--0--0--0--|--0--0------0---0--0--0--0--|


                            This rocks!!!                         
  E  E  E  E  E  E  Q       E             E  E   E   E  E  E  E   
-------------------------|---------------------------------------|
-------------------------|---------------------------------------|
-------------------------|--7-------------7-----10--10--9--9--7--|
--5--5-----5--5--2--2----|--x-------------x------x---x--x--x--x--|
--3--3-----2--2--0--0----|--5-------------5------8---8--7--7--5--|
-------------------------|--0-------------0------0---0--0--0--0--|


  E  E  E   E   E  E  E  E     E  E  E   E   E  E  E  E   
----------------------------|----------------------------|
----------------------------|----------------------------|
--7--7-----10--10--9--9--7--|--7--7-----10--10--9--9--7--|
--x--x------x---x--x--x--x--|--x--x------x---x--x--x--x--|
--5--5------8---8--7--7--5--|--5--5------8---8--7--7--5--|
--0--0------0---0--0--0--0--|--0--0------0---0--0--0--0--|


  E  E  E  E  E  E  Q       E  E  E   E   E  E  E  E   
-------------------------|----------------------------|
-------------------------|----------------------------|
-------------------------|--7--7-----10--10--9--9--7--|
--5--5-----5--5--2--2----|--x--x------x---x--x--x--x--|
--3--3-----2--2--0--0----|--5--5------8---8--7--7--5--|
-------------------------|--0--0------0---0--0--0--0--|


  E  E  E   E   E  E  E  E     E  E  E   E   E  E  E  E   
----------------------------|----------------------------|
----------------------------|----------------------------|
--7--7-----10--10--9--9--7--|--7--7-----10--10--9--9--7--|
--x--x------x---x--x--x--x--|--x--x------x---x--x--x--x--|
--5--5------8---8--7--7--5--|--5--5------8---8--7--7--5--|
--0--0------0---0--0--0--0--|--0--0------0---0--0--0--0--|


  E  E  E  E  E  E  Q       E  E  E   E   E  E  E  E   
-------------------------|----------------------------|
-------------------------|----------------------------|
-------------------------|--7--7-----10--10--9--9--7--|
--5--5-----5--5--2--2----|--x--x------x---x--x--x--x--|
--3--3-----2--2--0--0----|--5--5------8---8--7--7--5--|
-------------------------|--0--0------0---0--0--0--0--|


  E  E  E   E   E  E  E  E     E  E  E   E   E  E  E  E   
----------------------------|----------------------------|
----------------------------|----------------------------|
--7--7-----10--10--9--9--7--|--7--7-----10--10--9--9--7--|
--x--x------x---x--x--x--x--|--x--x------x---x--x--x--x--|
--5--5------8---8--7--7--5--|--5--5------8---8--7--7--5--|
--0--0------0---0--0--0--0--|--0--0------0---0--0--0--0--|


  E  E  E  E  E  E  Q       E  E  E  E  E  Q.      
-------------------------|------------------------|
-------------------------|------------------------|
-------------------------|--3-----3-----3---------|
--5--5-----5--5--2--2----|--3-----3-----3---------|
--3--3-----2--2--0--0----|--1-----1-----1---------|
-------------------------|--1-----1-----1---------|


  > PM > PM > PM > PM > PM > PM > PM > PM               
  S S  S S  S S  S S  S S  S S  S S  S S     Q    Q     
------------------------------------------|------------|
------------------------------------------|------------|
------------------------------------------|------------|
------------------------------------------|--0---------|
------------------------------------------|--0---------|
--7-7--7-7--3-3--3-3--5-5--5-5--1-1--1-1--|--0---------|


  PM PM PM PM PM                                   
  S  S  S  S  E  Q.      Q       W                 
------------------------------|-------------------|
------------------------------|-------------------|
------------------------------|-------------------|
-----------------7\-----------|-------------------|
-----------------7\-----------|-------------------|
--0--0--0--0--0--7\-----------|-------------------|


  PM PM PM PM PM                                   
  S  S  S  S  E  Q.      Q       W                 
------------------------------|-------------------|
------------------------------|-------------------|
------------------------------|-------------------|
-----------------7\-----------|-------------------|
-----------------7\-----------|-------------------|
--0--0--0--0--0--7\-----------|-------------------|


  PM PM PM PM PM                                   
  S  S  S  S  E  Q.      Q       W                 
------------------------------|-------------------|
------------------------------|-------------------|
------------------------------|-------------------|
-----------------7\-----------|-------------------|
-----------------7\-----------|-------------------|
--0--0--0--0--0--7\-----------|-------------------|


  PM PM PM PM PM                             PM PM PM  
  S  S  S  S  E  Q.      Q       H        E  E  E  E   
------------------------------|-----------------------|
------------------------------|-----------------------|
------------------------------|-----------------------|
-----------------7\-----------|--------------3--2--1--|
-----------------7\-----------|--------------3--2--1--|
--0--0--0--0--0--7\-----------|--------------3--2--1--|


  PM PM PM PM PM                 PM PM PM PM PM      PM PM PM  
  S  S  S  S  E  Q.     E  E     S  S  S  S  E  Q    E  E  E   
------------------------------|-------------------------------|
------------------------------|-------------------------------|
------------------------------|-------------------------------|
-----------------7------7--7--|-----------------3----3--2--1--|
-----------------7------7--7--|-----------------3----3--2--1--|
--0--0--0--0--0--7------7--7--|--3--3--3--3--3--3----3--2--1--|


  PM PM PM PM PM                 PM PM PM PM PM      PM PM PM  
  S  S  S  S  E  Q.     E  E     S  S  S  S  E  Q    E  E  E   
------------------------------|-------------------------------|
------------------------------|-------------------------------|
------------------------------|-------------------------------|
-----------------7------7--7--|-----------------3----3--2--1--|
-----------------7------7--7--|-----------------3----3--2--1--|
--0--0--0--0--0--7------7--7--|--3--3--3--3--3--3----3--2--1--|


  PM PM PM PM PM                 PM PM PM PM PM      PM PM PM  
  S  S  S  S  E  Q.     E  E     S  S  S  S  E  Q    E  E  E   
------------------------------|-------------------------------|
------------------------------|-------------------------------|
------------------------------|-------------------------------|
-----------------7------7--7--|-----------------3----3--2--1--|
-----------------7------7--7--|-----------------3----3--2--1--|
--0--0--0--0--0--7------7--7--|--3--3--3--3--3--3----3--2--1--|


  PM PM PM PM PM                 PM PM PM PM PM      PM PM PM  
  S  S  S  S  E  Q.     E  E     S  S  S  S  E  Q    E  E  E   
------------------------------|-------------------------------|
------------------------------|-------------------------------|
------------------------------|-------------------------------|
-----------------7------7--7--|-----------------3----3--2--1--|
-----------------7------7--7--|-----------------3----3--2--1--|
--0--0--0--0--0--7------7--7--|--3--3--3--3--3--3----3--2--1--|


  PM PM PM PM PM                 PM PM PM PM PM      PM PM PM  
  S  S  S  S  E  Q.     E  E     S  S  S  S  E  Q    E  E  E   
------------------------------|-------------------------------|
------------------------------|-------------------------------|
------------------------------|-------------------------------|
-----------------7------7--7--|-----------------3----3--2--1--|
-----------------7------7--7--|-----------------3----3--2--1--|
--0--0--0--0--0--7------7--7--|--3--3--3--3--3--3----3--2--1--|


  PM PM PM PM PM                 PM PM PM PM PM      PM PM PM  
  S  S  S  S  E  Q.     E  E     S  S  S  S  E  Q    E  E  E   
------------------------------|-------------------------------|
------------------------------|-------------------------------|
------------------------------|-------------------------------|
-----------------7------7--7--|-----------------3----3--2--1--|
-----------------7------7--7--|-----------------3----3--2--1--|
--0--0--0--0--0--7------7--7--|--3--3--3--3--3--3----3--2--1--|


  PM PM PM PM PM                 PM PM PM PM PM      PM PM PM  
  S  S  S  S  E  Q.     E  E     S  S  S  S  E  Q    E  E  E   
------------------------------|-------------------------------|
------------------------------|-------------------------------|
------------------------------|-------------------------------|
-----------------7------7--7--|-----------------3----3--2--1--|
-----------------7------7--7--|-----------------3----3--2--1--|
--0--0--0--0--0--7------7--7--|--3--3--3--3--3--3----3--2--1--|


  PM PM PM PM PM                 PM PM PM PM PM      PM PM PM  
  S  S  S  S  E  Q.     E  E     S  S  S  S  E  Q    E  E  E   
------------------------------|-------------------------------|
------------------------------|-------------------------------|
------------------------------|-------------------------------|
-----------------7------7--7--|-----------------3----3--2--1--|
-----------------7------7--7--|-----------------3----3--2--1--|
--0--0--0--0--0--7------7--7--|--3--3--3--3--3--3----3--2--1--|


       PM                     PM                     PM              
  Q    E  E  H           Q    E  E  H           Q    E  E  H         
----------------------|----------------------|----------------------|
----------------------|----------------------|----------------------|
----------4--L--------|--3-------------------|----------4--L--------|
--2-------4--L--------|--3-------3--L--------|--2-------4--L--------|
--2-------2--L--------|--1-------3--L--------|--2-------2--L--------|
--2----0--------------|-------0--3--L--------|--2----0--------------|


       PM       PM PM PM         PM                     PM              
  Q    E  E  E  E  E  E     Q    E  E  H           Q    E  E  H         
-------------------------|----------------------|----------------------|
-------------------------|----------------------|----------------------|
--3----------------------|----------4--L--------|--3-------------------|
--3-------3--L--2--1--0--|--2-------4--L--------|--3-------3--L--------|
--1-------3--L--2--1--0--|--2-------2--L--------|--1-------3--L--------|
-------0--3--L--2--1--0--|--2----0--------------|-------0--3--L--------|


       PM                PM PM PM PM PM PM PM PM PM PM PM PM PM PM PM PM  
  Q    E  E  H           S  S  S  S  S  S  S  S  S  S  S  S  S  S  S  S   
----------------------|--------------------------------------------------|
----------------------|--------------------------------------------------|
----------4--L--------|--------------------------------------------------|
--2-------4--L--------|--------------------------------------------------|
--2-------2--L--------|--------------------------------------------------|
--2----0--------------|--7--7--7--7--5--5--5--5--3--3--3--3--1--1--1--1--|


  PM PM PM PM PM                                   
  S  S  S  S  E  Q.      Q                         
------------------------------|-------------------|
------------------------------|-------------------|
------------------------------|-------------------|
-----------------7\-----------|-------------------|
-----------------7\-----------|-------------------|
--0--0--0--0--0--7\-----------|-------------------|


  PM PM PM PM PM                                   
  S  S  S  S  E  Q.      Q                         
------------------------------|-------------------|
------------------------------|-------------------|
------------------------------|-------------------|
-----------------7\-----------|-------------------|
-----------------7\-----------|-------------------|
--0--0--0--0--0--7\-----------|-------------------|


  PM PM PM PM PM                                   
  S  S  S  S  E  Q.      Q                         
------------------------------|-------------------|
------------------------------|-------------------|
------------------------------|-------------------|
-----------------7\-----------|-------------------|
-----------------7\-----------|-------------------|
--0--0--0--0--0--7\-----------|-------------------|


  PM PM PM PM PM >        PM PM PM PM    PM >        >          
  S  S  S  S  E  E  Q     S  S  S  S     E  Q.       Q    Q     
--------------------------------------|------------------------|
--------------------------------------|------------------------|
--------------------------------------|------------------------|
-----------------7--L\----------------|-----7\------/7---------|
-----------------7--L\----------------|-----7\------/7---------|
--0--0--0--0--0--7--L\----0--0--0--0--|--0--7\------/7---------|


  PM PM PM PM PM >        PM PM PM PM    PM >        >          
  S  S  S  S  E  E  Q     S  S  S  S     E  Q.       Q    Q     
--------------------------------------|------------------------|
--------------------------------------|------------------------|
--------------------------------------|------------------------|
-----------------7--L\----------------|-----7\------/7---------|
-----------------7--L\----------------|-----7\------/7---------|
--0--0--0--0--0--7--L\----0--0--0--0--|--0--7\------/7---------|


                 PM                      PM PM PM PM  
  E   E  E  Q    E  E   E     E  Q    E  E  E  E  E   
---------------------------|-------------------------|
---------------------------|-------------------------|
---------------------------|-------------------------|
--7h--8--7----------7h--8--|--7----------------------|
--5------5--8-------5------|--5--8----5--------------|
------------0----0---------|-----0----0--0--0--0--0--|


                 PM                      PM PM PM PM  
  E   E  E  Q    E  E   E     E  Q    E  E  E  E  E   
---------------------------|-------------------------|
---------------------------|-------------------------|
---------------------------|-------------------------|
--7h--8--7----------7h--8--|--7----------------------|
--5------5--8-------5------|--5--8----5--------------|
------------0----0---------|-----0----0--0--0--0--0--|


                                         PM PM PM PM  
  E   E  E  Q    E  E  E     E   Q    E  E  E  E  E   
--------------------------|--------------------------|
--------------------------|--------------------------|
--------------------------|--------------------------|
--7h--8--7----------7-----|--7h--8----7--------------|
--5------5--8----5--8-----|--8---8----8--8--8--8--8--|
------------0----0--7-----|--7---7----7--7--7--7--7--|


                                         PM PM PM PM  
  E  E  E   Q    E  E  E     E   Q    E  E  E  E  E   
--------------------------|--------------------------|
--------------------------|--------------------------|
--------------------------|--------------------------|
--6-----6h--7----6--2-----|--2h--3----2--------------|
--7-----7---7----7--3-----|--3---3----3--3--3--3--0--|
--6-----6---6----6--2-----|--2---2----2--2--2--2--0--|


                 PM                      PM PM PM PM  
  E   E  E  Q    E  E   E     E  Q    E  E  E  E  E   
---------------------------|-------------------------|
---------------------------|-------------------------|
---------------------------|-------------------------|
--7h--8--7----------7h--8--|--7----------------------|
--5------5--8-------5------|--5--8----5--------------|
------------0----0---------|-----0----0--0--0--0--0--|


                 PM                      PM PM PM PM  
  E   E  E  Q    E  E   E     E  Q    E  E  E  E  E   
---------------------------|-------------------------|
---------------------------|-------------------------|
---------------------------|-------------------------|
--7h--8--7----------7h--8--|--7----------------------|
--5------5--8-------5------|--5--8----5--------------|
------------0----0---------|-----0----0--0--0--0--0--|


                                         PM PM PM PM  
  E   E  E  Q    E  E  E     E   Q    E  E  E  E  E   
--------------------------|--------------------------|
--------------------------|--------------------------|
--------------------------|--------------------------|
--7h--8--7----------7-----|--7h--8----7--------------|
--5------5--8----5--8-----|--8---8----8--8--8--8--8--|
------------0----0--7-----|--7---7----7--7--7--7--7--|


                                         PM PM PM PM  
  E  E  E   Q    E  E  E     E   Q    E  E  E  E  E   
--------------------------|--------------------------|
--------------------------|--------------------------|
--------------------------|--------------------------|
--6-----6h--7----6--2-----|--2h--3----2--------------|
--7-----7---7----7--3-----|--3---3----3--3--3--3--0--|
--6-----6---6----6--2-----|--2---2----2--2--2--2--0--|


  > PM > PM > PM > PM > PM > PM > PM > PM  
  S S  S S  S S  S S  S S  S S  S S  S S   
------------------------------------------|
------------------------------------------|
------------------------------------------|
------------------------------------------|
------------------------------------------|
--0-0--0-0--0-0--0-0--0-0--0-0--0-0--0-0--|


  > PM > PM > PM > PM > PM > PM > PM > PM  
  S S  S S  S S  S S  S S  S S  S S  S S   
------------------------------------------|
------------------------------------------|
------------------------------------------|
------------------------------------------|
------------------------------------------|
--0-0--0-0--0-0--0-0--0-0--0-0--0-0--0-0--|


  > PM > PM > PM > PM > PM > PM > PM > PM  
  S S  S S  S S  S S  S S  S S  S S  S S   
------------------------------------------|
------------------------------------------|
------------------------------------------|
------------------------------------------|
------------------------------------------|
--0-0--0-0--0-0--0-0--0-0--0-0--0-0--0-0--|


  > PM > PM > PM > PM > PM > PM > PM > PM  
  S S  S S  S S  S S  S S  S S  S S  S S   
------------------------------------------|
------------------------------------------|
------------------------------------------|
------------------------------------------|
------------------------------------------|
--0-0--0-0--0-0--0-0--0-0--0-0--0-0--0-0--|


  > PM > PM > PM > PM > PM > PM > PM > PM  
  S S  S S  S S  S S  S S  S S  S S  S S   
------------------------------------------|
------------------------------------------|
------------------------------------------|
------------------------------------------|
------------------------------------------|
--2-2--2-2--2-2--2-2--2-2--2-2--2-2--2-2--|


  > PM > PM > PM > PM > PM > PM > PM > PM  
  S S  S S  S S  S S  S S  S S  S S  S S   
------------------------------------------|
------------------------------------------|
------------------------------------------|
------------------------------------------|
------------------------------------------|
--2-2--2-2--2-2--2-2--2-2--2-2--2-2--2-2--|


  PM PM PM PM PM PM PM PM PM PM PM PM          >     >    >    >     
  S  S  S  S  S  S  S  S  S  S  S  S  Q        Q     Q    Q    Q     
--------------------------------------------|-----------------------|
--------------------------------------------|-----------------------|
--------------------------------------------|-----------------------|
--------------------------------------------|-----------------------|
--------------------------------------------|-----------------------|
--2--2--2--2--2--2--2--2--2--2--2--2--2S----|--9~----5----7----3----|


  PM PM PM PM                 PM PM PM PM               
  S  S  S  S  H.              S  S  S  S  H.            
---------------------------|---------------------------|
---------------------------|---------------------------|
---------------------------|---------------------------|
--------------2------------|--------------2------------|
--------------2------------|--------------2------------|
--2--2--2--2--2------------|--2--2--2--2--2------------|


  PM PM PM PM                 PM PM PM PM               
  S  S  S  S  H.              S  S  S  S  H.            
---------------------------|---------------------------|
---------------------------|---------------------------|
---------------------------|---------------------------|
--------------3------------|--------------3------------|
--------------3------------|--------------3------------|
--3--3--3--3--3------------|--3--3--3--3--3------------|


  PM PM PM PM                 PM PM PM PM               
  S  S  S  S  H.              S  S  S  S  H.            
---------------------------|---------------------------|
---------------------------|---------------------------|
--------------5------------|--------------5------------|
--------------5------------|--------------5------------|
--3--3--3--3--3------------|--3--3--3--3--3------------|
---------------------------|---------------------------|


  PM PM PM PM                 PM PM PM PM         PM PM PM  
  S  S  S  S  H.              S  S  S  S  Q    E  E  E  E   
---------------------------|-------------------------------|
---------------------------|-------------------------------|
---------------------------|-------------------------------|
--------------5------------|--------------5----L--5--4--3--|
--------------5------------|--------------5----L--5--4--3--|
--5--5--5--5--5------------|--5--5--5--5--5----L--5--4--3--|


  PM PM PM PM      PM PM PM PM         PM PM PM PM      PM PM PM PM       
  S  S  S  S  Q    S  S  S  S  Q       S  S  S  S  Q    S  S  S  S  Q     
------------------------------------|------------------------------------|
------------------------------------|------------------------------------|
------------------------------------|------------------------------------|
--------------2----------------2----|--------------2----------------2----|
--------------2----------------2----|--------------2----------------2----|
--2--2--2--2--2----2--2--2--2--2----|--2--2--2--2--2----2--2--2--2--2----|


  PM PM PM PM      PM PM PM PM         PM PM PM PM      PM PM PM PM       
  S  S  S  S  Q    S  S  S  S  Q       S  S  S  S  Q    S  S  S  S  Q     
------------------------------------|------------------------------------|
------------------------------------|------------------------------------|
------------------------------------|------------------------------------|
--------------3----------------3----|--------------3----------------3----|
--------------3----------------3----|--------------3----------------3----|
--3--3--3--3--3----3--3--3--3--3----|--3--3--3--3--3----3--3--3--3--3----|


  PM PM PM PM      PM PM PM PM         PM PM PM PM      PM PM PM PM       
  S  S  S  S  Q    S  S  S  S  Q       S  S  S  S  Q    S  S  S  S  Q     
------------------------------------|------------------------------------|
------------------------------------|------------------------------------|
--------------5----------------5----|--------------5----------------5----|
--------------5----------------5----|--------------5----------------5----|
--3--3--3--3--3----3--3--3--3--3----|--3--3--3--3--3----3--3--3--3--3----|
------------------------------------|------------------------------------|


  PM PM PM PM      PM PM PM PM         PM PM PM PM      PM PM PM PM PM  
  S  S  S  S  Q    S  S  S  S  Q       S  S  S  S  Q    S  S  E  E  E   
------------------------------------|----------------------------------|
------------------------------------|----------------------------------|
------------------------------------|----------------------------------|
--------------5----------------5----|--------------5----------5--4--3--|
--------------5----------------5----|--------------5----------5--4--3--|
--5--5--5--5--5----5--5--5--5--5----|--5--5--5--5--5----5--5--5--4--3--|


  PM PM PM PM      PM PM PM PM         PM PM PM PM      PM PM PM PM        
  S  S  S  S  Q    S  S  S  S  Q       S  S  S  S  Q    S  S  S  S  Q      
------------------------------------|-------------------------------------|
------------------------------------|-------------------------------------|
------------------------------------|-------------------------------------|
--------------2----------------2----|--------------2----------------------|
--------------2----------------2----|--------------2----------------------|
--2--2--2--2--2----2--2--2--2--2----|--2--2--2--2--2----2--2--2--2--x\----|


  > PM > PM > PM > PM > PM > PM > PM > PM  
  S S  S S  S S  S S  S S  S S  S S  S S   
------------------------------------------|
------------------------------------------|
------------------------------------------|
------------------------------------------|
------------------------------------------|
--0-0--0-0--0-0--0-0--0-0--0-0--0-0--0-0--|


  > PM > PM > PM > PM > PM > PM > PM > PM  
  S S  S S  S S  S S  S S  S S  S S  S S   
------------------------------------------|
------------------------------------------|
------------------------------------------|
------------------------------------------|
------------------------------------------|
--0-0--0-0--0-0--0-0--0-0--0-0--0-0--0-0--|


  > PM > PM > PM > PM > PM > PM > PM > PM  
  S S  S S  S S  S S  S S  S S  S S  S S   
------------------------------------------|
------------------------------------------|
------------------------------------------|
------------------------------------------|
------------------------------------------|
--0-0--0-0--0-0--0-0--0-0--0-0--0-0--0-0--|


  > PM > PM > PM > PM > PM > PM > PM > PM    > PM > PM                  
  S S  S S  S S  S S  S S  S S  S S  S S     S S  S S   Q    E  Q.      
------------------------------------------|----------------------------|
------------------------------------------|----------------------------|
------------------------------------------|------------10----L--9------|
------------------------------------------|------------10----L--9------|
------------------------------------------|-------------8----L--7------|
--0-0--0-0--0-0--0-0--0-0--0-0--0-0--0-0--|--0-0--0-0---8----L--7------|


                            PM PM > PM > PM > PM > PM > PM > PM  
  Q.     E  Q    Q       E  S  S  S S  S S  S S  S S  S S  S S   
----------------------|-----------------------------------------|
----------------------|-----------------------------------------|
--8------7--L----8----|--9--------------------------------------|
--8------7--L----8----|--9--------------------------------------|
--6------5--L----6----|--7--------------------------------------|
--6------5--L----6----|--7--0--0--0-0--0-0--0-0--0-0--0-0--0-0--|


  > PM > PM > PM > PM > PM > PM > PM > PM    > PM > PM                  
  S S  S S  S S  S S  S S  S S  S S  S S     S S  S S   Q    E  Q.      
------------------------------------------|----------------------------|
------------------------------------------|----------------------------|
------------------------------------------|------------10----L--9------|
------------------------------------------|------------10----L--9------|
------------------------------------------|-------------8----L--7------|
--0-0--0-0--0-0--0-0--0-0--0-0--0-0--0-0--|--0-0--0-0---8----L--7------|


                            PM PM > PM > PM > PM > PM > PM > PM  
  Q.     E  Q    Q       E  S  S  S S  S S  S S  S S  S S  S S   
----------------------|-----------------------------------------|
----------------------|-----------------------------------------|
--8------7--L----8----|--9--------------------------------------|
--8------7--L----8----|--9--------------------------------------|
--6------5--L----6----|--7--------------------------------------|
--6------5--L----6----|--7--0--0--0-0--0-0--0-0--0-0--0-0--0-0--|


  > PM > PM > PM > PM > PM > PM > PM > PM    > PM > PM                  
  S S  S S  S S  S S  S S  S S  S S  S S     S S  S S   Q    E  Q.      
------------------------------------------|----------------------------|
------------------------------------------|----------------------------|
------------------------------------------|------------10----L--9------|
------------------------------------------|------------10----L--9------|
------------------------------------------|-------------8----L--7------|
--0-0--0-0--0-0--0-0--0-0--0-0--0-0--0-0--|--0-0--0-0---8----L--7------|


  Q.     E  Q    Q       E  E  Q    E  Q.        Q.     E  Q    Q     
----------------------|-----------------------|----------------------|
----------------------|-----------------------|----------------------|
--8------7--L----8----|--9-----7----L--6------|--5------4--L----5----|
--8------7--L----8----|--9-----7----L--6------|--5------4--L----5----|
--6------5--L----6----|--7-----5----L--4------|--3------2--L----3----|
--6------5--L----6----|--7-----5----L--4------|--3------2--L----3----|


  > PM > PM > PM > PM > PM > PM > PM > PM  
  S S  S S  S S  S S  S S  S S  S S  S S   
------------------------------------------|
------------------------------------------|
------------------------------------------|
------------------------------------------|
------------------------------------------|
--0-0--0-0--0-0--0-0--0-0--0-0--0-0--0-0--|


  > PM > PM > PM > PM > PM > PM > PM > PM  
  S S  S S  S S  S S  S S  S S  S S  S S   
------------------------------------------|
------------------------------------------|
------------------------------------------|
------------------------------------------|
------------------------------------------|
--0-0--0-0--0-0--0-0--0-0--0-0--0-0--0-0--|


  > PM > PM > PM > PM > PM > PM > PM > PM    > PM > PM > PM > PM             
  S S  S S  S S  S S  S S  S S  S S  S S     S S  S S  S S  S S  E  E  Q     
------------------------------------------|---------------------------------|
------------------------------------------|---------------------------------|
------------------------------------------|---------------------------------|
------------------------------------------|----------------------3--2--1----|
------------------------------------------|----------------------3--2--1----|
--0-0--0-0--0-0--0-0--0-0--0-0--0-0--0-0--|--0-0--0-0--0-0--0-0--3--2--1----|


  > PM > PM > PM > PM > PM > PM > PM > PM    > PM > PM > PM > PM             
  S S  S S  S S  S S  S S  S S  S S  S S     S S  S S  S S  S S  E  E  Q     
------------------------------------------|---------------------------------|
------------------------------------------|---------------------------------|
------------------------------------------|---------------------------------|
------------------------------------------|----------------------3--2--1----|
------------------------------------------|----------------------3--2--1----|
--0-0--0-0--0-0--0-0--0-0--0-0--0-0--0-0--|--0-0--0-0--0-0--0-0--3--2--1----|


  > PM > PM > PM > PM > PM > PM > PM > PM    > PM > PM > PM > PM             
  S S  S S  S S  S S  S S  S S  S S  S S     S S  S S  S S  S S  E  E  Q     
------------------------------------------|---------------------------------|
------------------------------------------|---------------------------------|
------------------------------------------|---------------------------------|
------------------------------------------|----------------------3--2--1----|
------------------------------------------|----------------------3--2--1----|
--0-0--0-0--0-0--0-0--0-0--0-0--0-0--0-0--|--0-0--0-0--0-0--0-0--3--2--1----|


  > PM > PM > PM > PM > PM > PM > PM > PM    > PM > PM > PM > PM             
  S S  S S  S S  S S  S S  S S  S S  S S     S S  S S  S S  S S  E  E  Q     
------------------------------------------|---------------------------------|
------------------------------------------|---------------------------------|
------------------------------------------|---------------------------------|
------------------------------------------|----------------------3--2--1----|
------------------------------------------|----------------------3--2--1----|
--0-0--0-0--0-0--0-0--0-0--0-0--0-0--0-0--|--0-0--0-0--0-0--0-0--3--2--1----|


  > PM > PM > PM > PM > PM > PM > PM > PM    > PM > PM > PM > PM             
  S S  S S  S S  S S  S S  S S  S S  S S     S S  S S  S S  S S  E  E  Q     
------------------------------------------|---------------------------------|
------------------------------------------|---------------------------------|
------------------------------------------|---------------------------------|
------------------------------------------|----------------------3--2--1----|
------------------------------------------|----------------------3--2--1----|
--0-0--0-0--0-0--0-0--0-0--0-0--0-0--0-0--|--0-0--0-0--0-0--0-0--3--2--1----|


  > PM > PM > PM > PM > PM > PM > PM > PM    > PM > PM > PM > PM >  >       
  S S  S S  S S  S S  S S  S S  S S  S S     S S  S S  S S  S S  E  Q.      
------------------------------------------|--------------------------------|
------------------------------------------|--------------------------------|
------------------------------------------|--------------------------------|
------------------------------------------|----------------------3--2------|
------------------------------------------|----------------------3--2------|
--0-0--0-0--0-0--0-0--0-0--0-0--0-0--0-0--|--0-0--0-0--0-0--0-0--3--2------|


  W                   H           E  E  E   E   E  E  E  E   
-------------------|-----------|----------------------------|
-------------------|-----------|----------------------------|
-------------------|-----------|--7--7-----10--10--9--9--7--|
-------------------|-----------|--x--x------x---x--x--x--x--|
-------------------|-----------|--5--5------8---8--7--7--5--|
-------------------|-----------|--0--0------0---0--0--0--0--|


  E  E  E   E   E  E  E  E     E  E  E   E   E  E  E  E   
----------------------------|----------------------------|
----------------------------|----------------------------|
--7--7-----10--10--9--9--7--|--7--7-----10--10--9--9--7--|
--x--x------x---x--x--x--x--|--x--x------x---x--x--x--x--|
--5--5------8---8--7--7--5--|--5--5------8---8--7--7--5--|
--0--0------0---0--0--0--0--|--0--0------0---0--0--0--0--|


  E  E  E  E  E  E  Q       E  E  E   E   E  E  E  E   
-------------------------|----------------------------|
-------------------------|----------------------------|
-------------------------|--7--7-----10--10--9--9--7--|
--5--5-----5--5--2--2----|--x--x------x---x--x--x--x--|
--3--3-----2--2--0--0----|--5--5------8---8--7--7--5--|
-------------------------|--0--0------0---0--0--0--0--|


  E  E  E   E   E  E  E  E     E  E  E   E   E  E  E  E   
----------------------------|----------------------------|
----------------------------|----------------------------|
--7--7-----10--10--9--9--7--|--7--7-----10--10--9--9--7--|
--x--x------x---x--x--x--x--|--x--x------x---x--x--x--x--|
--5--5------8---8--7--7--5--|--5--5------8---8--7--7--5--|
--0--0------0---0--0--0--0--|--0--0------0---0--0--0--0--|


  E  E  E  E  E  E  Q       E  E  E   E   E  E  E  E   
-------------------------|----------------------------|
-------------------------|----------------------------|
-------------------------|--7--7-----10--10--9--9--7--|
--5--5-----5--5--2--2----|--x--x------x---x--x--x--x--|
--3--3-----2--2--0--0----|--5--5------8---8--7--7--5--|
-------------------------|--0--0------0---0--0--0--0--|


  E  E  E   E   E  E  E  E     E  E  E   E   E  E  E  E   
----------------------------|----------------------------|
----------------------------|----------------------------|
--7--7-----10--10--9--9--7--|--7--7-----10--10--9--9--7--|
--x--x------x---x--x--x--x--|--x--x------x---x--x--x--x--|
--5--5------8---8--7--7--5--|--5--5------8---8--7--7--5--|
--0--0------0---0--0--0--0--|--0--0------0---0--0--0--0--|


  E  E  E  E  E  E  Q       E  E  E   E   E  E  E  E   
-------------------------|----------------------------|
-------------------------|----------------------------|
-------------------------|--7--7-----10--10--9--9--7--|
--5--5-----5--5--2--2----|--x--x------x---x--x--x--x--|
--3--3-----2--2--0--0----|--5--5------8---8--7--7--5--|
-------------------------|--0--0------0---0--0--0--0--|


  E  E  E   E   E  E  E  E     E  E  E   E   E  E  E  E   
----------------------------|----------------------------|
----------------------------|----------------------------|
--7--7-----10--10--9--9--7--|--7--7-----10--10--9--9--7--|
--x--x------x---x--x--x--x--|--x--x------x---x--x--x--x--|
--5--5------8---8--7--7--5--|--5--5------8---8--7--7--5--|
--0--0------0---0--0--0--0--|--0--0------0---0--0--0--0--|


                                                     > PM PM PM PM PM >  >  PM  
  E  E  E  E  E  E  Q       E  E  E  E  E  Q.        S S  E  E  E  E  E  E  E   
-------------------------|------------------------|----------------------------|
-------------------------|------------------------|----------------------------|
-------------------------|--3-----3-----3---------|----------------------------|
--5--5-----5--5--2--2----|--3-----3-----3---------|-------------------1--1-----|
--3--3-----2--2--0--0----|--1-----1-----1---------|-------------------1--1-----|
-------------------------|--1-----1-----1---------|--2-1--0--0--0--0--1--1--0--|


  PM >  >  PM PM PM PM PM PM PM    > PM PM PM PM PM >  >  PM  
  E  E  E  E  S  S  E  S  S  E     S S  E  E  E  E  E  E  E   
--------------------------------|----------------------------|
--------------------------------|----------------------------|
--------------------------------|----------------------------|
-----1--1-----------------------|-------------------1--1-----|
-----1--1-----------------------|-------------------1--1-----|
--0--1--1--0--2--2--2--3--3--3--|--2-1--0--0--0--0--1--1--0--|


  PM >  >  PM PM PM PM PM PM PM                                     PM PM  
  E  E  E  E  S  S  E  S  S  E     W                   H.           E  E   
--------------------------------|-------------------|---------------------|
--------------------------------|-------------------|---------------------|
--------------------------------|-------------------|---------------------|
-----1--1-----------------------|--0----------------|--L------------5--1--|
-----1--1-----------------------|--0----------------|--L------------5--1--|
--0--1--1--0--2--2--2--3--3--3--|--0----------------|--L------------5--1--|


                                   PM PM                      
  W                   H.           E  E     W                 
-------------------|---------------------|-------------------|
-------------------|---------------------|-------------------|
-------------------|---------------------|-------------------|
--0----------------|--L------------5--1--|--0----------------|
--0----------------|--L------------5--1--|--0----------------|
--0----------------|--L------------5--1--|--0----------------|


               PM PM                                     PM PM  
  H.           E  E     W                   H.           E  E   
---------------------|-------------------|---------------------|
---------------------|-------------------|---------------------|
---------------------|-------------------|---------------------|
--L------------5--1--|--0----------------|--L------------5--1--|
--L------------5--1--|--0----------------|--L------------5--1--|
--L------------5--1--|--0----------------|--L------------5--1--|


  ^  PM ^  PM ^  PM ^  PM                PM    ^  PM ^  PM ^  PM ^  PM  
  E  E  E  E  E  E  E  E       Q      E  E     E  E  E  E  E  E  E  E   
--------------------------|-----------------|--------------------------|
--------------------------|-----------------|--------------------------|
--------------------------|-----------------|--------------------------|
--3-----5-----3-----5-----|-----------------|--3-----5-----3-----5-----|
--3-----5-----3-----5-----|--3g5----3g5-----|--3-----5-----3-----5-----|
--3--0--5--0--3--0--5--0--|----0------0--0--|--3--0--5--0--3--0--5--0--|


              PM    ^  PM ^  PM ^  PM ^  PM                PM  
    Q      E  E     E  E  E  E  E  E  E  E       Q      E  E   
-----------------|--------------------------|-----------------|
-----------------|--------------------------|-----------------|
-----------------|--------------------------|-----------------|
-----------------|--3-----5-----3-----5-----|-----------------|
--3g5----3g5-----|--3-----5-----3-----5-----|--3g5----3g5-----|
----0------0--0--|--3--0--5--0--3--0--5--0--|----0------0--0--|


  ^  PM ^  PM ^  PM ^  PM                              
  E  E  E  E  E  E  E  E       Q    E  E  E  E  E  E   
--------------------------|---------------------------|
--------------------------|---------------------------|
--------------------------|---------------------------|
--3-----5-----3-----5-----|---------------------5-----|
--3-----5-----3-----5-----|--3g5-------------------6--|
--3--0--5--0--3--0--5--0--|----0----0--3--L--0--------|


                                 PM       PM               PM       PM        
  Q    E  E  E  E  E  E     Q    E  E  E  E  E  E     Q    E  E  E  E  E  E   
-------------------------|-------------------------|-------------------------|
-------------------------|-------------------------|-------------------------|
--7----------------------|--7----------------------|--7----------------------|
--7----------------5-----|--7-------3--L-----5-----|--7-------3--L-----5-----|
--5-------------------6--|--5-------3--L--------6--|--5-------3--L--------6--|
-------0--3--L--0--------|-------0--3--L--0--------|-------0--3--L--0--------|


                                                         PM PM    >    
  E  E  E  E  Q    Q        W                   H        E  E  E  E    
-------------------------|-------------------|-----------------------||
-------------------------|-------------------|-----------------------||
-------------------------|-------------------|-----------------------||
--------5--6--L----5~----|--L----------------|--L--------------5--0--||
-----5-------------------|-------------------|--------------5-----0--||
--0----------------------|-------------------|-----------0--------0--||


Gtr 2 & 4 (Kirk)



     W                   W                   W                 
E||-------------------|-------------------|-------------------|
B||-------------------|-------------------|-------------------|
G||-------------------|-------------------|-------------------|
D||-------------------|-------------------|-------------------|
A||-------------------|-------------------|-------------------|
D||-------------------|-------------------|-------------------|


                      Distorted                                       
                                               |--3--|                
  W                   Q.        Q.     Q       E  E  E  H.            
-------------------|------------------------|------------------------|
-------------------|------------------------|------------------------|
-------------------|------------------------|------------------------|
-------------------|--0---------6------5----|--0--0------------------|
-------------------|--0---------6------5----|--0--0------------------|
-------------------|--0---------6------5----|--0--0------------------|


                        |--3--|                                      
  Q.     Q.     Q       E  E  E  H.              Q.     Q.     Q     
---------------------|------------------------|---------------------|
---------------------|------------------------|---------------------|
---------------------|------------------------|---------------------|
--0------6------5----|--0--0------------------|--0------6------5----|
--0------6------5----|--0--0------------------|--0------6------5----|
--0------6------5----|--0--0------------------|--0------6------5----|


                                                |--3--|                  
  E  E  E  H        E     Q.     Q.     Q       E  E  E  E  E  H         
-----------------------|---------------------|--------------------------|
-----------------------|---------------------|--------------------------|
-----------------------|---------------------|--------------------------|
--0--0--0--------------|--0------6------5----|--0--0--------0-----------|
--0--0--0--------------|--0------6------5----|--0--0--------0-----------|
--0--0--0--------------|--0------6------5----|--0--0--------0-----------|


  |--3--|                    |--3--|                    |--3--|            
  E  E  E  E  E  H           E  E  E  E  E  H           E  E  E  H         
--------------------------|--------------------------|--------------------|
--------------------------|--------------------------|--------------------|
--------------------------|--------------------------|--------------------|
--0--0--------0-----------|--6--5--------0-----------|--6--5--------------|
--0--0--------0-----------|--6--5--------0-----------|--6--5--------------|
--0--0--------0-----------|--6--5--------0-----------|--6--5--------------|


  > PM > PM > PM > PM > PM > PM > PM > PM  
  S S  S S  S S  S S  S S  S S  S S  S S   
------------------------------------------|
------------------------------------------|
------------------------------------------|
------------------------------------------|
------------------------------------------|
--0-0--0-0--0-0--0-0--0-0--0-0--0-0--0-0--|


  > PM > PM > PM > PM > PM > PM > PM > PM  
  S S  S S  S S  S S  S S  S S  S S  S S   
------------------------------------------|
------------------------------------------|
------------------------------------------|
------------------------------------------|
------------------------------------------|
--0-0--0-0--0-0--0-0--0-0--0-0--0-0--0-0--|


  > PM > PM > PM > PM > PM > PM > PM > PM      NH               NH       
  S S  S S  S S  S S  S S  S S  S S  S S       H.               S  E.    
------------------------------------------|-----------------------------|
------------------------------------------|-----------------------------|
------------------------------------------|-----------------------------|
------------------------------------------|-----------------------------|
------------------------------------------|-----------------------------|
--0-0--0-0--0-0--0-0--0-0--0-0--0-0--0-0--|--<>2s------------<>12-12\---|


  > PM PM >  PM >  PM >  PM    >  PM >  PM >  PM >  PM  
  S S  E  E  E  E  E  E  E     E  E  E  E  E  E  E  E   
----------------------------|--------------------------|
----------------------------|--------------------------|
----------------------------|--------------------------|
----------------------------|--------------------------|
----------------------------|--------------------------|
--2-1--0--0--0--0--0--0--0--|--0--0--0--0--0--0--0--0--|


  > PM PM >  PM >  PM >  PM    >  PM >  PM >  PM >  PM  
  S S  E  E  E  E  E  E  E     E  E  E  E  E  E  E  E   
----------------------------|--------------------------|
----------------------------|--------------------------|
----------------------------|--------------------------|
----------------------------|--------------------------|
----------------------------|--------------------------|
--2-1--0--0--0--0--0--0--0--|--0--0--0--0--0--0--0--0--|


  > PM PM >  PM >  PM >  PM    >  PM >  PM >  PM >  PM  
  S S  E  E  E  E  E  E  E     E  E  E  E  E  E  E  E   
----------------------------|--------------------------|
----------------------------|--------------------------|
----------------------------|--------------------------|
----------------------------|--------------------------|
----------------------------|--------------------------|
--2-1--0--0--0--0--0--0--0--|--0--0--0--0--0--0--0--0--|


  > PM PM >  PM >  PM >  PM    >  PM >  PM >  PM >  PM  
  S S  E  E  E  E  E  E  E     E  E  E  E  E  E  E  E   
----------------------------|--------------------------|
----------------------------|--------------------------|
----------------------------|--------------------------|
----------------------------|--------------------------|
----------------------------|--------------------------|
--2-1--0--0--0--0--0--0--0--|--0--0--0--0--0--0--0--0--|


  > PM PM PM PM PM >  >  PM    PM >  >  PM PM PM PM PM PM PM  
  S S  E  E  E  E  E  E  E     E  E  E  E  S  S  E  S  S  E   
----------------------------|--------------------------------|
----------------------------|--------------------------------|
----------------------------|--------------------------------|
-------------------1--1-----|-----1--1-----------------------|
-------------------1--1-----|-----1--1-----------------------|
--2-1--0--0--0--0--1--1--0--|--0--1--1--0--2--2--2--3--3--3--|


  > PM PM PM PM PM >  >  PM    PM >  >  PM PM PM PM PM PM PM  
  S S  E  E  E  E  E  E  E     E  E  E  E  S  S  E  S  S  E   
----------------------------|--------------------------------|
----------------------------|--------------------------------|
----------------------------|--------------------------------|
-------------------1--1-----|-----1--1-----------------------|
-------------------1--1-----|-----1--1-----------------------|
--2-1--0--0--0--0--1--1--0--|--0--1--1--0--2--2--2--3--3--3--|


  > PM PM PM PM PM >  >  PM    PM >  >  PM PM PM PM PM PM PM  
  S S  E  E  E  E  E  E  E     E  E  E  E  S  S  E  S  S  E   
----------------------------|--------------------------------|
----------------------------|--------------------------------|
----------------------------|--------------------------------|
-------------------1--1-----|-----1--1-----------------------|
-------------------1--1-----|-----1--1-----------------------|
--2-1--0--0--0--0--1--1--0--|--0--1--1--0--2--2--2--3--3--3--|


  > PM PM PM PM PM >  >  PM    PM >  >  PM PM PM PM PM PM PM  
  S S  E  E  E  E  E  E  E     E  E  E  E  S  S  E  S  S  E   
----------------------------|--------------------------------|
----------------------------|--------------------------------|
----------------------------|--------------------------------|
-------------------1--1-----|-----1--1-----------------------|
-------------------1--1-----|-----1--1-----------------------|
--2-1--0--0--0--0--1--1--0--|--0--1--1--0--2--2--2--3--3--3--|


  > PM PM PM PM PM >  >  PM    PM >  >  PM PM PM PM PM PM PM  
  S S  E  E  E  E  E  E  E     E  E  E  E  S  S  E  S  S  E   
----------------------------|--------------------------------|
----------------------------|--------------------------------|
----------------------------|--------------------------------|
-------------------1--1-----|-----1--1-----------------------|
-------------------1--1-----|-----1--1-----------------------|
--2-1--0--0--0--0--1--1--0--|--0--1--1--0--2--2--2--3--3--3--|


  > PM PM PM PM PM >  >  PM    PM >  >  PM PM PM PM PM PM PM  
  S S  E  E  E  E  E  E  E     E  E  E  E  S  S  E  S  S  E   
----------------------------|--------------------------------|
----------------------------|--------------------------------|
----------------------------|--------------------------------|
-------------------1--1-----|-----1--1-----------------------|
-------------------1--1-----|-----1--1-----------------------|
--2-1--0--0--0--0--1--1--0--|--0--1--1--0--2--2--2--3--3--3--|


  > PM PM PM PM PM >  >  PM    PM >  >  PM PM PM PM PM PM PM  
  S S  E  E  E  E  E  E  E     E  E  E  E  S  S  E  S  S  E   
----------------------------|--------------------------------|
----------------------------|--------------------------------|
----------------------------|--------------------------------|
-------------------1--1-----|-----1--1-----------------------|
-------------------1--1-----|-----1--1-----------------------|
--2-1--0--0--0--0--1--1--0--|--0--1--1--0--2--2--2--3--3--3--|


  > PM PM PM PM PM >  >  PM    PM >  >                 ^  PM ^  PM ^  PM ^  PM  
  S S  E  E  E  E  E  E  E     E  E  E  H        E     E  E  E  E  E  E  E  E   
----------------------------|-----------------------|--------------------------|
----------------------------|-----------------------|--------------------------|
----------------------------|-----------------------|--------------------------|
-------------------1--1-----|-----1--1--------------|--3-----5-----3-----5-----|
-------------------1--1-----|-----1--1--------------|--3-----5-----3-----5-----|
--2-1--0--0--0--0--1--1--0--|--0--1--1--------------|--3--0--5--0--3--0--5--0--|


                  PM PM PM PM PM PM                    PM PM PM PM PM PM  
    Q    E  E  E  S  S  S  S  S  S       Q    E  E  E  S  S  S  S  S  S   
------------------------------------|------------------------------------|
------------------------------------|------------------------------------|
------------------------------------|------------------------------------|
------------3--L--------------------|------------3--L--------------------|
--3g5----5--3--L--------------------|--3g5----5--3--L--------------------|
----0----0--3--L--0--0--0--0--0--0--|----0----0--3--L--0--0--0--0--0--0--|


                  PM PM PM PM PM PM                               
    Q    E  E  E  S  S  S  S  S  S     E  Q    E  E    E   Q      
------------------------------------|----------------------------|
------------------------------------|----------------------------|
------------------------------------|----------------------------|
------------3--L--------------------|--7--7----5--5s--10--10\----|
--3g5----5--3--L--------------------|--5--5----3--3s---8---8\----|
----0----0--3--L--0--0--0--0--0--0--|----------------------------|


                  PM PM PM PM PM PM                    PM PM PM PM PM PM  
    Q    E  E  E  S  S  S  S  S  S       Q    E  E  E  S  S  S  S  S  S   
------------------------------------|------------------------------------|
------------------------------------|------------------------------------|
------------------------------------|------------------------------------|
------------3--L--------------------|------------3--L--------------------|
--3g5----5--3--L--------------------|--3g5----5--3--L--------------------|
----0----0--3--L--0--0--0--0--0--0--|----0----0--3--L--0--0--0--0--0--0--|


                  PM PM PM PM PM PM                               
    Q    E  E  E  S  S  S  S  S  S     E  Q    E  E    E   Q      
------------------------------------|----------------------------|
------------------------------------|----------------------------|
------------------------------------|----------------------------|
------------3--L--------------------|--7--7----5--5s--10--10\----|
--3g5----5--3--L--------------------|--5--5----3--3s---8---8\----|
----0----0--3--L--0--0--0--0--0--0--|----------------------------|


  >      >          >      >          PM PM PM PM PM PM PM PM PM PM PM PM  
  Q.     E  Q       Q.     E  Q       E  S  S  E  S  S  E  S  S  E  S  S   
-----------------|-----------------|--------------------------------------|
-----------------|-----------------|--------------------------------------|
-----------------|--6------7--L----|--------------------------------------|
--7------8--L----|--6------7--L----|--------------------------------------|
--7------8--L----|--4------5--L----|--8--8--8--8--8--8--8--8--8--8--8--8--|
--7------8--L----|-----------------|--------------------------------------|


   PM PM PM PM PM PM PM PM                   PM PM PM PM PM PM  
   S  S  S  S  S  S  S  S      Q    E  E  E  S  S  S  S  S  S   
--------------------------|------------------------------------|
--------------------------|------------------------------------|
--------------------------|------------------------------------|
--------------------------|------------3--L--------------------|
--10-10-10-10-10-10-10-10-|--3g5----5--3--L--------------------|
--------------------------|----0----0--3--L--0--0--0--0--0--0--|


                  PM PM PM PM PM PM                    PM PM PM PM PM PM  
    Q    E  E  E  S  S  S  S  S  S       Q    E  E  E  S  S  S  S  S  S   
------------------------------------|------------------------------------|
------------------------------------|------------------------------------|
------------------------------------|------------------------------------|
------------3--L--------------------|------------3--L--------------------|
--3g5----5--3--L--------------------|--3g5----5--3--L--------------------|
----0----0--3--L--0--0--0--0--0--0--|----0----0--3--L--0--0--0--0--0--0--|


                               >      >          >      >        
  E  Q    E  E    E   Q        Q.     E  Q       Q.     E  Q     
----------------------------|-----------------|-----------------|
----------------------------|-----------------|-----------------|
----------------------------|-----------------|--6------7--L----|
--7--7----5--5s--10--10\----|--7------8--L----|--6------7--L----|
--5--5----3--3s---8---8\----|--7------8--L----|--4------5--L----|
----------------------------|--7------8--L----|-----------------|


  > PM > PM > PM > PM  >            >   >   >   >   >   >   >   >    
  S S  S S  S S  S S   E  Q.        S S S S S S S S S S S S S S S S  
---------------------------------|----------------------------------|
---------------------------------|----------------------------------|
---------------------------------|----------------------------------|
----------------------10---------|--9-9-9-9-9-9---------------------|
--8-8--8-8--8-8--8-8---8---------|--------------8-8-8-8-8-8-7-7-7-7-|
---------------------------------|----------------------------------|


  >   >   >   >   >   >   >   >      > PM > PM > PM > PM > PM > PM > PM > PM  
  S S S S S S S S S S S S S S S S    S S  S S  S S  S S  S S  S S  S S  S S   
----------------------------------|------------------------------------------|
----------------------------------|------------------------------------------|
----------------------------------|------------------------------------------|
----------------------------------|------------------------------------------|
--5-5-5-5-5-5-2-2-2-2-2-2---------|------------------------------------------|
--------------------------3-3-3-3-|--2-2--2-2--2-2--2-2--2-2--2-2--2-2--2-2--|


  PM PM PM PM PM PM               > PM > PM > PM > PM > PM > PM > PM > PM  
  E  E  E  E  E  E  S  S  S  S    S S  S S  S S  S S  S S  S S  S S  S S   
-------------------------------|------------------------------------------|
-------------------------------|------------------------------------------|
-------------------------------|------------------------------------------|
-----------2-------------------|------------------------------------------|
--2--3--5-----5--3--2h-3p-2p-0-|------------------------------------------|
-------------------------------|--2-2--2-2--2-2--2-2--2-2--2-2--2-2--2-2--|


  > PM > PM > PM > PM > PM > PM > PM > PM  
  S S  S S  S S  S S  S S  S S  S S  S S   
------------------------------------------|
------------------------------------------|
------------------------------------------|
------------------------------------------|
------------------------------------------|
--2-2--2-2--2-2--2-2--2-2--2-2--2-2--2-2--|


  > PM > PM > PM > PM > PM > PM > PM > PM    PM PM PM PM PM PM             
  S S  S S  S S  S S  S S  S S  S S  S S     E  E  E  E  E  E  S  S  S  S  
------------------------------------------|-------------------------------|
------------------------------------------|-------------------------------|
------------------------------------------|-------------------------------|
------------------------------------------|-----------2-------------------|
------------------------------------------|--2--3--5-----5--3--2h-3p-2p-0-|
--2-2--2-2--2-2--2-2--2-2--2-2--2-2--2-2--|-------------------------------|


  S S S S S S S S S S S S S S S S    S S S S S S S S S S S S S S S S  
----------------------------------|----------------------------------|
----------------------------------|----------------------------------|
--4-4-4-4-4-4-4-4-4-4-4-4-4-4-4-4-|--4-4-4-4-4-4-4-4-4-4-4-4-4-4-4-4-|
--x-x-x-x-x-x-x-x-x-x-x-x-x-x-x-x-|--x-x-x-x-x-x-x-x-x-x-x-x-x-x-x-x-|
--2-2-2-2-2-2-2-2-2-2-2-2-2-2-2-2-|--2-2-2-2-2-2-2-2-2-2-2-2-2-2-2-2-|
----------------------------------|----------------------------------|


  S S S S S S S S S S S S S S S S    S S S S S S S S S S S S S S S S  
----------------------------------|----------------------------------|
----------------------------------|----------------------------------|
----------------------------------|----------------------------------|
--3-3-3-3-3-3-3-3-3-3-3-3-3-3-3-3-|--3-3-3-3-3-3-3-3-3-3-3-3-3-3-3-3-|
--x-x-x-x-x-x-x-x-x-x-x-x-x-x-x-x-|--x-x-x-x-x-x-x-x-x-x-x-x-x-x-x-x-|
--3-3-3-3-3-3-3-3-3-3-3-3-3-3-3-3-|--3-3-3-3-3-3-3-3-3-3-3-3-3-3-3-3-|


  S S S S S S S S S S S S S S S S    S S S S S S S S S S S S S S S S  
----------------------------------|----------------------------------|
----------------------------------|----------------------------------|
--4-4-4-4-4-4-4-4-4-4-4-4-4-4-4-4-|----------------------------------|
--x-x-x-x-x-x-x-x-x-x-x-x-x-x-x-x-|--2-2-2-2-2-2-2-2-2-2-2-2-2-2-2-2-|
--2-2-2-2-2-2-2-2-2-2-2-2-2-2-2-2-|--x-x-x-x-x-x-x-x-x-x-x-x-x-x-x-x-|
----------------------------------|--2-2-2-2-2-2-2-2-2-2-2-2-2-2-2-2-|


  S S S S S S S S S S S S S S S S    S S S S S S S S S S S S S S S S  
----------------------------------|----------------------------------|
----------------------------------|----------------------------------|
--4-4-4-4-4-4-4-4-4-4-4-4-4-4-4-4-|----------------------------------|
--x-x-x-x-x-x-x-x-x-x-x-x-x-x-x-x-|--3-3-3-3-3-3-3-3-3-3-3-3-3-3-3-3-|
--2-2-2-2-2-2-2-2-2-2-2-2-2-2-2-2-|--x-x-x-x-x-x-x-x-x-x-x-x-x-x-x-x-|
----------------------------------|--3-3-3-3-3-3-3-3-3-3-3-3-3-3-3-3-|


  Q.     Q.     Q       Q.     Q.     Q       Q.     Q.     Q     
---------------------|---------------------|---------------------|
---------------------|---------------------|---------------------|
--4------------------|--4------------------|--4------------------|
--4------2------3----|--4------2------3----|--4------2------3----|
--2------2------3----|--2------2------3----|--2------2------3----|
---------2------3----|---------2------3----|---------2------3----|


                        >  PM PM PM >  PM PM PM    >  PM PM PM >  PM PM PM  
  Q.     Q.     Q       E  E  E  E  E  E  E  E     E  E  E  E  E  E  E  E   
---------------------|--------------------------|--------------------------|
---------------------|--------------------------|--------------------------|
--4------------------|--------------------------|--------------------------|
--4------2------3----|--2--2--2--2--2--0--0--0--|--2--2--2--2--2--0--0--0--|
--2------2------3----|--2--2--2--2--2--0--0--0--|--2--2--2--2--2--0--0--0--|
---------2------3----|--2--2--2--2--2--0--0--0--|--2--2--2--2--2--0--0--0--|


  >      >          >      >          > PM > PM > PM > PM  >          
  Q.     E  Q       Q.     E  Q       S S  S S  S S  S S   E  Q.      
-----------------|-----------------|---------------------------------|
-----------------|-----------------|---------------------------------|
-----------------|--6------7--L----|---------------------------------|
--7------8--L----|--6------7--L----|----------------------10---------|
--7------8--L----|--4------5--L----|--8-8--8-8--8-8--8-8---8---------|
--7------8--L----|-----------------|---------------------------------|


                  PM PM PM PM PM PM                    PM PM PM PM PM PM  
    Q    E  E  E  S  S  S  S  S  S       Q    E  E  E  S  S  S  S  S  S   
------------------------------------|------------------------------------|
------------------------------------|------------------------------------|
------------------------------------|------------------------------------|
------------3--L--------------------|------------3--L--------------------|
--3g5----5--3--L--------------------|--3g5----5--3--L--------------------|
----0----0--3--L--0--0--0--0--0--0--|----0----0--3--L--0--0--0--0--0--0--|


                  PM PM PM PM PM PM                               
    Q    E  E  E  S  S  S  S  S  S     E  Q    E  E    E   Q      
------------------------------------|----------------------------|
------------------------------------|----------------------------|
------------------------------------|----------------------------|
------------3--L--------------------|--7--7----5--5s--10--10\----|
--3g5----5--3--L--------------------|--5--5----3--3s---8---8\----|
----0----0--3--L--0--0--0--0--0--0--|----------------------------|


  >      >          >      >          > PM > PM > PM > PM  >          
  Q.     E  Q       Q.     E  Q       S S  S S  S S  S S   E  Q.      
-----------------|-----------------|---------------------------------|
-----------------|-----------------|---------------------------------|
-----------------|--6------7--L----|---------------------------------|
--7------8--L----|--6------7--L----|----------------------10---------|
--7------8--L----|--4------5--L----|--8-8--8-8--8-8--8-8---8---------|
--7------8--L----|-----------------|---------------------------------|


  E  E  E   E   E  E  E  E     E  E  E   E   E  E  E  E   
----------------------------|----------------------------|
----------------------------|----------------------------|
--7--7-----10--10--9--9--7--|--7--7-----10--10--9--9--7--|
--x--x------x---x--x--x--x--|--x--x------x---x--x--x--x--|
--5--5------8---8--7--7--5--|--5--5------8---8--7--7--5--|
--0--0------0---0--0--0--0--|--0--0------0---0--0--0--0--|


  E  E  E   E   E  E  E  E     E  E  E  E  E  E  Q     
----------------------------|-------------------------|
----------------------------|-------------------------|
--7--7-----10--10--9--9--7--|-------------------------|
--x--x------x---x--x--x--x--|--5--5-----5--5--2--2----|
--5--5------8---8--7--7--5--|--3--3-----2--2--0--0----|
--0--0------0---0--0--0--0--|-------------------------|


  E  E  E   E   E  E  E  E     E  E  E   E   E  E  E  E   
----------------------------|----------------------------|
----------------------------|----------------------------|
--7--7-----10--10--9--9--7--|--7--7-----10--10--9--9--7--|
--x--x------x---x--x--x--x--|--x--x------x---x--x--x--x--|
--5--5------8---8--7--7--5--|--5--5------8---8--7--7--5--|
--0--0------0---0--0--0--0--|--0--0------0---0--0--0--0--|


  E  E  E   E   E  E  E  E     E  E  E  E  E  E  Q     
----------------------------|-------------------------|
----------------------------|-------------------------|
--7--7-----10--10--9--9--7--|-------------------------|
--x--x------x---x--x--x--x--|--5--5-----5--5--2--2----|
--5--5------8---8--7--7--5--|--3--3-----2--2--0--0----|
--0--0------0---0--0--0--0--|-------------------------|


  E  E  E   E   E  E  E  E     E  E  E   E   E  E  E  E   
----------------------------|----------------------------|
----------------------------|----------------------------|
--7--7-----10--10--9--9--7--|--7--7-----10--10--9--9--7--|
--x--x------x---x--x--x--x--|--x--x------x---x--x--x--x--|
--5--5------8---8--7--7--5--|--5--5------8---8--7--7--5--|
--0--0------0---0--0--0--0--|--0--0------0---0--0--0--0--|


  E  E  E   E   E  E  E  E     E  E  E  E  E  E  Q     
----------------------------|-------------------------|
----------------------------|-------------------------|
--7--7-----10--10--9--9--7--|-------------------------|
--x--x------x---x--x--x--x--|--5--5-----5--5--2--2----|
--5--5------8---8--7--7--5--|--3--3-----2--2--0--0----|
--0--0------0---0--0--0--0--|-------------------------|


  E  E  E   E   E  E  E  E     E  E  E   E   E  E  E  E   
----------------------------|----------------------------|
----------------------------|----------------------------|
--7--7-----10--10--9--9--7--|--7--7-----10--10--9--9--7--|
--x--x------x---x--x--x--x--|--x--x------x---x--x--x--x--|
--5--5------8---8--7--7--5--|--5--5------8---8--7--7--5--|
--0--0------0---0--0--0--0--|--0--0------0---0--0--0--0--|


  E  E  E   E   E  E  E  E     E  E  E  E  E  E  Q       E  E  E  E  E  Q.      
----------------------------|-------------------------|------------------------|
----------------------------|-------------------------|------------------------|
--7--7-----10--10--9--9--7--|-------------------------|--3-----3-----3---------|
--x--x------x---x--x--x--x--|--5--5-----5--5--2--2----|--3-----3-----3---------|
--5--5------8---8--7--7--5--|--3--3-----2--2--0--0----|--1-----1-----1---------|
--0--0------0---0--0--0--0--|-------------------------|--1-----1-----1---------|


  > PM PM PM PM PM >  >  PM    PM >  >  PM PM PM PM PM PM PM  
  S S  E  E  E  E  E  E  E     E  E  E  E  S  S  E  S  S  E   
----------------------------|--------------------------------|
----------------------------|--------------------------------|
----------------------------|--------------------------------|
-------------------1--1-----|-----1--1-----------------------|
-------------------1--1-----|-----1--1-----------------------|
--2-1--0--0--0--0--1--1--0--|--0--1--1--0--2--2--2--3--3--3--|


  > PM PM PM PM PM >  >  PM    PM >  >  PM PM PM PM PM PM PM  
  S S  E  E  E  E  E  E  E     E  E  E  E  S  S  E  S  S  E   
----------------------------|--------------------------------|
----------------------------|--------------------------------|
----------------------------|--------------------------------|
-------------------1--1-----|-----1--1-----------------------|
-------------------1--1-----|-----1--1-----------------------|
--2-1--0--0--0--0--1--1--0--|--0--1--1--0--2--2--2--3--3--3--|


  > PM PM PM PM PM >  >  PM    PM >  >  PM PM PM PM PM PM PM  
  S S  E  E  E  E  E  E  E     E  E  E  E  S  S  E  S  S  E   
----------------------------|--------------------------------|
----------------------------|--------------------------------|
----------------------------|--------------------------------|
-------------------1--1-----|-----1--1-----------------------|
-------------------1--1-----|-----1--1-----------------------|
--2-1--0--0--0--0--1--1--0--|--0--1--1--0--2--2--2--3--3--3--|


  > PM PM PM PM PM >  >  PM    PM >  >                 ^  PM ^  PM ^  PM ^  PM  
  S S  E  E  E  E  E  E  E     E  E  E  H        E     E  E  E  E  E  E  E  E   
----------------------------|-----------------------|--------------------------|
----------------------------|-----------------------|--------------------------|
----------------------------|-----------------------|--------------------------|
-------------------1--1-----|-----1--1--------------|--3-----5-----3-----5-----|
-------------------1--1-----|-----1--1--------------|--3-----5-----3-----5-----|
--2-1--0--0--0--0--1--1--0--|--0--1--1--------------|--3--0--5--0--3--0--5--0--|


                  PM PM PM PM PM PM                    PM PM PM PM PM PM  
    Q    E  E  E  S  S  S  S  S  S       Q    E  E  E  S  S  S  S  S  S   
------------------------------------|------------------------------------|
------------------------------------|------------------------------------|
------------------------------------|------------------------------------|
------------3--L--------------------|------------3--L--------------------|
--3g5----5--3--L--------------------|--3g5----5--3--L--------------------|
----0----0--3--L--0--0--0--0--0--0--|----0----0--3--L--0--0--0--0--0--0--|


                  PM PM PM PM PM PM                               
    Q    E  E  E  S  S  S  S  S  S     E  Q    E  E    E   Q      
------------------------------------|----------------------------|
------------------------------------|----------------------------|
------------------------------------|----------------------------|
------------3--L--------------------|--7--7----5--5s--10--10\----|
--3g5----5--3--L--------------------|--5--5----3--3s---8---8\----|
----0----0--3--L--0--0--0--0--0--0--|----------------------------|


                  PM PM PM PM PM PM                    PM PM PM PM PM PM  
    Q    E  E  E  S  S  S  S  S  S       Q    E  E  E  S  S  S  S  S  S   
------------------------------------|------------------------------------|
------------------------------------|------------------------------------|
------------------------------------|------------------------------------|
------------3--L--------------------|------------3--L--------------------|
--3g5----5--3--L--------------------|--3g5----5--3--L--------------------|
----0----0--3--L--0--0--0--0--0--0--|----0----0--3--L--0--0--0--0--0--0--|


                  PM PM PM PM PM PM                               
    Q    E  E  E  S  S  S  S  S  S     E  Q    E  E    E   Q      
------------------------------------|----------------------------|
------------------------------------|----------------------------|
------------------------------------|----------------------------|
------------3--L--------------------|--7--7----5--5s--10--10\----|
--3g5----5--3--L--------------------|--5--5----3--3s---8---8\----|
----0----0--3--L--0--0--0--0--0--0--|----------------------------|


  >      >          >      >          > PM > PM > PM > PM  >          
  Q.     E  Q       Q.     E  Q       S S  S S  S S  S S   E  Q.      
-----------------|-----------------|---------------------------------|
-----------------|-----------------|---------------------------------|
-----------------|--6------7--L----|---------------------------------|
--7------8--L----|--6------7--L----|----------------------10---------|
--7------8--L----|--4------5--L----|--8-8--8-8--8-8--8-8---8---------|
--7------8--L----|-----------------|---------------------------------|


  >   >   >   >   >   >   >   >      >   >   >   >   >   >   >   >    
  S S S S S S S S S S S S S S S S    S S S S S S S S S S S S S S S S  
----------------------------------|----------------------------------|
----------------------------------|----------------------------------|
----------------------------------|----------------------------------|
--9-9-9-9-9-9---------------------|----------------------------------|
--------------8-8-8-8-8-8-7-7-7-7-|--5-5-5-5-5-5-2-2-2-2-2-2---------|
----------------------------------|--------------------------3-3-3-3-|


  > PM > PM > PM > PM > PM > PM > PM > PM    PM PM PM PM PM PM             
  S S  S S  S S  S S  S S  S S  S S  S S     E  E  E  E  E  E  S  S  S  S  
------------------------------------------|-------------------------------|
------------------------------------------|-------------------------------|
------------------------------------------|-------------------------------|
------------------------------------------|-----------2-------------------|
------------------------------------------|--2--3--5-----5--3--2h-3p-2p-0-|
--2-2--2-2--2-2--2-2--2-2--2-2--2-2--2-2--|-------------------------------|


  > PM > PM > PM > PM > PM > PM > PM > PM  
  S S  S S  S S  S S  S S  S S  S S  S S   
------------------------------------------|
------------------------------------------|
------------------------------------------|
------------------------------------------|
------------------------------------------|
--2-2--2-2--2-2--2-2--2-2--2-2--2-2--2-2--|


  > PM > PM > PM > PM > PM > PM > PM > PM  
  S S  S S  S S  S S  S S  S S  S S  S S   
------------------------------------------|
------------------------------------------|
------------------------------------------|
------------------------------------------|
------------------------------------------|
--2-2--2-2--2-2--2-2--2-2--2-2--2-2--2-2--|


  > PM > PM > PM > PM > PM > PM > PM > PM    PM PM PM PM PM PM             
  S S  S S  S S  S S  S S  S S  S S  S S     E  E  E  E  E  E  S  S  S  S  
------------------------------------------|-------------------------------|
------------------------------------------|-------------------------------|
------------------------------------------|-------------------------------|
------------------------------------------|-----------2-------------------|
------------------------------------------|--2--3--5-----5--3--2h-3p-2p-0-|
--2-2--2-2--2-2--2-2--2-2--2-2--2-2--2-2--|-------------------------------|


  S S S S S S S S S S S S S S S S    S S S S S S S S S S S S S S S S  
----------------------------------|----------------------------------|
----------------------------------|----------------------------------|
--4-4-4-4-4-4-4-4-4-4-4-4-4-4-4-4-|--4-4-4-4-4-4-4-4-4-4-4-4-4-4-4-4-|
--x-x-x-x-x-x-x-x-x-x-x-x-x-x-x-x-|--x-x-x-x-x-x-x-x-x-x-x-x-x-x-x-x-|
--2-2-2-2-2-2-2-2-2-2-2-2-2-2-2-2-|--2-2-2-2-2-2-2-2-2-2-2-2-2-2-2-2-|
----------------------------------|----------------------------------|


  S S S S S S S S S S S S S S S S    S S S S S S S S S S S S S S S S  
----------------------------------|----------------------------------|
----------------------------------|----------------------------------|
----------------------------------|----------------------------------|
--3-3-3-3-3-3-3-3-3-3-3-3-3-3-3-3-|--3-3-3-3-3-3-3-3-3-3-3-3-3-3-3-3-|
--x-x-x-x-x-x-x-x-x-x-x-x-x-x-x-x-|--x-x-x-x-x-x-x-x-x-x-x-x-x-x-x-x-|
--3-3-3-3-3-3-3-3-3-3-3-3-3-3-3-3-|--3-3-3-3-3-3-3-3-3-3-3-3-3-3-3-3-|


  S S S S S S S S S S S S S S S S    S S S S S S S S S S S S S S S S  
----------------------------------|----------------------------------|
----------------------------------|----------------------------------|
--4-4-4-4-4-4-4-4-4-4-4-4-4-4-4-4-|----------------------------------|
--x-x-x-x-x-x-x-x-x-x-x-x-x-x-x-x-|--2-2-2-2-2-2-2-2-2-2-2-2-2-2-2-2-|
--2-2-2-2-2-2-2-2-2-2-2-2-2-2-2-2-|--x-x-x-x-x-x-x-x-x-x-x-x-x-x-x-x-|
----------------------------------|--2-2-2-2-2-2-2-2-2-2-2-2-2-2-2-2-|


  S S S S S S S S S S S S S S S S    S S S S S S S S S S S S S S S S  
----------------------------------|----------------------------------|
----------------------------------|----------------------------------|
--4-4-4-4-4-4-4-4-4-4-4-4-4-4-4-4-|----------------------------------|
--x-x-x-x-x-x-x-x-x-x-x-x-x-x-x-x-|--3-3-3-3-3-3-3-3-3-3-3-3-3-3-3-3-|
--2-2-2-2-2-2-2-2-2-2-2-2-2-2-2-2-|--x-x-x-x-x-x-x-x-x-x-x-x-x-x-x-x-|
----------------------------------|--3-3-3-3-3-3-3-3-3-3-3-3-3-3-3-3-|


  Q.     Q.     Q       Q.     Q.     Q       Q.     Q.     Q     
---------------------|---------------------|---------------------|
---------------------|---------------------|---------------------|
--4------------------|--4------------------|--4------------------|
--4------2------3----|--4------2------3----|--4------2------3----|
--2------2------3----|--2------2------3----|--2------2------3----|
---------2------3----|---------2------3----|---------2------3----|


                        >  PM PM PM >  PM PM PM    >  PM PM PM >  PM PM PM  
  Q.     Q.     Q       E  E  E  E  E  E  E  E     E  E  E  E  E  E  E  E   
---------------------|--------------------------|--------------------------|
---------------------|--------------------------|--------------------------|
--4------------------|--------------------------|--------------------------|
--4------2------3----|--2--2--2--2--2--0--0--0--|--2--2--2--2--2--0--0--0--|
--2------2------3----|--2--2--2--2--2--0--0--0--|--2--2--2--2--2--0--0--0--|
---------2------3----|--2--2--2--2--2--0--0--0--|--2--2--2--2--2--0--0--0--|


  >      >          >      >          > PM > PM > PM > PM  >          
  Q.     E  Q       Q.     E  Q       S S  S S  S S  S S   E  Q.      
-----------------|-----------------|---------------------------------|
-----------------|-----------------|---------------------------------|
-----------------|--6------7--L----|---------------------------------|
--7------8--L----|--6------7--L----|----------------------10---------|
--7------8--L----|--4------5--L----|--8-8--8-8--8-8--8-8---8---------|
--7------8--L----|-----------------|---------------------------------|


                  PM PM PM PM PM PM                    PM PM PM PM PM PM  
    Q    E  E  E  S  S  S  S  S  S       Q    E  E  E  S  S  S  S  S  S   
------------------------------------|------------------------------------|
------------------------------------|------------------------------------|
------------------------------------|------------------------------------|
------------3--L--------------------|------------3--L--------------------|
--3g5----5--3--L--------------------|--3g5----5--3--L--------------------|
----0----0--3--L--0--0--0--0--0--0--|----0----0--3--L--0--0--0--0--0--0--|


                  PM PM PM PM PM PM                               
    Q    E  E  E  S  S  S  S  S  S     E  Q    E  E    E   Q      
------------------------------------|----------------------------|
------------------------------------|----------------------------|
------------------------------------|----------------------------|
------------3--L--------------------|--7--7----5--5s--10--10\----|
--3g5----5--3--L--------------------|--5--5----3--3s---8---8\----|
----0----0--3--L--0--0--0--0--0--0--|----------------------------|


  >      >          >      >          > PM > PM > PM > PM  >          
  Q.     E  Q       Q.     E  Q       S S  S S  S S  S S   E  Q.      
-----------------|-----------------|---------------------------------|
-----------------|-----------------|---------------------------------|
-----------------|--6------7--L----|---------------------------------|
--7------8--L----|--6------7--L----|----------------------10---------|
--7------8--L----|--4------5--L----|--8-8--8-8--8-8--8-8---8---------|
--7------8--L----|-----------------|---------------------------------|


  E  E  E   E   E  E  E  E     E  E  E   E   E  E  E  E   
----------------------------|----------------------------|
----------------------------|----------------------------|
--7--7-----10--10--9--9--7--|--7--7-----10--10--9--9--7--|
--x--x------x---x--x--x--x--|--x--x------x---x--x--x--x--|
--5--5------8---8--7--7--5--|--5--5------8---8--7--7--5--|
--0--0------0---0--0--0--0--|--0--0------0---0--0--0--0--|


  E  E  E   E   E  E  E  E     E  E  E  E  E  E  Q     
----------------------------|-------------------------|
----------------------------|-------------------------|
--7--7-----10--10--9--9--7--|-------------------------|
--x--x------x---x--x--x--x--|--5--5-----5--5--2--2----|
--5--5------8---8--7--7--5--|--3--3-----2--2--0--0----|
--0--0------0---0--0--0--0--|-------------------------|


  E  E  E   E   E  E  E  E     E  E  E   E   E  E  E  E   
----------------------------|----------------------------|
----------------------------|----------------------------|
--7--7-----10--10--9--9--7--|--7--7-----10--10--9--9--7--|
--x--x------x---x--x--x--x--|--x--x------x---x--x--x--x--|
--5--5------8---8--7--7--5--|--5--5------8---8--7--7--5--|
--0--0------0---0--0--0--0--|--0--0------0---0--0--0--0--|


  E  E  E   E   E  E  E  E     E  E  E  E  E  E  Q     
----------------------------|-------------------------|
----------------------------|-------------------------|
--7--7-----10--10--9--9--7--|-------------------------|
--x--x------x---x--x--x--x--|--5--5-----5--5--2--2----|
--5--5------8---8--7--7--5--|--3--3-----2--2--0--0----|
--0--0------0---0--0--0--0--|-------------------------|


  E  E  E   E   E  E  E  E     E  E  E   E   E  E  E  E   
----------------------------|----------------------------|
----------------------------|----------------------------|
--7--7-----10--10--9--9--7--|--7--7-----10--10--9--9--7--|
--x--x------x---x--x--x--x--|--x--x------x---x--x--x--x--|
--5--5------8---8--7--7--5--|--5--5------8---8--7--7--5--|
--0--0------0---0--0--0--0--|--0--0------0---0--0--0--0--|


  E  E  E   E   E  E  E  E     E  E  E  E  E  E  Q     
----------------------------|-------------------------|
----------------------------|-------------------------|
--7--7-----10--10--9--9--7--|-------------------------|
--x--x------x---x--x--x--x--|--5--5-----5--5--2--2----|
--5--5------8---8--7--7--5--|--3--3-----2--2--0--0----|
--0--0------0---0--0--0--0--|-------------------------|


  E  E  E   E   E  E  E  E     E  E  E   E   E  E  E  E   
----------------------------|----------------------------|
----------------------------|----------------------------|
--7--7-----10--10--9--9--7--|--7--7-----10--10--9--9--7--|
--x--x------x---x--x--x--x--|--x--x------x---x--x--x--x--|
--5--5------8---8--7--7--5--|--5--5------8---8--7--7--5--|
--0--0------0---0--0--0--0--|--0--0------0---0--0--0--0--|


  E  E  E   E   E  E  E  E     E  E  E  E  E  E  Q       E  E  E  E  E  Q.      
----------------------------|-------------------------|------------------------|
----------------------------|-------------------------|------------------------|
--7--7-----10--10--9--9--7--|-------------------------|--3-----3-----3---------|
--x--x------x---x--x--x--x--|--5--5-----5--5--2--2----|--3-----3-----3---------|
--5--5------8---8--7--7--5--|--3--3-----2--2--0--0----|--1-----1-----1---------|
--0--0------0---0--0--0--0--|-------------------------|--1-----1-----1---------|


  > PM > PM > PM > PM > PM > PM > PM > PM               
  S S  S S  S S  S S  S S  S S  S S  S S     Q    Q     
------------------------------------------|------------|
------------------------------------------|------------|
------------------------------------------|------------|
------------------------------------------|--0---------|
------------------------------------------|--0---------|
--7-7--7-7--3-3--3-3--5-5--5-5--1-1--1-1--|--0---------|


  w/ wah-wah as filter                                                
  E                    E  E  Q    E  E  E     E  E  E  Q    E  E  E   
-------------------------------------------|-------------------------|
-------------------------------------------|-------------------------|
-------------------------------------------|-------------------------|
--7-----------------------8--7-------7-----|--------5----------------|
-----------------------5----------5-----8--|--L--7-----8----7--6--5--|
-------------------------------------------|-------------------------|


  E  E  E  Q    E  E  E     E  E  E  Q    E  E  E     E  E  E  Q    E  E  E   
-------------------------|-------------------------|-------------------------|
-------------------------|-------------------------|-------------------------|
-------------------------|-------------------------|-------------------------|
--7-----8--7-------7-----|--------5----------------|--7-----8--7-------7-----|
-----5----------5-----8--|--L--7-----8----7--6--5--|-----5----------5-----8--|
-------------------------|-------------------------|-------------------------|


  E  E  E  Q    E  E  E     E  E  E  Q    E  E  E     E  E  E  Q    E  E  E   
-------------------------|-------------------------|-------------------------|
-------------------------|-------------------------|-------------------------|
-------------------------|-------------------------|-------------------------|
--------5----------------|--7-----8--7-------7-----|--------5----------------|
--L--7-----8----7--6--5--|-----5----------5-----8--|--L--7-----8----7--6--5--|
-------------------------|-------------------------|-------------------------|


  E  E  E  Q    E  E  E     E  E  E  Q    E  E  E     E  E  E  Q    E  E  E   
-------------------------|-------------------------|-------------------------|
-------------------------|-------------------------|-------------------------|
-------------------------|-------------------------|-------------------------|
--7-----8--7-------7-----|--------5----------------|--7-----8--7-------7-----|
-----5----------5-----8--|--L--7-----8----7--6--5--|-----5----------5-----8--|
-------------------------|-------------------------|-------------------------|


  E  E  E  Q    E  E  E     E  E  E  Q    E  E  E     E  E  E  Q    E  E  E   
-------------------------|-------------------------|-------------------------|
-------------------------|-------------------------|-------------------------|
-------------------------|-------------------------|-------------------------|
--------5----------------|--7-----8--7-------7-----|--------5----------------|
--L--7-----8----7--6--5--|-----5----------5-----8--|--L--7-----8----7--6--5--|
-------------------------|-------------------------|-------------------------|


                                                        wah-wah off           
                                                        TP                    
  E  E  E  Q    E  E  E     E  E  E  Q    E  E  E       H          Q.     E   
-------------------------|-------------------------|-------------------------|
-------------------------|-------------------------|-------------------------|
-------------------------|-------------------------|-------------------------|
--7-----8--7-------7-----|--------5----------------|--/12----------L------0--|
-----5----------5-----8--|--L--7-----8----7--6--5--|-------------------------|
-------------------------|-------------------------|-------------------------|


    TP        TP         TP         TP        TP         TP     
    Q    E    E  E  E    E  E       Q    E    E  E  E    E  E   
-------------------------------|-------------------------------|
-------------------------------|-------------------------------|
-------------------------------|-------------------------------|
--/12----0--/12--L--0--/12--0--|--/12----0--/12--L--0--/12--0--|
-------------------------------|-------------------------------|
-------------------------------|-------------------------------|


   TP   TP   TP  TP  TP  TP                                         
   E    E    E   E   E   E  E  E     E.   S S  S E  S  S S  S Q     
----------------------------------|--------------------------------|
----------------------------------|---------------------------5----|
----------------------------------|---------------------------5----|
--12S--11S--10S--9S--8S--7--0--5--|--7p---5-7p-5-7--Lh-5-7p-5------|
----------------------------------|--------------------------------|
----------------------------------|--------------------------------|


  E.   S S  S E  S  S S  S Q       E.   S S  S E  S  S S  S Q     
--------------------------------|--------------------------------|
---------------------------5----|---------------------------5----|
---------------------------5----|---------------------------5----|
--7p---5-7p-5-7--Lh-5-7p-5------|--7p---5-7p-5-7--Lh-5-7p-5------|
--------------------------------|--------------------------------|
--------------------------------|--------------------------------|


  E.   S S  S E  E  E     E   E   
---------------------------------|
--------------------5---------0--|
--------------------5--7g14s--0--|
--7p---5-7p-5-7--L---------------|
---------------------------------|
---------------------------------|


  |--6--| |--6--|    |--3--| |--6--| |--6--| |--6--| |--6--|  
  S  S  S S  S  S E  S  S  S S  S  S S  S  S S  S  S S  S  S  
-------------------------------------------------------------|
-------------------------------------------------------------|
--4p-2p-0------------4p-2p-0---------4p-2p-0-4p-2p-0---------|
----------4p-2p-0------------4p-2p-0-----------------4p-2p-0-|
-------------------------------------------------------------|
-------------------------------------------------------------|


  |--6--| |--6--| |--6--| |--6--| |--6--| |--6--| |--6--| |--6--|  
  S  S  S S  S  S S  S  S S  S  S S  S  S S  S  S S  S  S S  S  S  
------------------------------------------------------------------|
------------------------------------------------------------------|
--4p-2p-0---------4p-2p-0-4p-2p-0---------4p-2p-0-4p-2p-0---------|
----------4p-2p-0-----------------4p-2p-0-----------------4p-2p-0-|
------------------------------------------------------------------|
------------------------------------------------------------------|


  |--6--| |--6--| |--6--| |--6--| |--6--| |--6--| |--6--| |--6--|  
  S  S  S S  S  S S  S  S S  S  S S  S  S S  S  S S  S  S S  S  S  
------------------------------------------------------------------|
------------------------------------------------------------------|
--4p-2p-0---------4p-2p-0---------4p-2p-0---------4p-2p-0---------|
----------4p-2p-0---------4p-2p-0---------4p-2p-0---------4p-2p-0-|
------------------------------------------------------------------|
------------------------------------------------------------------|


  |--6--| |--6--| |--6--| |--6--| |--6--| |--6--| |--3--|     
  S  S  S S  S  S S  S  S S  S  S S  S  S S  S  S S  S  S E   
-------------------------------------------------------------|
-------------------------------------------------------------|
--4p-2p-0---------4p-2p-0---------4p-2p-0---------4p-2p-0----|
----------4p-2p-0---------4p-2p-0---------4p-2p-0---------4--|
-------------------------------------------------------------|
-------------------------------------------------------------|


  |--6--| |--6--| |--6--| |--6--| |--6--| |--6--| |--6--| |--6--|  
  S  S  S S  S  S S  S  S S  S  S S  S  S S  S  S S  S  S S  S  S  
------------------------------------------------------------------|
------------------------------------------------------------------|
--4p-2p-0---------4p-2p-0-4p-2p-0---------4p-2p-0-4p-2p-0---------|
----------4p-2p-0-----------------4p-2p-0-----------------4p-2p-0-|
------------------------------------------------------------------|
------------------------------------------------------------------|


  |--6--| |--6--| |--6--| |--6--| |--6--| |--6--| |---3--|   
  S  S  S S  S  S S  S  S S  S  S S  S  S S  S  S E   E  E   
------------------------------------------------------------|
------------------------------------------------------------|
--4p-2p-0---------4p-2p-0---------4p-2p-0---------4p--2--0--|
----------4p-2p-0---------4p-2p-0---------4p-2p-0-----------|
------------------------------------------------------------|
------------------------------------------------------------|


  |---3--|  |---3--|  |---3--|  |---3--|   
  E   E  E  E   E  E  E   E  E  E   E  E   
------------------------------------------|
---------0--5p--2--0--6p--3--0--7p--4--0--|
--4p--2-----------------------------------|
------------------------------------------|
------------------------------------------|
------------------------------------------|


  |---3--|  |---3--|   |---3--|   |---3--|   
  E   E  E  E   E  E   E   E  E   E   E  E   
--------------------------------------------|
--8p--5--0--9p--6--0--10p--7--0--11p--8--0--|
--------------------------------------------|
--------------------------------------------|
--------------------------------------------|
--------------------------------------------|


   |---3--|   |---3---|   |---3---|   |---3---|   
   E   E  E   E    E  E   E    E  E   E    E  E   
-------------------------------------------------|
--12p--9--0--13p--10--0--15p--12--0--16p--13--0--|
-------------------------------------------------|
-------------------------------------------------|
-------------------------------------------------|
-------------------------------------------------|


   |---3---|   |---3---|   |---3---|   |---3---|   
   E    E  E   E    E  E   E    E  E   E    E  E   
--------------------------------------------------|
--17p--14--0--18p--15--0--19p--16--0--20p--17--0--|
--------------------------------------------------|
--------------------------------------------------|
--------------------------------------------------|
--------------------------------------------------|


   |---3---|   |---3---|   |---3---|   |---3---|   
   E    E  E   E    E  E   E    E  E   E    E  E   
--------------------------------------------------|
--21p--18--0--22p--19--0--22p--19--0--22p--19--0--|
--------------------------------------------------|
--------------------------------------------------|
--------------------------------------------------|
--------------------------------------------------|


   |---3---|   |---3---|   |---3---|          
   E    E  E   E    E  E   E    E  E   Q      
---------------------------------------------|
--22p--19--0--22p--19--0--22p--19--0--22\----|
---------------------------------------------|
---------------------------------------------|
---------------------------------------------|
---------------------------------------------|


   * killswitch to the rhythm indicated                                         
                                              |-----6-----|     |-----6-----|   
   E.                                    S    E     E     E     E     E     E   
--20-----------------------------------(20)-(20)--(20)--(20)--(20)--(20)--(20)--
---x----------------------------------------------------------------------------
---x----------------------------------------------------------------------------
---x----------------------------------------------------------------------------
---0------------------------------------(0)--(0)---(0)---(0)---(0)---(0)---(0)--
--------------------------------------------------------------------------------


                                                               >              
    |-----6-----|     |-----6-----|                                           
    E     E     E     E     E     E    H            Q      E   Q.      Q      
--(20)--(20)--(20)--(20)--(20)--(20)-------------|---------------------------|
-------------------------------------------------|------------13\------------|
-------------------------------------------------|------------12\------------|
-------------------------------------------------|--5s----14-----------5s----|
---(0)---(0)---(0)---(0)---(0)---(0)-------------|---------------------------|
--------------------------------------20\--------|---------------------------|


       >       >                       >              
   E   Q.      H            Q      E   Q.      Q      
-------------------------|---------------------------|
------13------13\--------|------------13\------------|
------12------12\--------|------------12\------------|
--14---------------------|--5s----14-----------5s----|
-------------------------|---------------------------|
-------------------------|---------------------------|


       >                                      PM         
   E   Q.      Q     E   E     E   E  E  Q    E  E   E   
----------------------------|---------------------------|
------13------13\-----------|---------------------------|
------12------12\-----------|---------------------------|
--14-----------------2p--0--|--7h--8--7----------7h--8--|
----------------------------|--5------5--8-------5------|
----------------------------|------------0----0---------|


             PM PM PM PM                   PM                      PM PM PM PM  
  E  Q    E  E  E  E  E     E   E  E  Q    E  E   E     E  Q    E  E  E  E  E   
-------------------------|---------------------------|-------------------------|
-------------------------|---------------------------|-------------------------|
-------------------------|---------------------------|-------------------------|
--7----------------------|--7h--8--7----------7h--8--|--7----------------------|
--5--8----5--------------|--5------5--8-------5------|--5--8----5--------------|
-----0----0--0--0--0--0--|------------0----0---------|-----0----0--0--0--0--0--|


                                         PM PM PM PM  
  E   E  E  Q    E  E  E     E   Q    E  E  E  E  E   
--------------------------|--------------------------|
--------------------------|--------------------------|
--------------------------|--------------------------|
--7h--8--7----------7-----|--7h--8----7--------------|
--5------5--8----5--8-----|--8---8----8--8--8--8--8--|
------------0----0--7-----|--7---7----7--7--7--7--7--|


                                         PM PM PM PM  
  E  E  E   Q    E  E  E     E   Q    E  E  E  E  E   
--------------------------|--------------------------|
--------------------------|--------------------------|
--------------------------|--------------------------|
--6-----6h--7----6--2-----|--2h--3----2--------------|
--7-----7---7----7--3-----|--3---3----3--3--3--3--0--|
--6-----6---6----6--2-----|--2---2----2--2--2--2--0--|


                 PM                      PM PM PM PM  
  E   E  E  Q    E  E   E     E  Q    E  E  E  E  E   
---------------------------|-------------------------|
---------------------------|-------------------------|
---------------------------|-------------------------|
--7h--8--7----------7h--8--|--7----------------------|
--5------5--8-------5------|--5--8----5--------------|
------------0----0---------|-----0----0--0--0--0--0--|


                 PM                      PM PM PM PM  
  E   E  E  Q    E  E   E     E  Q    E  E  E  E  E   
---------------------------|-------------------------|
---------------------------|-------------------------|
---------------------------|-------------------------|
--7h--8--7----------7h--8--|--7----------------------|
--5------5--8-------5------|--5--8----5--------------|
------------0----0---------|-----0----0--0--0--0--0--|


                                         PM PM PM PM  
  E   E  E  Q    E  E  E     E   Q    E  E  E  E  E   
--------------------------|--------------------------|
--------------------------|--------------------------|
--------------------------|--------------------------|
--7h--8--7----------7-----|--7h--8----7--------------|
--5------5--8----5--8-----|--8---8----8--8--8--8--8--|
------------0----0--7-----|--7---7----7--7--7--7--7--|


                                         PM PM PM PM  
  E  E  E   Q    E  E  E     E   Q    E  E  E  E  E   
--------------------------|--------------------------|
--------------------------|--------------------------|
--------------------------|--------------------------|
--6-----6h--7----6--2-----|--2h--3----2--------------|
--7-----7---7----7--3-----|--3---3----3--3--3--3--0--|
--6-----6---6----6--2-----|--2---2----2--2--2--2--0--|


  > PM > PM > PM > PM > PM > PM > PM > PM  
  S S  S S  S S  S S  S S  S S  S S  S S   
------------------------------------------|
------------------------------------------|
------------------------------------------|
------------------------------------------|
------------------------------------------|
--0-0--0-0--0-0--0-0--0-0--0-0--0-0--0-0--|


  > PM > PM > PM > PM > PM > PM > PM > PM  
  S S  S S  S S  S S  S S  S S  S S  S S   
------------------------------------------|
------------------------------------------|
------------------------------------------|
------------------------------------------|
------------------------------------------|
--0-0--0-0--0-0--0-0--0-0--0-0--0-0--0-0--|


  > PM > PM > PM > PM > PM > PM > PM > PM  
  S S  S S  S S  S S  S S  S S  S S  S S   
------------------------------------------|
------------------------------------------|
------------------------------------------|
------------------------------------------|
------------------------------------------|
--0-0--0-0--0-0--0-0--0-0--0-0--0-0--0-0--|


  > PM > PM > PM > PM > PM > PM > PM > PM  
  S S  S S  S S  S S  S S  S S  S S  S S   
------------------------------------------|
------------------------------------------|
------------------------------------------|
------------------------------------------|
------------------------------------------|
--0-0--0-0--0-0--0-0--0-0--0-0--0-0--0-0--|


  > PM > PM > PM > PM > PM > PM > PM > PM  
  S S  S S  S S  S S  S S  S S  S S  S S   
------------------------------------------|
------------------------------------------|
------------------------------------------|
------------------------------------------|
------------------------------------------|
--2-2--2-2--2-2--2-2--2-2--2-2--2-2--2-2--|


  > PM > PM > PM > PM > PM > PM > PM > PM  
  S S  S S  S S  S S  S S  S S  S S  S S   
------------------------------------------|
------------------------------------------|
------------------------------------------|
------------------------------------------|
------------------------------------------|
--2-2--2-2--2-2--2-2--2-2--2-2--2-2--2-2--|


  w/ wah-wah as filter                                             
                                  \1/                   \2         
  |-----------3-----------|                                        
  E                    E  E  Q    H           Q    Q    Q    Q     
-----------------------------0----L--------|--L----L--------------|
--------------------------0-------L--------|--L----L--------------|
-----------------------0----------L--------|--L----L----0----L----|
--0-------------------------------L--------|--L----L--------------|
-------------------------------------------|----------------------|
-------------------------------------------|----------------------|


  |--3--|      |--3--|      |--3--|       |--3--|      |--3--|      |--3--|     
  S  S  S Q    S  S  S Q    S  S  S E     S  S  S Q    S  S  S Q    S  S  S E   
---------------------------------------|---------------------------------------|
---------------------------------------|---------------------------------------|
--3p-2p-0------3p-2p-0------3p-2p-0----|--3p-2p-0------3p-2p-0------3p-2p-0----|
----------2------------2------------2--|----------2------------2------------2--|
---------------------------------------|---------------------------------------|
---------------------------------------|---------------------------------------|


  |--3--|      |--3--|      |--3--|       
  S  S  S Q    S  S  S Q    S  S  S S  S  
-----------------------------------------|
-----------------------------------------|
--3p-2p-0------3p-2p-0------3p-2p-0------|
----------3------------3------------3p-0-|
-----------------------------------------|
-----------------------------------------|


  |--3--|      |--3--|      |--3--|       
  S  S  S Q    S  S  S Q    S  S  S S  S  
-----------------------------------------|
-----------------------------------------|
--3p-2p-0------3p-2p-0------3p-2p-0------|
----------3------------3------------3p-0-|
-----------------------------------------|
-----------------------------------------|


  S  S S S S  S S S S  S S S S  S S S    S  S S S S  S S S S  S S S S  S S S  
--------------------------------------|--------------------------------------|
--------------------------------------|--------------------------------------|
--5p-3---0-5p-3---0-5p-3---0-5p-3---0-|--5p-3---0-5p-3---0-5p-3---0-5p-3---0-|
-------5--------5--------5--------5---|-------5--------5--------5--------5---|
--------------------------------------|--------------------------------------|
--------------------------------------|--------------------------------------|


  S  S S S S  S S S S  S S S S  S S S    S  S S S S  S S S S  S S S S  S  E   
--------------------------------------|--------------------------------------|
--------------------------------------|--------------------------------------|
--------------------------------------|--------------------------------------|
--5p-3---0-5p-3---0-5p-3---0-5p-3---0-|--5p-3---0-5p-3---0-5p-3---0-5p-3s-2--|
-------5--------5--------5--------5---|-------5--------5--------5------------|
--------------------------------------|--------------------------------------|


  |--3--|      |--3--|      |--3--|     
  S  S  S Q    S  S  S Q    S  S  S E   
---------------------------------------|
---------------------------------------|
--3p-2p-0------3p-2p-0------3p-2p-0----|
----------2------------2------------2--|
---------------------------------------|
---------------------------------------|


  |--3--|    |--3--|    |--3--|    |--3--|     
  S  S  S E  S  S  S E  S  S  S E  S  S  S E   
----------------------------------------------|
----------------------------------------------|
--3p-2p-0----3p-2p-0----3p-2p-0----3p-2p-0----|
----------2----------2----------2----------2--|
----------------------------------------------|
----------------------------------------------|


  |--3--|    |--3--|    |--3--|    |--3--|     
  S  S  S E  S  S  S E  S  S  S E  S  S  S E   
----------------------------------------------|
----------------------------------------------|
--3p-2p-0----3p-2p-0----3p-2p-0----3p-2p-0----|
----------3----------3----------3----------3--|
----------------------------------------------|
----------------------------------------------|


  |--3--|    |--3--|    |--3--|    |--3--|     
  S  S  S E  S  S  S E  S  S  S E  S  S  S E   
----------------------------------------------|
----------------------------------------------|
--3p-2p-0----3p-2p-0----3p-2p-0----3p-2p-0----|
----------3----------3----------3----------3--|
----------------------------------------------|
----------------------------------------------|


  |--3--|    |--3--|    |--3--|    |--3--|     
  S  S  S E  S  S  S E  S  S  S E  S  S  S E   
----------------------------------------------|
----------------------------------------------|
--5p-3p-0----5p-3p-0----5p-3p-0----5p-3p-0----|
----------5----------5----------5----------5--|
----------------------------------------------|
----------------------------------------------|


  |--3--|    |--3--|    |--3--|    |--3--|     
  S  S  S E  S  S  S E  S  S  S E  S  S  S E   
----------------------------------------------|
----------------------------------------------|
--5p-3p-0----5p-3p-0----5p-3p-0----5p-3p-0----|
----------5----------5----------5----------5--|
----------------------------------------------|
----------------------------------------------|


  |--3--|    |--3--|    |--3--|    |--3--|     
  S  S  S E  S  S  S E  S  S  S E  S  S  S E   
----------------------------------------------|
----------------------------------------------|
----------------------------------------------|
--5p-3p-0----5p-3p-0----5p-3p-0----5p-3p-0----|
----------5----------5----------5----------5--|
----------------------------------------------|


  |--3--|    |--3--|    |--3--|               
  S  S  S E  S  S  S E  S  S  S E  E    S  S  
---------------------------------------------|
---------------------------------------------|
------------------------------------------12-|
--5p-3p-0----5p-3p-0----5p-3p-0----5S--14----|
----------5----------5----------5------------|
---------------------------------------------|


   S   S  S  S  S   S  S   S  S  S  S   S  S   S  S  S  
-------------------------------------------------------|
-------------------------------------------------------|
--14p-12----12-14p-12-14p-12----12-14p-12-14p-12----12-|
---------14------------------14------------------14----|
-------------------------------------------------------|
-------------------------------------------------------|


                          TP         
      E   S  S  E   S  S  H          
-------------------14-15-17S--------|
---------17-15-17-------------------|
--14g16-----------------------------|
------------------------------------|
------------------------------------|
------------------------------------|


             wah-wah off                    
             >           PM > PM > PM > PM  
   H         S           S  S S  S S  S S   
--24\--------------------------------------|
-------------------------------------------|
-------------------------------------------|
-------------------------------------------|
-------------------------------------------|
-------------0-----------0--0-0--0-0--0-0--|


  > PM > PM > PM > PM > PM > PM > PM > PM  
  S S  S S  S S  S S  S S  S S  S S  S S   
------------------------------------------|
------------------------------------------|
------------------------------------------|
------------------------------------------|
------------------------------------------|
--0-0--0-0--0-0--0-0--0-0--0-0--0-0--0-0--|


  > PM > PM > PM > PM > PM > PM > PM > PM  
  S S  S S  S S  S S  S S  S S  S S  S S   
------------------------------------------|
------------------------------------------|
------------------------------------------|
------------------------------------------|
------------------------------------------|
--0-0--0-0--0-0--0-0--0-0--0-0--0-0--0-0--|


  > PM > PM > PM > PM > PM > PM > PM > PM    > PM > PM                  
  S S  S S  S S  S S  S S  S S  S S  S S     S S  S S   Q    E  Q.      
------------------------------------------|----------------------------|
------------------------------------------|----------------------------|
------------------------------------------|------------10----L--9------|
------------------------------------------|------------10----L--9------|
------------------------------------------|-------------8----L--7------|
--0-0--0-0--0-0--0-0--0-0--0-0--0-0--0-0--|--0-0--0-0---8----L--7------|


                            PM PM > PM > PM > PM > PM > PM > PM  
  Q.     E  Q    Q       E  S  S  S S  S S  S S  S S  S S  S S   
----------------------|-----------------------------------------|
----------------------|-----------------------------------------|
--8------7--L----8----|--9--------------------------------------|
--8------7--L----8----|--9--------------------------------------|
--6------5--L----6----|--7--------------------------------------|
--6------5--L----6----|--7--0--0--0-0--0-0--0-0--0-0--0-0--0-0--|


  > PM > PM > PM > PM > PM > PM > PM > PM    > PM > PM                  
  S S  S S  S S  S S  S S  S S  S S  S S     S S  S S   Q    E  Q.      
------------------------------------------|----------------------------|
------------------------------------------|----------------------------|
------------------------------------------|------------10----L--9------|
------------------------------------------|------------10----L--9------|
------------------------------------------|-------------8----L--7------|
--0-0--0-0--0-0--0-0--0-0--0-0--0-0--0-0--|--0-0--0-0---8----L--7------|


                            PM PM > PM > PM > PM > PM > PM > PM  
  Q.     E  Q    Q       E  S  S  S S  S S  S S  S S  S S  S S   
----------------------|-----------------------------------------|
----------------------|-----------------------------------------|
--8------7--L----8----|--9--------------------------------------|
--8------7--L----8----|--9--------------------------------------|
--6------5--L----6----|--7--------------------------------------|
--6------5--L----6----|--7--0--0--0-0--0-0--0-0--0-0--0-0--0-0--|


  > PM > PM > PM > PM > PM > PM > PM > PM    > PM > PM                  
  S S  S S  S S  S S  S S  S S  S S  S S     S S  S S   Q    E  Q.      
------------------------------------------|----------------------------|
------------------------------------------|----------------------------|
------------------------------------------|------------10----L--9------|
------------------------------------------|------------10----L--9------|
------------------------------------------|-------------8----L--7------|
--0-0--0-0--0-0--0-0--0-0--0-0--0-0--0-0--|--0-0--0-0---8----L--7------|


  Q.     E  Q    Q       E  E  Q    E  Q.        Q.     E  Q    Q     
----------------------|-----------------------|----------------------|
----------------------|-----------------------|----------------------|
--8------7--L----8----|--9-----7----L--6------|--5------4--L----5----|
--8------7--L----8----|--9-----7----L--6------|--5------4--L----5----|
--6------5--L----6----|--7-----5----L--4------|--3------2--L----3----|
--6------5--L----6----|--7-----5----L--4------|--3------2--L----3----|


  > PM > PM > PM > PM > PM > PM > PM > PM  
  S S  S S  S S  S S  S S  S S  S S  S S   
------------------------------------------|
------------------------------------------|
------------------------------------------|
------------------------------------------|
------------------------------------------|
--0-0--0-0--0-0--0-0--0-0--0-0--0-0--0-0--|


  > PM > PM > PM > PM > PM > PM > PM > PM  
  S S  S S  S S  S S  S S  S S  S S  S S   
------------------------------------------|
------------------------------------------|
------------------------------------------|
------------------------------------------|
------------------------------------------|
--0-0--0-0--0-0--0-0--0-0--0-0--0-0--0-0--|


  > PM > PM > PM > PM > PM > PM > PM > PM    > PM > PM > PM > PM             
  S S  S S  S S  S S  S S  S S  S S  S S     S S  S S  S S  S S  E  E  Q     
------------------------------------------|---------------------------------|
------------------------------------------|---------------------------------|
------------------------------------------|---------------------------------|
------------------------------------------|----------------------3--2--1----|
------------------------------------------|----------------------3--2--1----|
--0-0--0-0--0-0--0-0--0-0--0-0--0-0--0-0--|--0-0--0-0--0-0--0-0--3--2--1----|


  > PM > PM > PM > PM > PM > PM > PM > PM    > PM > PM > PM > PM             
  S S  S S  S S  S S  S S  S S  S S  S S     S S  S S  S S  S S  E  E  Q     
------------------------------------------|---------------------------------|
------------------------------------------|---------------------------------|
------------------------------------------|---------------------------------|
------------------------------------------|----------------------3--2--1----|
------------------------------------------|----------------------3--2--1----|
--0-0--0-0--0-0--0-0--0-0--0-0--0-0--0-0--|--0-0--0-0--0-0--0-0--3--2--1----|


  > PM > PM > PM > PM > PM > PM > PM > PM    > PM > PM > PM > PM             
  S S  S S  S S  S S  S S  S S  S S  S S     S S  S S  S S  S S  E  E  Q     
------------------------------------------|---------------------------------|
------------------------------------------|---------------------------------|
------------------------------------------|---------------------------------|
------------------------------------------|----------------------3--2--1----|
------------------------------------------|----------------------3--2--1----|
--0-0--0-0--0-0--0-0--0-0--0-0--0-0--0-0--|--0-0--0-0--0-0--0-0--3--2--1----|


  > PM > PM > PM > PM > PM > PM > PM > PM    > PM > PM > PM > PM             
  S S  S S  S S  S S  S S  S S  S S  S S     S S  S S  S S  S S  E  E  Q     
------------------------------------------|---------------------------------|
------------------------------------------|---------------------------------|
------------------------------------------|---------------------------------|
------------------------------------------|----------------------3--2--1----|
------------------------------------------|----------------------3--2--1----|
--0-0--0-0--0-0--0-0--0-0--0-0--0-0--0-0--|--0-0--0-0--0-0--0-0--3--2--1----|


  > PM > PM > PM > PM > PM > PM > PM > PM    > PM > PM > PM > PM             
  S S  S S  S S  S S  S S  S S  S S  S S     S S  S S  S S  S S  E  E  Q     
------------------------------------------|---------------------------------|
------------------------------------------|---------------------------------|
------------------------------------------|---------------------------------|
------------------------------------------|----------------------3--2--1----|
------------------------------------------|----------------------3--2--1----|
--0-0--0-0--0-0--0-0--0-0--0-0--0-0--0-0--|--0-0--0-0--0-0--0-0--3--2--1----|


  > PM > PM > PM > PM > PM > PM > PM > PM    > PM > PM > PM > PM >  >       
  S S  S S  S S  S S  S S  S S  S S  S S     S S  S S  S S  S S  E  Q.      
------------------------------------------|--------------------------------|
------------------------------------------|--------------------------------|
------------------------------------------|--------------------------------|
------------------------------------------|----------------------3--2------|
------------------------------------------|----------------------3--2------|
--0-0--0-0--0-0--0-0--0-0--0-0--0-0--0-0--|--0-0--0-0--0-0--0-0--3--2------|


  W                   H           E  E  E   E   E  E  E  E   
-------------------|-----------|----------------------------|
-------------------|-----------|----------------------------|
-------------------|-----------|--7--7-----10--10--9--9--7--|
-------------------|-----------|--x--x------x---x--x--x--x--|
-------------------|-----------|--5--5------8---8--7--7--5--|
-------------------|-----------|--0--0------0---0--0--0--0--|


  E  E  E   E   E  E  E  E     E  E  E   E   E  E  E  E   
----------------------------|----------------------------|
----------------------------|----------------------------|
--7--7-----10--10--9--9--7--|--7--7-----10--10--9--9--7--|
--x--x------x---x--x--x--x--|--x--x------x---x--x--x--x--|
--5--5------8---8--7--7--5--|--5--5------8---8--7--7--5--|
--0--0------0---0--0--0--0--|--0--0------0---0--0--0--0--|


  E  E  E  E  E  E  Q       E  E  E   E   E  E  E  E   
-------------------------|----------------------------|
-------------------------|----------------------------|
-------------------------|--7--7-----10--10--9--9--7--|
--5--5-----5--5--2--2----|--x--x------x---x--x--x--x--|
--3--3-----2--2--0--0----|--5--5------8---8--7--7--5--|
-------------------------|--0--0------0---0--0--0--0--|


  E  E  E   E   E  E  E  E     E  E  E   E   E  E  E  E   
----------------------------|----------------------------|
----------------------------|----------------------------|
--7--7-----10--10--9--9--7--|--7--7-----10--10--9--9--7--|
--x--x------x---x--x--x--x--|--x--x------x---x--x--x--x--|
--5--5------8---8--7--7--5--|--5--5------8---8--7--7--5--|
--0--0------0---0--0--0--0--|--0--0------0---0--0--0--0--|


  E  E  E  E  E  E  Q       E  E  E   E   E  E  E  E   
-------------------------|----------------------------|
-------------------------|----------------------------|
-------------------------|--7--7-----10--10--9--9--7--|
--5--5-----5--5--2--2----|--x--x------x---x--x--x--x--|
--3--3-----2--2--0--0----|--5--5------8---8--7--7--5--|
-------------------------|--0--0------0---0--0--0--0--|


  E  E  E   E   E  E  E  E     E  E  E   E   E  E  E  E   
----------------------------|----------------------------|
----------------------------|----------------------------|
--7--7-----10--10--9--9--7--|--7--7-----10--10--9--9--7--|
--x--x------x---x--x--x--x--|--x--x------x---x--x--x--x--|
--5--5------8---8--7--7--5--|--5--5------8---8--7--7--5--|
--0--0------0---0--0--0--0--|--0--0------0---0--0--0--0--|


  E  E  E  E  E  E  Q       E  E  E   E   E  E  E  E   
-------------------------|----------------------------|
-------------------------|----------------------------|
-------------------------|--7--7-----10--10--9--9--7--|
--5--5-----5--5--2--2----|--x--x------x---x--x--x--x--|
--3--3-----2--2--0--0----|--5--5------8---8--7--7--5--|
-------------------------|--0--0------0---0--0--0--0--|


  E  E  E   E   E  E  E  E     E  E  E   E   E  E  E  E   
----------------------------|----------------------------|
----------------------------|----------------------------|
--7--7-----10--10--9--9--7--|--7--7-----10--10--9--9--7--|
--x--x------x---x--x--x--x--|--x--x------x---x--x--x--x--|
--5--5------8---8--7--7--5--|--5--5------8---8--7--7--5--|
--0--0------0---0--0--0--0--|--0--0------0---0--0--0--0--|


                                                     > PM PM PM PM PM >  >  PM  
  E  E  E  E  E  E  Q       E  E  E  E  E  Q.        S S  E  E  E  E  E  E  E   
-------------------------|------------------------|----------------------------|
-------------------------|------------------------|----------------------------|
-------------------------|--3-----3-----3---------|----------------------------|
--5--5-----5--5--2--2----|--3-----3-----3---------|-------------------1--1-----|
--3--3-----2--2--0--0----|--1-----1-----1---------|-------------------1--1-----|
-------------------------|--1-----1-----1---------|--2-1--0--0--0--0--1--1--0--|


  PM >  >  PM PM PM PM PM PM PM    > PM PM PM PM PM >  >  PM  
  E  E  E  E  S  S  E  S  S  E     S S  E  E  E  E  E  E  E   
--------------------------------|----------------------------|
--------------------------------|----------------------------|
--------------------------------|----------------------------|
-----1--1-----------------------|-------------------1--1-----|
-----1--1-----------------------|-------------------1--1-----|
--0--1--1--0--2--2--2--3--3--3--|--2-1--0--0--0--0--1--1--0--|


  PM >  >  PM PM PM PM PM PM PM                            
  E  E  E  E  S  S  E  S  S  E     E  E  E  E   Q    Q     
--------------------------------|-------------------------|
--------------------------------|-------------------------|
--------------------------------|-------------------------|
-----1--1-----------------------|--------5--6~--L----5----|
-----1--1-----------------------|-----5-------------------|
--0--1--1--0--2--2--2--3--3--3--|--0----------------------|


  E  E  E  E   E  E  E  E     E  E  E  E   Q    Q     
---------------------------|-------------------------|
---------------------------|-------------------------|
---------------------------|-------------------------|
--------5------------5-----|--------5--6~--L----5----|
-----5------------------6--|-----5-------------------|
--0--------3~--L--0--------|--0----------------------|


  E  E  E  E   E  E  E  E     E  E  E  E   Q    Q     
---------------------------|-------------------------|
---------------------------|-------------------------|
---------------------------|-------------------------|
--------5------------5-----|--------5--6~--L----5----|
-----5------------------6--|-----5-------------------|
--0--------3~--L--0--------|--0----------------------|


  E  E  E  E   E  E  E  E     E  E  E  E   Q    Q     
---------------------------|-------------------------|
---------------------------|-------------------------|
---------------------------|-------------------------|
--------5------------5-----|--------5--6~--L----5----|
-----5------------------6--|-----5-------------------|
--0--------3~--L--0--------|--0----------------------|


                              ^  PM ^  PM ^  PM ^  PM                PM  
  E  E  E  E   E  E  E  E     E  E  E  E  E  E  E  E       Q      E  E   
---------------------------|--------------------------|-----------------|
---------------------------|--------------------------|-----------------|
---------------------------|--------------------------|-----------------|
--------5------------5-----|--3-----5-----3-----5-----|-----------------|
-----5------------------6--|--3-----5-----3-----5-----|--3g5----3g5-----|
--0--------3~--L--0--------|--3--0--5--0--3--0--5--0--|----0------0--0--|


  ^  PM ^  PM ^  PM ^  PM                PM    ^  PM ^  PM ^  PM ^  PM  
  E  E  E  E  E  E  E  E       Q      E  E     E  E  E  E  E  E  E  E   
--------------------------|-----------------|--------------------------|
--------------------------|-----------------|--------------------------|
--------------------------|-----------------|--------------------------|
--3-----5-----3-----5-----|-----------------|--3-----5-----3-----5-----|
--3-----5-----3-----5-----|--3g5----3g5-----|--3-----5-----3-----5-----|
--3--0--5--0--3--0--5--0--|----0------0--0--|--3--0--5--0--3--0--5--0--|


              PM    ^  PM ^  PM ^  PM ^  PM                              
    Q      E  E     E  E  E  E  E  E  E  E       Q    E  E  E  E  E  E   
-----------------|--------------------------|---------------------------|
-----------------|--------------------------|---------------------------|
-----------------|--------------------------|---------------------------|
-----------------|--3-----5-----3-----5-----|---------------------5-----|
--3g5----3g5-----|--3-----5-----3-----5-----|--3g5-------------------6--|
----0------0--0--|--3--0--5--0--3--0--5--0--|----0----0--3--L--0--------|


                                 PM       PM               PM       PM        
  Q    E  E  E  E  E  E     Q    E  E  E  E  E  E     Q    E  E  E  E  E  E   
-------------------------|-------------------------|-------------------------|
-------------------------|-------------------------|-------------------------|
--7----------------------|--7----------------------|--7----------------------|
--7----------------5-----|--7-------3--L-----5-----|--7-------3--L-----5-----|
--5-------------------6--|--5-------3--L--------6--|--5-------3--L--------6--|
-------0--3--L--0--------|-------0--3--L--0--------|-------0--3--L--0--------|


                                                         PM PM    >    
  E  E  E  E  Q    Q        W                   H        E  E  E  E    
-------------------------|-------------------|-----------------------||
-------------------------|-------------------|-----------------------||
-------------------------|-------------------|-----------------------||
--------5--6--L----5~----|--L----------------|--L--------------5--0--||
-----5-------------------|-------------------|--------------5-----0--||
--0----------------------|-------------------|-----------0--------0--||


Duration Legend
---------------
W - whole
H - half
Q - quarter
E - 8th
S - 16th
T - 32nd
X - 64th
. - note dotted
|-n-|  - n-tuplets


Tablature Legend
----------------
L - tied note
x - dead note
g - grace note
(n) - ghost note
> - accentuded note
NH - natural harmonic
h - hammer on
p - pull off
\n/ - tremolo bar dip
\n - tremolo bar dive
-/n - tremolo bar Release up
/n\ - tremolo bar inverted dip
/n - tremolo bar return
-\n - tremolo bar Release down
S - shift slide
s - legato slide
/ -  slide into from below or out of upwards
\ -  slide into from above or out of downwards
~ - vibrato
TP - tremolo picking
comments
We did not receive enough feedback on this tab! Please rate:
print report bad tab
1 2 3 4 5
I want to post or [tab]
guest
You may want to rate the tab now too:
select rating
Please do not post tabs as comments. Select "correction" instead!