Oops, an error
Loading. Please wait.

All Nightmare Long Tab

ver6
ver6

Intro

Solo

More versions @911Tabs.com
5,384 views 6 this week
no commentswrite comment
1 2 3 4 5
accurate
x 2
Autoscroll
+/-
esc
set tempo
stop
Contributor
WARNING: You are trying to view
                                    content from Ultimate-Guitar.com
                                    in an unauthorized application,
                                    which is prohibited.

                                    Please use an official Ultimate
                                    Guitar Tabs application for iPhone,
                                    iPad or Android to access legitimate
                                    chords, guitar, bass, and drum tabs
                                    from Ultimate-Guitar.com database.

                                    Type "ultimate guitar tabs" in Apple
                                    App Store's or Android Market's
                                    search to find the application.
                              All Nightmare Long                                


                                                                       Metallica
Gtrs 1 & 3 (James)



     Clean                                                  
     E     E  E  E   Q    Q       E  E  E  E   E  E  E  E   
E||----------------------------|---------------------------|
B||----------------------------|---------------------------|
G||----------------------------|---------------------------|
D||-----------5--6~--L----5----|--------5------------5-----|
A||--------5-------------------|-----5------------------6--|
D||--0-------------------------|--0--------3~--L--0--------|


  E  E  E  E   Q    Q       E  E  E  E   E  E  E  E     E  E  E  E   Q    Q     
-------------------------|---------------------------|-------------------------|
-------------------------|---------------------------|-------------------------|
-------------------------|---------------------------|-------------------------|
--------5--6~--L----5----|--------5------------5-----|--------5--6~--L----5----|
-----5-------------------|-----5------------------6--|-----5-------------------|
--0----------------------|--0--------3~--L--0--------|--0----------------------|


  E  E  E  E   E  E  E  E     E  E  E  E   Q    Q     
---------------------------|-------------------------|
---------------------------|-------------------------|
---------------------------|-------------------------|
--------5------------5-----|--------5--6~--L----5----|
-----5------------------6--|-----5-------------------|
--0--------3~--L--0--------|--0----------------------|


  E  E  E  E   E  E  E  E     E  E  E  E   Q    Q     
---------------------------|-------------------------|
---------------------------|-------------------------|
---------------------------|-------------------------|
--------5------------5-----|--------5--6~--L----5----|
-----5------------------6--|-----5-------------------|
--0--------3~--L--0--------|--0----------------------|


  E  E  E  E   E  E  E  E     E  E  E  E   Q    Q     
---------------------------|-------------------------|
---------------------------|-------------------------|
---------------------------|-------------------------|
--------5------------5-----|--------5--6~--L----5----|
-----5------------------6--|-----5-------------------|
--0--------3~--L--0--------|--0----------------------|


  E  E  E  E   E  E  E  E     E  E  E  E   Q    Q     
---------------------------|-------------------------|
---------------------------|-------------------------|
---------------------------|-------------------------|
--------5------------5-----|--------5--6~--L----5----|
-----5------------------6--|-----5-------------------|
--0--------3~--L--0--------|--0----------------------|


  E  E  E  E   E  E  E  E     H.            
---------------------------|---------------|
---------------------------|---------------|
---------------------------|---------------|
--------5------------5-----|---------------|
-----5------------------6--|---------------|
--0--------3~--L--0--------|---------------|


  Distorted                                        
  >         PM > PM > PM > PM > PM > PM > PM > PM  
  S         S  S S  S S  S S  S S  S S  S S  S S   
--------------------------------------------------|
--------------------------------------------------|
--------------------------------------------------|
--------------------------------------------------|
--------------------------------------------------|
--0---------0--0-0--0-0--0-0--0-0--0-0--0-0--0-0--|


  > PM > PM > PM > PM > PM > PM > PM > PM  
  S S  S S  S S  S S  S S  S S  S S  S S   
------------------------------------------|
------------------------------------------|
------------------------------------------|
------------------------------------------|
------------------------------------------|
--0-0--0-0--0-0--0-0--0-0--0-0--0-0--0-0--|


  > PM > PM > PM > PM > PM > PM > PM > PM       NH              NH     
  S S  S S  S S  S S  S S  S S  S S  S S        H.              S E.   
------------------------------------------|---------------------------|
------------------------------------------|---------------------------|
------------------------------------------|---------------------------|
------------------------------------------|---------------------------|
------------------------------------------|---------------------------|
--0-0--0-0--0-0--0-0--0-0--0-0--0-0--0-0--|--<>12s------------<>3-0---|


  > PM PM >  PM >  PM >  PM    >  PM >  PM >  PM >  PM  
  S S  E  E  E  E  E  E  E     E  E  E  E  E  E  E  E   
----------------------------|--------------------------|
----------------------------|--------------------------|
----------------------------|--------------------------|
----------------------------|--------------------------|
----------------------------|--------------------------|
--2-1--0--0--0--0--0--0--0--|--0--0--0--0--0--0--0--0--|


  > PM PM >  PM >  PM >  PM    >  PM >  PM >  PM >  PM  
  S S  E  E  E  E  E  E  E     E  E  E  E  E  E  E  E   
----------------------------|--------------------------|
----------------------------|--------------------------|
----------------------------|--------------------------|
----------------------------|--------------------------|
----------------------------|--------------------------|
--2-1--0--0--0--0--0--0--0--|--0--0--0--0--0--0--0--0--|


  > PM PM >  PM >  PM >  PM    >  PM >  PM >  PM >  PM  
  S S  E  E  E  E  E  E  E     E  E  E  E  E  E  E  E   
----------------------------|--------------------------|
----------------------------|--------------------------|
----------------------------|--------------------------|
----------------------------|--------------------------|
----------------------------|--------------------------|
--2-1--0--0--0--0--0--0--0--|--0--0--0--0--0--0--0--0--|


  > PM PM >  PM >  PM >  PM    >  PM >  PM >  PM >  PM  
  S S  E  E  E  E  E  E  E     E  E  E  E  E  E  E  E   
----------------------------|--------------------------|
----------------------------|--------------------------|
----------------------------|--------------------------|
----------------------------|--------------------------|
----------------------------|--------------------------|
--2-1--0--0--0--0--0--0--0--|--0--0--0--0--0--0--0--0--|


  > PM PM PM PM PM >  >  PM    PM >  >  PM PM PM PM PM PM PM  
  S S  E  E  E  E  E  E  E     E  E  E  E  S  S  E  S  S  E   
----------------------------|--------------------------------|
----------------------------|--------------------------------|
----------------------------|--------------------------------|
-------------------1--1-----|-----1--1-----------------------|
-------------------1--1-----|-----1--1-----------------------|
--2-1--0--0--0--0--1--1--0--|--0--1--1--0--2--2--2--3--3--3--|


  > PM PM PM PM PM >  >  PM    PM >  >  PM PM PM PM PM PM PM  
  S S  E  E  E  E  E  E  E     E  E  E  E  S  S  E  S  S  E   
----------------------------|--------------------------------|
----------------------------|--------------------------------|
----------------------------|--------------------------------|
-------------------1--1-----|-----1--1-----------------------|
-------------------1--1-----|-----1--1-----------------------|
--2-1--0--0--0--0--1--1--0--|--0--1--1--0--2--2--2--3--3--3--|


  > PM PM PM PM PM >  >  PM    PM >  >  PM PM PM PM PM PM PM  
  S S  E  E  E  E  E  E  E     E  E  E  E  S  S  E  S  S  E   
----------------------------|--------------------------------|
----------------------------|--------------------------------|
----------------------------|--------------------------------|
-------------------1--1-----|-----1--1-----------------------|
-------------------1--1-----|-----1--1-----------------------|
--2-1--0--0--0--0--1--1--0--|--0--1--1--0--2--2--2--3--3--3--|


  > PM PM PM PM PM >  >  PM    PM >  >  PM PM PM PM PM PM PM  
  S S  E  E  E  E  E  E  E     E  E  E  E  S  S  E  S  S  E   
----------------------------|--------------------------------|
----------------------------|--------------------------------|
----------------------------|--------------------------------|
-------------------1--1-----|-----1--1-----------------------|
-------------------1--1-----|-----1--1-----------------------|
--2-1--0--0--0--0--1--1--0--|--0--1--1--0--2--2--2--3--3--3--|


  > PM PM PM PM PM >  >  PM    PM >  >  PM PM PM PM PM PM PM  
  S S  E  E  E  E  E  E  E     E  E  E  E  S  S  E  S  S  E   
----------------------------|--------------------------------|
----------------------------|--------------------------------|
----------------------------|--------------------------------|
-------------------1--1-----|-----1--1-----------------------|
-------------------1--1-----|-----1--1-----------------------|
--2-1--0--0--0--0--1--1--0--|--0--1--1--0--2--2--2--3--3--3--|


  > PM PM PM PM PM >  >  PM    PM >  >  PM PM PM PM PM PM PM  
  S S  E  E  E  E  E  E  E     E  E  E  E  S  S  E  S  S  E   
----------------------------|--------------------------------|
----------------------------|--------------------------------|
----------------------------|--------------------------------|
-------------------1--1-----|-----1--1-----------------------|
-------------------1--1-----|-----1--1-----------------------|
--2-1--0--0--0--0--1--1--0--|--0--1--1--0--2--2--2--3--3--3--|


  > PM PM PM PM PM >  >  PM    PM >  >  PM PM PM PM PM PM PM  
  S S  E  E  E  E  E  E  E     E  E  E  E  S  S  E  S  S  E   
----------------------------|--------------------------------|
----------------------------|--------------------------------|
----------------------------|--------------------------------|
-------------------1--1-----|-----1--1-----------------------|
-------------------1--1-----|-----1--1-----------------------|
--2-1--0--0--0--0--1--1--0--|--0--1--1--0--2--2--2--3--3--3--|


  > PM PM PM PM PM >  >  PM    PM >  >                    PM    PM    PM    PM  
  S S  E  E  E  E  E  E  E     E  E  E  H        E     E  E  E  E  E  E  E  E   
----------------------------|-----------------------|--------------------------|
----------------------------|-----------------------|--------------------------|
----------------------------|-----------------------|--------------------------|
-------------------1--1-----|-----1--1--------------|--3-----5-----3-----5-----|
-------------------1--1-----|-----1--1--------------|--3-----5-----3-----5-----|
--2-1--0--0--0--0--1--1--0--|--0--1--1--------------|--3--0--5--0--3--0--5--0--|


                  PM PM PM PM PM PM                    PM PM PM PM PM PM  
    Q    E  E  E  S  S  S  S  S  S       Q    E  E  E  S  S  S  S  S  S   
------------------------------------|------------------------------------|
------------------------------------|------------------------------------|
------------------------------------|------------------------------------|
------------3--L--------------------|------------3--L--------------------|
--3g5----5--3--L--------------------|--3g5----5--3--L--------------------|
----0----0--3--L--0--0--0--0--0--0--|----0----0--3--L--0--0--0--0--0--0--|


                  PM PM PM PM PM PM                               
    Q    E  E  E  S  S  S  S  S  S     E  Q    E  E    E   Q      
------------------------------------|----------------------------|
------------------------------------|----------------------------|
------------------------------------|----------------------------|
------------3--L--------------------|--7--7----5--5s--10--10\----|
--3g5----5--3--L--------------------|--5--5----3--3s---8---8\----|
----0----0--3--L--0--0--0--0--0--0--|----------------------------|


                  PM PM PM PM PM PM                    PM PM PM PM PM PM  
    Q    E  E  E  S  S  S  S  S  S       Q    E  E  E  S  S  S  S  S  S   
------------------------------------|------------------------------------|
------------------------------------|------------------------------------|
------------------------------------|------------------------------------|
------------3--L--------------------|------------3--L--------------------|
--3g5----5--3--L--------------------|--3g5----5--3--L--------------------|
----0----0--3--L--0--0--0--0--0--0--|----0----0--3--L--0--0--0--0--0--0--|


                  PM PM PM PM PM PM                               
    Q    E  E  E  S  S  S  S  S  S     E  Q    E  E    E   Q      
------------------------------------|----------------------------|
------------------------------------|----------------------------|
------------------------------------|----------------------------|
------------3--L--------------------|--7--7----5--5s--10--10\----|
--3g5----5--3--L--------------------|--5--5----3--3s---8---8\----|
----0----0--3--L--0--0--0--0--0--0--|----------------------------|


  >      >          >      >          PM PM PM PM PM PM PM PM PM PM PM PM  
  Q.     E  Q       Q.     E  Q       E  S  S  E  S  S  E  S  S  E  S  S   
-----------------|-----------------|--------------------------------------|
-----------------|-----------------|--------------------------------------|
-----------------|--6------7--L----|--------------------------------------|
--7------8--L----|--6------7--L----|--------------------------------------|
--7------8--L----|--4------5--L----|--8--8--8--8--8--8--8--8--8--8--8--8--|
--7------8--L----|-----------------|--------------------------------------|


   PM PM PM PM PM PM PM PM                   PM PM PM PM PM PM  
   S  S  S  S  S  S  S  S      Q    E  E  E  S  S  S  S  S  S   
--------------------------|------------------------------------|
--------------------------|------------------------------------|
--------------------------|------------------------------------|
--------------------------|------------3--L--------------------|
--10-10-10-10-10-10-10-10-|--3g5----5--3--L--------------------|
--------------------------|----0----0--3--L--0--0--0--0--0--0--|


                  PM PM PM PM PM PM                    PM PM PM PM PM PM  
    Q    E  E  E  S  S  S  S  S  S       Q    E  E  E  S  S  S  S  S  S   
------------------------------------|------------------------------------|
------------------------------------|------------------------------------|
------------------------------------|------------------------------------|
------------3--L--------------------|------------3--L--------------------|
--3g5----5--3--L--------------------|--3g5----5--3--L--------------------|
----0----0--3--L--0--0--0--0--0--0--|----0----0--3--L--0--0--0--0--0--0--|


                               >      >          >      >        
  E  Q    E  E    E   Q        Q.     E  Q       Q.     E  Q     
----------------------------|-----------------|-----------------|
----------------------------|-----------------|-----------------|
----------------------------|-----------------|--6------7--L----|
--7--7----5--5s--10--10\----|--7------8--L----|--6------7--L----|
--5--5----3--3s---8---8\----|--7------8--L----|--4------5--L----|
----------------------------|--7------8--L----|-----------------|


  > PM > PM > PM > PM  >            > PM > PM > PM > PM > PM > PM > PM > PM  
  S S  S S  S S  S S   E  Q.        S S  S S  S S  S S  S S  S S  S S  S S   
---------------------------------|------------------------------------------|
---------------------------------|------------------------------------------|
---------------------------------|------------------------------------------|
----------------------10---------|------------------------------------------|
--8-8--8-8--8-8--8-8---8---------|------------------------------------------|
---------------------------------|--2-2--2-2--2-2--2-2--2-2--2-2--2-2--2-2--|


  > PM > PM > PM > PM > PM > PM > PM > PM  
  S S  S S  S S  S S  S S  S S  S S  S S   
------------------------------------------|
------------------------------------------|
------------------------------------------|
------------------------------------------|
------------------------------------------|
--2-2--2-2--2-2--2-2--2-2--2-2--2-2--2-2--|


  > PM > PM > PM > PM > PM > PM > PM > PM    PM PM PM PM PM PM             
  S S  S S  S S  S S  S S  S S  S S  S S     E  E  E  E  E  E  S  S  S  S  
------------------------------------------|-------------------------------|
------------------------------------------|-------------------------------|
------------------------------------------|-------------------------------|
------------------------------------------|-----------2-------------------|
------------------------------------------|--2--3--5-----5--3--2h-3p-2p-0-|
--2-2--2-2--2-2--2-2--2-2--2-2--2-2--2-2--|-------------------------------|


  > PM > PM > PM > PM > PM > PM > PM > PM  
  S S  S S  S S  S S  S S  S S  S S  S S   
------------------------------------------|
------------------------------------------|
------------------------------------------|
------------------------------------------|
------------------------------------------|
--2-2--2-2--2-2--2-2--2-2--2-2--2-2--2-2--|


  > PM > PM > PM > PM > PM > PM > PM > PM  
  S S  S S  S S  S S  S S  S S  S S  S S   
------------------------------------------|
------------------------------------------|
------------------------------------------|
------------------------------------------|
------------------------------------------|
--2-2--2-2--2-2--2-2--2-2--2-2--2-2--2-2--|


  > PM > PM > PM > PM > PM > PM > PM > PM    PM PM PM PM PM PM             
  S S  S S  S S  S S  S S  S S  S S  S S     E  E  E  E  E  E  S  S  S  S  
------------------------------------------|-------------------------------|
------------------------------------------|-------------------------------|
------------------------------------------|-------------------------------|
------------------------------------------|-----------2-------------------|
------------------------------------------|--2--3--5-----5--3--2h-3p-2p-0-|
--2-2--2-2--2-2--2-2--2-2--2-2--2-2--2-2--|-------------------------------|


  W                   H.           Q       W                 
-------------------|--------------------|-------------------|
-------------------|--------------------|-------------------|
--4----------------|--L------------4----|--5----------------|
--x----------------|---------------x----|--x----------------|
--2----------------|--L------------2----|--3----------------|
-------------------|--------------------|-------------------|


  W                   W                   W                   W                 
-------------------|-------------------|-------------------|-------------------|
-------------------|-------------------|-------------------|-------------------|
--L----------------|--4----------------|--4----------------|--4----------------|
-------------------|--x----------------|--x----------------|--x----------------|
--L----------------|--2----------------|--2----------------|--2----------------|
-------------------|-------------------|-------------------|-------------------|


  H.           Q        Q.     Q.     Q       Q.     Q.     Q     
---------------------|---------------------|---------------------|
---------------------|---------------------|---------------------|
--5------------------|--4------------------|--4------------------|
--x------------------|--4------2------3----|--4------2------3----|
--3------------------|--2------2------3----|--2------2------3----|
---------------x\----|---------2------3----|---------2------3----|


                                              >  PM PM PM >  PM PM PM  
  Q.     Q.     Q       Q.     Q.     Q       E  E  E  E  E  E  E  E   
---------------------|---------------------|--------------------------|
---------------------|---------------------|--------------------------|
--4------------------|--4------------------|--------------------------|
--4------2------3----|--4------2------3----|--2--2--2--2--2--0--0--0--|
--2------2------3----|--2------2------3----|--2--2--2--2--2--0--0--0--|
---------2------3----|---------2------3----|--2--2--2--2--2--0--0--0--|


  >  PM PM PM >  PM PM PM    >      >          >      >        
  E  E  E  E  E  E  E  E     Q.     E  Q       Q.     E  Q     
--------------------------|-----------------|-----------------|
--------------------------|-----------------|-----------------|
--------------------------|-----------------|--6------7--L----|
--2--2--2--2--2--0--0--0--|--7------8--L----|--6------7--L----|
--2--2--2--2--2--0--0--0--|--7------8--L----|--4------5--L----|
--2--2--2--2--2--0--0--0--|--7------8--L----|-----------------|


  > PM > PM > PM > PM  >                            PM PM PM PM PM PM  
  S S  S S  S S  S S   E  Q.          Q    E  E  E  S  S  S  S  S  S   
---------------------------------|------------------------------------|
---------------------------------|------------------------------------|
---------------------------------|------------------------------------|
----------------------10---------|------------3--L--------------------|
--8-8--8-8--8-8--8-8---8---------|--3g5----5--3--L--------------------|
---------------------------------|----0----0--3--L--0--0--0--0--0--0--|


                  PM PM PM PM PM PM                    PM PM PM PM PM PM  
    Q    E  E  E  S  S  S  S  S  S       Q    E  E  E  S  S  S  S  S  S   
------------------------------------|------------------------------------|
------------------------------------|------------------------------------|
------------------------------------|------------------------------------|
------------3--L--------------------|------------3--L--------------------|
--3g5----5--3--L--------------------|--3g5----5--3--L--------------------|
----0----0--3--L--0--0--0--0--0--0--|----0----0--3--L--0--0--0--0--0--0--|


                               >      >          >      >        
  E  Q    E  E    E   Q        Q.     E  Q       Q.     E  Q     
----------------------------|-----------------|-----------------|
----------------------------|-----------------|-----------------|
----------------------------|-----------------|--6------7--L----|
--7--7----5--5s--10--10\----|--7------8--L----|--6------7--L----|
--5--5----3--3s---8---8\----|--7------8--L----|--4------5--L----|
----------------------------|--7------8--L----|-----------------|


  > PM > PM > PM > PM  >                                       
  S S  S S  S S  S S   E  Q.        E  E  E   E   E  E  E  E   
---------------------------------|----------------------------|
---------------------------------|----------------------------|
---------------------------------|--7--7-----10--10--9--9--7--|
----------------------10---------|--x--x------x---x--x--x--x--|
--8-8--8-8--8-8--8-8---8---------|--5--5------8---8--7--7--5--|
---------------------------------|--0--0------0---0--0--0--0--|


  E  E  E   E   E  E  E  E     E  E  E   E   E  E  E  E   
----------------------------|----------------------------|
----------------------------|----------------------------|
--7--7-----10--10--9--9--7--|--7--7-----10--10--9--9--7--|
--x--x------x---x--x--x--x--|--x--x------x---x--x--x--x--|
--5--5------8---8--7--7--5--|--5--5------8---8--7--7--5--|
--0--0------0---0--0--0--0--|--0--0------0---0--0--0--0--|


  E  E  E  E  E  E  Q       E  E  E   E   E  E  E  E   
-------------------------|----------------------------|
-------------------------|----------------------------|
-------------------------|--7--7-----10--10--9--9--7--|
--5--5-----5--5--2--2----|--x--x------x---x--x--x--x--|
--3--3-----2--2--0--0----|--5--5------8---8--7--7--5--|
-------------------------|--0--0------0---0--0--0--0--|


  E  E  E   E   E  E  E  E     E  E  E   E   E  E  E  E   
----------------------------|----------------------------|
----------------------------|----------------------------|
--7--7-----10--10--9--9--7--|--7--7-----10--10--9--9--7--|
--x--x------x---x--x--x--x--|--x--x------x---x--x--x--x--|
--5--5------8---8--7--7--5--|--5--5------8---8--7--7--5--|
--0--0------0---0--0--0--0--|--0--0------0---0--0--0--0--|


  E  E  E  E  E  E  Q       E  E  E   E   E  E  E  E   
-------------------------|----------------------------|
-------------------------|----------------------------|
-------------------------|--7--7-----10--10--9--9--7--|
--5--5-----5--5--2--2----|--x--x------x---x--x--x--x--|
--3--3-----2--2--0--0----|--5--5------8---8--7--7--5--|
-------------------------|--0--0------0---0--0--0--0--|


  E  E  E   E   E  E  E  E     E  E  E   E   E  E  E  E   
----------------------------|----------------------------|
----------------------------|----------------------------|
--7--7-----10--10--9--9--7--|--7--7-----10--10--9--9--7--|
--x--x------x---x--x--x--x--|--x--x------x---x--x--x--x--|
--5--5------8---8--7--7--5--|--5--5------8---8--7--7--5--|
--0--0------0---0--0--0--0--|--0--0------0---0--0--0--0--|


  E  E  E  E  E  E  Q       E  E  E   E   E  E  E  E   
-------------------------|----------------------------|
-------------------------|----------------------------|
-------------------------|--7--7-----10--10--9--9--7--|
--5--5-----5--5--2--2----|--x--x------x---x--x--x--x--|
--3--3-----2--2--0--0----|--5--5------8---8--7--7--5--|
-------------------------|--0--0------0---0--0--0--0--|


  E  E  E   E   E  E  E  E     E  E  E   E   E  E  E  E   
----------------------------|----------------------------|
----------------------------|----------------------------|
--7--7-----10--10--9--9--7--|--7--7-----10--10--9--9--7--|
--x--x------x---x--x--x--x--|--x--x------x---x--x--x--x--|
--5--5------8---8--7--7--5--|--5--5------8---8--7--7--5--|
--0--0------0---0--0--0--0--|--0--0------0---0--0--0--0--|


                                                     > PM PM PM PM PM >  >  PM  
  E  E  E  E  E  E  Q       E  E  E  E  E  Q.        S S  E  E  E  E  E  E  E   
-------------------------|------------------------|----------------------------|
-------------------------|------------------------|----------------------------|
-------------------------|--3-----3-----3---------|----------------------------|
--5--5-----5--5--2--2----|--3-----3-----3---------|-------------------1--1-----|
--3--3-----2--2--0--0----|--1-----1-----1---------|-------------------1--1-----|
-------------------------|--1-----1-----1---------|--2-1--0--0--0--0--1--1--0--|


  PM >  >  PM PM PM PM PM PM PM    > PM PM PM PM PM >  >  PM  
  E  E  E  E  S  S  E  S  S  E     S S  E  E  E  E  E  E  E   
--------------------------------|----------------------------|
--------------------------------|----------------------------|
--------------------------------|----------------------------|
-----1--1-----------------------|-------------------1--1-----|
-----1--1-----------------------|-------------------1--1-----|
--0--1--1--0--2--2--2--3--3--3--|--2-1--0--0--0--0--1--1--0--|


  PM >  >  PM PM PM PM PM PM PM    > PM PM PM PM PM >  >  PM  
  E  E  E  E  S  S  E  S  S  E     S S  E  E  E  E  E  E  E   
--------------------------------|----------------------------|
--------------------------------|----------------------------|
--------------------------------|----------------------------|
-----1--1-----------------------|-------------------1--1-----|
-----1--1-----------------------|-------------------1--1-----|
--0--1--1--0--2--2--2--3--3--3--|--2-1--0--0--0--0--1--1--0--|


  PM >  >  PM PM PM PM PM PM PM    > PM PM PM PM PM >  >  PM  
  E  E  E  E  S  S  E  S  S  E     S S  E  E  E  E  E  E  E   
--------------------------------|----------------------------|
--------------------------------|----------------------------|
--------------------------------|----------------------------|
-----1--1-----------------------|-------------------1--1-----|
-----1--1-----------------------|-------------------1--1-----|
--0--1--1--0--2--2--2--3--3--3--|--2-1--0--0--0--0--1--1--0--|


  PM >  >                 ^  PM ^  PM ^  PM ^  PM  
  E  E  E  H        E     E  E  E  E  E  E  E  E   
-----------------------|--------------------------|
-----------------------|--------------------------|
-----------------------|--------------------------|
-----1--1--------------|--3-----5-----3-----5-----|
-----1--1--------------|--3-----5-----3-----5-----|
--0--1--1--------------|--3--0--5--0--3--0--5--0--|


                  PM PM PM PM PM PM                    PM PM PM PM PM PM  
    Q    E  E  E  S  S  S  S  S  S       Q    E  E  E  S  S  S  S  S  S   
------------------------------------|------------------------------------|
------------------------------------|------------------------------------|
------------------------------------|------------------------------------|
------------3--L--------------------|------------3--L--------------------|
--3g5----5--3--L--------------------|--3g5----5--3--L--------------------|
----0----0--3--L--0--0--0--0--0--0--|----0----0--3--L--0--0--0--0--0--0--|


                  PM PM PM PM PM PM                               
    Q    E  E  E  S  S  S  S  S  S     E  Q    E  E    E   Q      
------------------------------------|----------------------------|
------------------------------------|----------------------------|
------------------------------------|----------------------------|
------------3--L--------------------|--7--7----5--5s--10--10\----|
--3g5----5--3--L--------------------|--5--5----3--3s---8---8\----|
----0----0--3--L--0--0--0--0--0--0--|----------------------------|


                  PM PM PM PM PM PM                    PM PM PM PM PM PM  
    Q    E  E  E  S  S  S  S  S  S       Q    E  E  E  S  S  S  S  S  S   
------------------------------------|------------------------------------|
------------------------------------|------------------------------------|
------------------------------------|------------------------------------|
------------3--L--------------------|------------3--L--------------------|
--3g5----5--3--L--------------------|--3g5----5--3--L--------------------|
----0----0--3--L--0--0--0--0--0--0--|----0----0--3--L--0--0--0--0--0--0--|


                  PM PM PM PM PM PM                               
    Q    E  E  E  S  S  S  S  S  S     E  Q    E  E    E   Q      
------------------------------------|----------------------------|
------------------------------------|----------------------------|
------------------------------------|----------------------------|
------------3--L--------------------|--7--7----5--5s--10--10\----|
--3g5----5--3--L--------------------|--5--5----3--3s---8---8\----|
----0----0--3--L--0--0--0--0--0--0--|----------------------------|


  >      >          >      >          > PM > PM > PM > PM  >          
  Q.     E  Q       Q.     E  Q       S S  S S  S S  S S   E  Q.      
-----------------|-----------------|---------------------------------|
-----------------|-----------------|---------------------------------|
-----------------|--6------7--L----|---------------------------------|
--7------8--L----|--6------7--L----|----------------------10---------|
--7------8--L----|--4------5--L----|--8-8--8-8--8-8--8-8---8---------|
--7------8--L----|-----------------|---------------------------------|


  > PM > PM > PM > PM > PM > PM > PM > PM  
  S S  S S  S S  S S  S S  S S  S S  S S   
------------------------------------------|
------------------------------------------|
------------------------------------------|
------------------------------------------|
------------------------------------------|
--2-2--2-2--2-2--2-2--2-2--2-2--2-2--2-2--|


  > PM > PM > PM > PM > PM > PM > PM > PM  
  S S  S S  S S  S S  S S  S S  S S  S S   
------------------------------------------|
------------------------------------------|
------------------------------------------|
------------------------------------------|
------------------------------------------|
--2-2--2-2--2-2--2-2--2-2--2-2--2-2--2-2--|


  > PM > PM > PM > PM > PM > PM > PM > PM    PM PM PM PM PM PM             
  S S  S S  S S  S S  S S  S S  S S  S S     E  E  E  E  E  E  S  S  S  S  
------------------------------------------|-------------------------------|
------------------------------------------|-------------------------------|
------------------------------------------|-------------------------------|
------------------------------------------|-----------2-------------------|
------------------------------------------|--2--3--5-----5--3--2h-3p-2p-0-|
--2-2--2-2--2-2--2-2--2-2--2-2--2-2--2-2--|-------------------------------|


  > PM > PM > PM > PM > PM > PM > PM > PM  
  S S  S S  S S  S S  S S  S S  S S  S S   
------------------------------------------|
------------------------------------------|
------------------------------------------|
------------------------------------------|
------------------------------------------|
--2-2--2-2--2-2--2-2--2-2--2-2--2-2--2-2--|


  > PM > PM > PM > PM > PM > PM > PM > PM  
  S S  S S  S S  S S  S S  S S  S S  S S   
------------------------------------------|
------------------------------------------|
------------------------------------------|
------------------------------------------|
------------------------------------------|
--2-2--2-2--2-2--2-2--2-2--2-2--2-2--2-2--|


  > PM > PM > PM > PM > PM > PM > PM > PM    PM PM PM PM PM PM             
  S S  S S  S S  S S  S S  S S  S S  S S     E  E  E  E  E  E  S  S  S  S  
------------------------------------------|-------------------------------|
------------------------------------------|-------------------------------|
------------------------------------------|-------------------------------|
------------------------------------------|-----------2-------------------|
------------------------------------------|--2--3--5-----5--3--2h-3p-2p-0-|
--2-2--2-2--2-2--2-2--2-2--2-2--2-2--2-2--|-------------------------------|


  W                   H.           Q       W                 
-------------------|--------------------|-------------------|
-------------------|--------------------|-------------------|
--4----------------|--L------------4----|--5----------------|
--x----------------|---------------x----|--x----------------|
--2----------------|--L------------2----|--3----------------|
-------------------|--------------------|-------------------|


  W                   W                   W                   W                 
-------------------|-------------------|-------------------|-------------------|
-------------------|-------------------|-------------------|-------------------|
--L----------------|--4----------------|--4----------------|--4----------------|
-------------------|--x----------------|--x----------------|--x----------------|
--L----------------|--2----------------|--2----------------|--2----------------|
-------------------|-------------------|-------------------|-------------------|


  H.           Q        Q.     Q.     Q       Q.     Q.     Q     
---------------------|---------------------|---------------------|
---------------------|---------------------|---------------------|
--5------------------|--4------------------|--4------------------|
--x------------------|--4------2------3----|--4------2------3----|
--3------------------|--2------2------3----|--2------2------3----|
---------------x\----|---------2------3----|---------2------3----|


                                              >  PM PM PM >  PM PM PM  
  Q.     Q.     Q       Q.     Q.     Q       E  E  E  E  E  E  E  E   
---------------------|---------------------|--------------------------|
---------------------|---------------------|--------------------------|
--4------------------|--4------------------|--------------------------|
--4------2------3----|--4------2------3----|--2--2--2--2--2--0--0--0--|
--2------2------3----|--2------2------3----|--2--2--2--2--2--0--0--0--|
---------2------3----|---------2------3----|--2--2--2--2--2--0--0--0--|


  >  PM PM PM >  PM PM PM    >      >          >      >        
  E  E  E  E  E  E  E  E     Q.     E  Q       Q.     E  Q     
--------------------------|-----------------|-----------------|
--------------------------|-----------------|-----------------|
--------------------------|-----------------|--6------7--L----|
--2--2--2--2--2--0--0--0--|--7------8--L----|--6------7--L----|
--2--2--2--2--2--0--0--0--|--7------8--L----|--4------5--L----|
--2--2--2--2--2--0--0--0--|--7------8--L----|-----------------|


  > PM > PM > PM > PM  >                            PM PM PM PM PM PM  
  S S  S S  S S  S S   E  Q.          Q    E  E  E  S  S  S  S  S  S   
---------------------------------|------------------------------------|
---------------------------------|------------------------------------|
---------------------------------|------------------------------------|
----------------------10---------|------------3--L--------------------|
--8-8--8-8--8-8--8-8---8---------|--3g5----5--3--L--------------------|
---------------------------------|----0----0--3--L--0--0--0--0--0--0--|


                  PM PM PM PM PM PM                    PM PM PM PM PM PM  
    Q    E  E  E  S  S  S  S  S  S       Q    E  E  E  S  S  S  S  S  S   
------------------------------------|------------------------------------|
------------------------------------|------------------------------------|
------------------------------------|------------------------------------|
------------3--L--------------------|------------3--L--------------------|
--3g5----5--3--L--------------------|--3g5----5--3--L--------------------|
----0----0--3--L--0--0--0--0--0--0--|----0----0--3--L--0--0--0--0--0--0--|


                               >      >          >      >        
  E  Q    E  E    E   Q        Q.     E  Q       Q.     E  Q     
----------------------------|-----------------|-----------------|
----------------------------|-----------------|-----------------|
----------------------------|-----------------|--6------7--L----|
--7--7----5--5s--10--10\----|--7------8--L----|--6------7--L----|
--5--5----3--3s---8---8\----|--7------8--L----|--4------5--L----|
----------------------------|--7------8--L----|-----------------|


  > PM > PM > PM > PM  >                                       
  S S  S S  S S  S S   E  Q.        E  E  E   E   E  E  E  E   
---------------------------------|----------------------------|
---------------------------------|----------------------------|
---------------------------------|--7--7-----10--10--9--9--7--|
----------------------10---------|--x--x------x---x--x--x--x--|
--8-8--8-8--8-8--8-8---8---------|--5--5------8---8--7--7--5--|
---------------------------------|--0--0------0---0--0--0--0--|


  E  E  E   E   E  E  E  E     E  E  E   E   E  E  E  E   
----------------------------|----------------------------|
----------------------------|----------------------------|
--7--7-----10--10--9--9--7--|--7--7-----10--10--9--9--7--|
--x--x------x---x--x--x--x--|--x--x------x---x--x--x--x--|
--5--5------8---8--7--7--5--|--5--5------8---8--7--7--5--|
--0--0------0---0--0--0--0--|--0--0------0---0--0--0--0--|


                            This rocks!!!                         
  E  E  E  E  E  E  Q       E             E  E   E   E  E  E  E   
-------------------------|---------------------------------------|
-------------------------|---------------------------------------|
-------------------------|--7-------------7-----10--10--9--9--7--|
--5--5-----5--5--2--2----|--x-------------x------x---x--x--x--x--|
--3--3-----2--2--0--0----|--5-------------5------8---8--7--7--5--|
-------------------------|--0-------------0------0---0--0--0--0--|


  E  E  E   E   E  E  E  E     E  E  E   E   E  E  E  E   
----------------------------|----------------------------|
----------------------------|----------------------------|
--7--7-----10--10--9--9--7--|--7--7-----10--10--9--9--7--|
--x--x------x---x--x--x--x--|--x--x------x---x--x--x--x--|
--5--5------8---8--7--7--5--|--5--5------8---8--7--7--5--|
--0--0------0---0--0--0--0--|--0--0------0---0--0--0--0--|


  E  E  E  E  E  E  Q       E  E  E   E   E  E  E  E   
-------------------------|----------------------------|
-------------------------|----------------------------|
-------------------------|--7--7-----10--10--9--9--7--|
--5--5-----5--5--2--2----|--x--x------x---x--x--x--x--|
--3--3-----2--2--0--0----|--5--5------8---8--7--7--5--|
-------------------------|--0--0------0---0--0--0--0--|


  E  E  E   E   E  E  E  E     E  E  E   E   E  E  E  E   
----------------------------|----------------------------|
----------------------------|----------------------------|
--7--7-----10--10--9--9--7--|--7--7-----10--10--9--9--7--|
--x--x------x---x--x--x--x--|--x--x------x---x--x--x--x--|
--5--5------8---8--7--7--5--|--5--5------8---8--7--7--5--|
--0--0------0---0--0--0--0--|--0--0------0---0--0--0--0--|


  E  E  E  E  E  E  Q       E  E  E   E   E  E  E  E   
-------------------------|----------------------------|
-------------------------|----------------------------|
-------------------------|--7--7-----10--10--9--9--7--|
--5--5-----5--5--2--2----|--x--x------x---x--x--x--x--|
--3--3-----2--2--0--0----|--5--5------8---8--7--7--5--|
-------------------------|--0--0------0---0--0--0--0--|


  E  E  E   E   E  E  E  E     E  E  E   E   E  E  E  E   
----------------------------|----------------------------|
----------------------------|----------------------------|
--7--7-----10--10--9--9--7--|--7--7-----10--10--9--9--7--|
--x--x------x---x--x--x--x--|--x--x------x---x--x--x--x--|
--5--5------8---8--7--7--5--|--5--5------8---8--7--7--5--|
--0--0------0---0--0--0--0--|--0--0------0---0--0--0--0--|


  E  E  E  E  E  E  Q       E  E  E  E  E  Q.      
-------------------------|------------------------|
-------------------------|------------------------|
-------------------------|--3-----3-----3---------|
--5--5-----5--5--2--2----|--3-----3-----3---------|
--3--3-----2--2--0--0----|--1-----1-----1---------|
-------------------------|--1-----1-----1---------|


  > PM > PM > PM > PM > PM > PM > PM > PM               
  S S  S S  S S  S S  S S  S S  S S  S S     Q    Q     
------------------------------------------|------------|
------------------------------------------|------------|
------------------------------------------|------------|
------------------------------------------|--0---------|
------------------------------------------|--0---------|
--7-7--7-7--3-3--3-3--5-5--5-5--1-1--1-1--|--0---------|


  PM PM PM PM PM                                   
  S  S  S  S  E  Q.      Q       W                 
------------------------------|-------------------|
------------------------------|-------------------|
------------------------------|-------------------|
-----------------7\-----------|-------------------|
-----------------7\-----------|-------------------|
--0--0--0--0--0--7\-----------|-------------------|


  PM PM PM PM PM                                   
  S  S  S  S  E  Q.      Q       W                 
------------------------------|-------------------|
------------------------------|-------------------|
------------------------------|-------------------|
-----------------7\-----------|-------------------|
-----------------7\-----------|-------------------|
--0--0--0--0--0--7\-----------|-------------------|


  PM PM PM PM PM                                   
  S  S  S  S  E  Q.      Q       W                 
------------------------------|-------------------|
------------------------------|-------------------|
------------------------------|-------------------|
-----------------7\-----------|-------------------|
-----------------7\-----------|-------------------|
--0--0--0--0--0--7\-----------|-------------------|


  PM PM PM PM PM                             PM PM PM  
  S  S  S  S  E  Q.      Q       H        E  E  E  E   
------------------------------|-----------------------|
------------------------------|-----------------------|
------------------------------|-----------------------|
-----------------7\-----------|--------------3--2--1--|
-----------------7\-----------|--------------3--2--1--|
--0--0--0--0--0--7\-----------|--------------3--2--1--|


  PM PM PM PM PM                 PM PM PM PM PM      PM PM PM  
  S  S  S  S  E  Q.     E  E     S  S  S  S  E  Q    E  E  E   
------------------------------|-------------------------------|
------------------------------|-------------------------------|
------------------------------|-------------------------------|
-----------------7------7--7--|-----------------3----3--2--1--|
-----------------7------7--7--|-----------------3----3--2--1--|
--0--0--0--0--0--7------7--7--|--3--3--3--3--3--3----3--2--1--|


  PM PM PM PM PM                 PM PM PM PM PM      PM PM PM  
  S  S  S  S  E  Q.     E  E     S  S  S  S  E  Q    E  E  E   
------------------------------|-------------------------------|
------------------------------|-------------------------------|
------------------------------|-------------------------------|
-----------------7------7--7--|-----------------3----3--2--1--|
-----------------7------7--7--|-----------------3----3--2--1--|
--0--0--0--0--0--7------7--7--|--3--3--3--3--3--3----3--2--1--|


  PM PM PM PM PM                 PM PM PM PM PM      PM PM PM  
  S  S  S  S  E  Q.     E  E     S  S  S  S  E  Q    E  E  E   
------------------------------|-------------------------------|
------------------------------|-------------------------------|
------------------------------|-------------------------------|
-----------------7------7--7--|-----------------3----3--2--1--|
-----------------7------7--7--|-----------------3----3--2--1--|
--0--0--0--0--0--7------7--7--|--3--3--3--3--3--3----3--2--1--|


  PM PM PM PM PM                 PM PM PM PM PM      PM PM PM  
  S  S  S  S  E  Q.     E  E     S  S  S  S  E  Q    E  E  E   
------------------------------|-------------------------------|
------------------------------|-------------------------------|
------------------------------|-------------------------------|
-----------------7------7--7--|-----------------3----3--2--1--|
-----------------7------7--7--|-----------------3----3--2--1--|
--0--0--0--0--0--7------7--7--|--3--3--3--3--3--3----3--2--1--|


  PM PM PM PM PM                 PM PM PM PM PM      PM PM PM  
  S  S  S  S  E  Q.     E  E     S  S  S  S  E  Q    E  E  E   
------------------------------|-------------------------------|
------------------------------|-------------------------------|
------------------------------|-------------------------------|
-----------------7------7--7--|-----------------3----3--2--1--|
-----------------7------7--7--|-----------------3----3--2--1--|
--0--0--0--0--0--7------7--7--|--3--3--3--3--3--3----3--2--1--|


  PM PM PM PM PM                 PM PM PM PM PM      PM PM PM  
  S  S  S  S  E  Q.     E  E     S  S  S  S  E  Q    E  E  E   
------------------------------|-------------------------------|
------------------------------|-------------------------------|
------------------------------|-------------------------------|
-----------------7------7--7--|-----------------3----3--2--1--|
-----------------7------7--7--|-----------------3----3--2--1--|
--0--0--0--0--0--7------7--7--|--3--3--3--3--3--3----3--2--1--|


  PM PM PM PM PM                 PM PM PM PM PM      PM PM PM  
  S  S  S  S  E  Q.     E  E     S  S  S  S  E  Q    E  E  E   
------------------------------|-------------------------------|
------------------------------|-------------------------------|
------------------------------|-------------------------------|
-----------------7------7--7--|-----------------3----3--2--1--|
-----------------7------7--7--|-----------------3----3--2--1--|
--0--0--0--0--0--7------7--7--|--3--3--3--3--3--3----3--2--1--|


  PM PM PM PM PM                 PM PM PM PM PM      PM PM PM  
  S  S  S  S  E  Q.     E  E     S  S  S  S  E  Q    E  E  E   
------------------------------|-------------------------------|
------------------------------|-------------------------------|
------------------------------|-------------------------------|
-----------------7------7--7--|-----------------3----3--2--1--|
-----------------7------7--7--|-----------------3----3--2--1--|
--0--0--0--0--0--7------7--7--|--3--3--3--3--3--3----3--2--1--|


       PM                     PM                     PM              
  Q    E  E  H           Q    E  E  H           Q    E  E  H         
----------------------|----------------------|----------------------|
----------------------|----------------------|----------------------|
----------4--L--------|--3-------------------|----------4--L--------|
--2-------4--L--------|--3-------3--L--------|--2-------4--L--------|
--2-------2--L--------|--1-------3--L--------|--2-------2--L--------|
--2----0--------------|-------0--3--L--------|--2----0--------------|


       PM       PM PM PM         PM                     PM              
  Q    E  E  E  E  E  E     Q    E  E  H           Q    E  E  H         
-------------------------|----------------------|----------------------|
-------------------------|----------------------|----------------------|
--3----------------------|----------4--L--------|--3-------------------|
--3-------3--L--2--1--0--|--2-------4--L--------|--3-------3--L--------|
--1-------3--L--2--1--0--|--2-------2--L--------|--1-------3--L--------|
-------0--3--L--2--1--0--|--2----0--------------|-------0--3--L--------|


       PM                PM PM PM PM PM PM PM PM PM PM PM PM PM PM PM PM  
  Q    E  E  H           S  S  S  S  S  S  S  S  S  S  S  S  S  S  S  S   
----------------------|--------------------------------------------------|
----------------------|--------------------------------------------------|
----------4--L--------|--------------------------------------------------|
--2-------4--L--------|--------------------------------------------------|
--2-------2--L--------|--------------------------------------------------|
--2----0--------------|--7--7--7--7--5--5--5--5--3--3--3--3--1--1--1--1--|


  PM PM PM PM PM                                   
  S  S  S  S  E  Q.      Q                         
------------------------------|-------------------|
------------------------------|-------------------|
------------------------------|-------------------|
-----------------7\-----------|-------------------|
-----------------7\-----------|-------------------|
--0--0--0--0--0--7\-----------|-------------------|


  PM PM PM PM PM                                   
  S  S  S  S  E  Q.      Q                         
------------------------------|-------------------|
------------------------------|-------------------|
------------------------------|-------------------|
-----------------7\-----------|-------------------|
-----------------7\-----------|-------------------|
--0--0--0--0--0--7\-----------|-------------------|


  PM PM PM PM PM                                   
  S  S  S  S  E  Q.      Q                         
------------------------------|-------------------|
------------------------------|-------------------|
------------------------------|-------------------|
-----------------7\-----------|-------------------|
-----------------7\-----------|-------------------|
--0--0--0--0--0--7\-----------|-------------------|


  PM PM PM PM PM >        PM PM PM PM    PM >        >          
  S  S  S  S  E  E  Q     S  S  S  S     E  Q.       Q    Q     
--------------------------------------|------------------------|
--------------------------------------|------------------------|
--------------------------------------|------------------------|
-----------------7--L\----------------|-----7\------/7---------|
-----------------7--L\----------------|-----7\------/7---------|
--0--0--0--0--0--7--L\----0--0--0--0--|--0--7\------/7---------|


  PM PM PM PM PM >        PM PM PM PM    PM >        >          
  S  S  S  S  E  E  Q     S  S  S  S     E  Q.       Q    Q     
--------------------------------------|------------------------|
--------------------------------------|------------------------|
--------------------------------------|------------------------|
-----------------7--L\----------------|-----7\------/7---------|
-----------------7--L\----------------|-----7\------/7---------|
--0--0--0--0--0--7--L\----0--0--0--0--|--0--7\------/7---------|


                 PM                      PM PM PM PM  
  E   E  E  Q    E  E   E     E  Q    E  E  E  E  E   
---------------------------|-------------------------|
---------------------------|-------------------------|
---------------------------|-------------------------|
--7h--8--7----------7h--8--|--7----------------------|
--5------5--8-------5------|--5--8----5--------------|
------------0----0---------|-----0----0--0--0--0--0--|


                 PM                      PM PM PM PM  
  E   E  E  Q    E  E   E     E  Q    E  E  E  E  E   
---------------------------|-------------------------|
---------------------------|-------------------------|
---------------------------|-------------------------|
--7h--8--7----------7h--8--|--7----------------------|
--5------5--8-------5------|--5--8----5--------------|
------------0----0---------|-----0----0--0--0--0--0--|


                                         PM PM PM PM  
  E   E  E  Q    E  E  E     E   Q    E  E  E  E  E   
--------------------------|--------------------------|
--------------------------|--------------------------|
--------------------------|--------------------------|
--7h--8--7----------7-----|--7h--8----7--------------|
--5------5--8----5--8-----|--8---8----8--8--8--8--8--|
------------0----0--7-----|--7---7----7--7--7--7--7--|


                                         PM PM PM PM  
  E  E  E   Q    E  E  E     E   Q    E  E  E  E  E   
--------------------------|--------------------------|
--------------------------|--------------------------|
--------------------------|--------------------------|
--6-----6h--7----6--2-----|--2h--3----2--------------|
--7-----7---7----7--3-----|--3---3----3--3--3--3--0--|
--6-----6---6----6--2-----|--2---2----2--2--2--2--0--|


                 PM                      PM PM PM PM  
  E   E  E  Q    E  E   E     E  Q    E  E  E  E  E   
---------------------------|-------------------------|
---------------------------|-------------------------|
---------------------------|-------------------------|
--7h--8--7----------7h--8--|--7----------------------|
--5------5--8-------5------|--5--8----5--------------|
------------0----0---------|-----0----0--0--0--0--0--|


                 PM                      PM PM PM PM  
  E   E  E  Q    E  E   E     E  Q    E  E  E  E  E   
---------------------------|-------------------------|
---------------------------|-------------------------|
---------------------------|-------------------------|
--7h--8--7----------7h--8--|--7----------------------|
--5------5--8-------5------|--5--8----5--------------|
------------0----0---------|-----0----0--0--0--0--0--|


                                         PM PM PM PM  
  E   E  E  Q    E  E  E     E   Q    E  E  E  E  E   
--------------------------|--------------------------|
--------------------------|--------------------------|
--------------------------|--------------------------|
--7h--8--7----------7-----|--7h--8----7--------------|
--5------5--8----5--8-----|--8---8----8--8--8--8--8--|
------------0----0--7-----|--7---7----7--7--7--7--7--|


                                         PM PM PM PM  
  E  E  E   Q    E  E  E     E   Q    E  E  E  E  E   
--------------------------|--------------------------|
--------------------------|--------------------------|
--------------------------|--------------------------|
--6-----6h--7----6--2-----|--2h--3----2--------------|
--7-----7---7----7--3-----|--3---3----3--3--3--3--0--|
--6-----6---6----6--2-----|--2---2----2--2--2--2--0--|


  > PM > PM > PM > PM > PM > PM > PM > PM  
  S S  S S  S S  S S  S S  S S  S S  S S   
------------------------------------------|
------------------------------------------|
------------------------------------------|
------------------------------------------|
------------------------------------------|
--0-0--0-0--0-0--0-0--0-0--0-0--0-0--0-0--|


  > PM > PM > PM > PM > PM > PM > PM > PM  
  S S  S S  S S  S S  S S  S S  S S  S S   
------------------------------------------|
------------------------------------------|
------------------------------------------|
------------------------------------------|
------------------------------------------|
--0-0--0-0--0-0--0-0--0-0--0-0--0-0--0-0--|


  > PM > PM > PM > PM > PM > PM > PM > PM  
  S S  S S  S S  S S  S S  S S  S S  S S   
------------------------------------------|
------------------------------------------|
------------------------------------------|
------------------------------------------|
------------------------------------------|
--0-0--0-0--0-0--0-0--0-0--0-0--0-0--0-0--|


  > PM > PM > PM > PM > PM > PM > PM > PM  
  S S  S S  S S  S S  S S  S S  S S  S S   
------------------------------------------|
------------------------------------------|
------------------------------------------|
------------------------------------------|
------------------------------------------|
--0-0--0-0--0-0--0-0--0-0--0-0--0-0--0-0--|


  > PM > PM > PM > PM > PM > PM > PM > PM  
  S S  S S  S S  S S  S S  S S  S S  S S   
------------------------------------------|
------------------------------------------|
------------------------------------------|
------------------------------------------|
------------------------------------------|
--2-2--2-2--2-2--2-2--2-2--2-2--2-2--2-2--|


  > PM > PM > PM > PM > PM > PM > PM > PM  
  S S  S S  S S  S S  S S  S S  S S  S S   
------------------------------------------|
------------------------------------------|
------------------------------------------|
------------------------------------------|
------------------------------------------|
--2-2--2-2--2-2--2-2--2-2--2-2--2-2--2-2--|


  PM PM PM PM PM PM PM PM PM PM PM PM          >     >    >    >     
  S  S  S  S  S  S  S  S  S  S  S  S  Q        Q     Q    Q    Q     
--------------------------------------------|-----------------------|
--------------------------------------------|-----------------------|
--------------------------------------------|-----------------------|
--------------------------------------------|-----------------------|
--------------------------------------------|-----------------------|
--2--2--2--2--2--2--2--2--2--2--2--2--2S----|--9~----5----7----3----|


  PM PM PM PM                 PM PM PM PM               
  S  S  S  S  H.              S  S  S  S  H.            
---------------------------|---------------------------|
---------------------------|---------------------------|
---------------------------|---------------------------|
--------------2------------|--------------2------------|
--------------2------------|--------------2------------|
--2--2--2--2--2------------|--2--2--2--2--2------------|


  PM PM PM PM                 PM PM PM PM               
  S  S  S  S  H.              S  S  S  S  H.            
---------------------------|---------------------------|
---------------------------|---------------------------|
---------------------------|---------------------------|
--------------3------------|--------------3------------|
--------------3------------|--------------3------------|
--3--3--3--3--3------------|--3--3--3--3--3------------|


  PM PM PM PM                 PM PM PM PM               
  S  S  S  S  H.              S  S  S  S  H.            
---------------------------|---------------------------|
---------------------------|---------------------------|
--------------5------------|--------------5------------|
--------------5------------|--------------5------------|
--3--3--3--3--3------------|--3--3--3--3--3------------|
---------------------------|---------------------------|


  PM PM PM PM                 PM PM PM PM         PM PM PM  
  S  S  S  S  H.              S  S  S  S  Q    E  E  E  E   
---------------------------|-------------------------------|
---------------------------|-------------------------------|
---------------------------|-------------------------------|
--------------5------------|--------------5----L--5--4--3--|
--------------5------------|--------------5----L--5--4--3--|
--5--5--5--5--5------------|--5--5--5--5--5----L--5--4--3--|


  PM PM PM PM      PM PM PM PM         PM PM PM PM      PM PM PM PM       
  S  S  S  S  Q    S  S  S  S  Q       S  S  S  S  Q    S  S  S  S  Q     
------------------------------------|------------------------------------|
------------------------------------|------------------------------------|
------------------------------------|------------------------------------|
--------------2----------------2----|--------------2----------------2----|
--------------2----------------2----|--------------2----------------2----|
--2--2--2--2--2----2--2--2--2--2----|--2--2--2--2--2----2--2--2--2--2----|


  PM PM PM PM      PM PM PM PM         PM PM PM PM      PM PM PM PM       
  S  S  S  S  Q    S  S  S  S  Q       S  S  S  S  Q    S  S  S  S  Q     
------------------------------------|------------------------------------|
------------------------------------|------------------------------------|
------------------------------------|------------------------------------|
--------------3----------------3----|--------------3----------------3----|
--------------3----------------3----|--------------3----------------3----|
--3--3--3--3--3----3--3--3--3--3----|--3--3--3--3--3----3--3--3--3--3----|


  PM PM PM PM      PM PM PM PM         PM PM PM PM      PM PM PM PM       
  S  S  S  S  Q    S  S  S  S  Q       S  S  S  S  Q    S  S  S  S  Q     
------------------------------------|------------------------------------|
------------------------------------|------------------------------------|
--------------5----------------5----|--------------5----------------5----|
--------------5----------------5----|--------------5----------------5----|
--3--3--3--3--3----3--3--3--3--3----|--3--3--3--3--3----3--3--3--3--3----|
------------------------------------|------------------------------------|


  PM PM PM PM      PM PM PM PM         PM PM PM PM      PM PM PM PM PM  
  S  S  S  S  Q    S  S  S  S  Q       S  S  S  S  Q    S  S  E  E  E   
------------------------------------|----------------------------------|
------------------------------------|----------------------------------|
------------------------------------|----------------------------------|
--------------5----------------5----|--------------5----------5--4--3--|
--------------5----------------5----|--------------5----------5--4--3--|
--5--5--5--5--5----5--5--5--5--5----|--5--5--5--5--5----5--5--5--4--3--|


  PM PM PM PM      PM PM PM PM         PM PM PM PM      PM PM PM PM        
  S  S  S  S  Q    S  S  S  S  Q       S  S  S  S  Q    S  S  S  S  Q      
------------------------------------|-------------------------------------|
------------------------------------|-------------------------------------|
------------------------------------|-------------------------------------|
--------------2----------------2----|--------------2----------------------|
--------------2----------------2----|--------------2----------------------|
--2--2--2--2--2----2--2--2--2--2----|--2--2--2--2--2----2--2--2--2--x\----|


  > PM > PM > PM > PM > PM > PM > PM > PM  
  S S  S S  S S  S S  S S  S S  S S  S S   
------------------------------------------|
------------------------------------------|
------------------------------------------|
------------------------------------------|
------------------------------------------|
--0-0--0-0--0-0--0-0--0-0--0-0--0-0--0-0--|


  > PM > PM > PM > PM > PM > PM > PM > PM  
  S S  S S  S S  S S  S S  S S  S S  S S   
------------------------------------------|
------------------------------------------|
------------------------------------------|
------------------------------------------|
------------------------------------------|
--0-0--0-0--0-0--0-0--0-0--0-0--0-0--0-0--|


  > PM > PM > PM > PM > PM > PM > PM > PM  
  S S  S S  S S  S S  S S  S S  S S  S S   
------------------------------------------|
------------------------------------------|
------------------------------------------|
------------------------------------------|
------
comments
We did not receive enough feedback on this tab! Please rate:
1 2 3 4 5
I want to post or [tab]
guest
You may want to rate the tab now too:
select rating
Please do not post tabs as comments. Select "correction" instead!