Oops, an error
Loading. Please wait.

All Within My Hands Tab

ver2
ver2

Whole song

Interactive

More versions @911Tabs.com
2,655 views 3 this week
1 commentread comment
1 2 3 4 5
accurate
x 2
Autoscroll
+/-
esc
set tempo
stop
Contributor
NEW! There's an official Ultimate Guitar app which is ideal
for learning songs when you're away from computer. Get the app
WARNING: You are trying to view
                                    content from Ultimate-Guitar.com
                                    in an unauthorized application,
                                    which is prohibited.

                                    Please use an official Ultimate
                                    Guitar Tabs application for iPhone,
                                    iPad or Android to access legitimate
                                    chords, guitar, bass, and drum tabs
                                    from Ultimate-Guitar.com database.

                                    Type "ultimate guitar tabs" in Apple
                                    App Store's or Android Market's
                                    search to find the application.
"All Within My Hands"

by Metallica
written by Hetfield/Ulrich/Hammett/Rock

available on "St. Anger" album

tabbed by Tero Saikkonen from Finland
tsslayer@luukku.com
www.pureheavymetal.cjb.net


Guitars Dropped-C tuning (Strings on D) 
(like all songs in "st. Anger" album, 
except "Dirty Window"(C# dropped-B) "Invisible Kid"(A# dropped-G#)
 and "The Unnamed Feeling"(C dropped-A#))



INTRO
 /half-acoustic with wah/
|-----------------|
|-----------------|
|-----------------|
|-----------------|
|-----------------|
|-x-x-x-x-x-x-x-x-|


 /distorted/
|--------------------------------------| -2-
|--------------------------------------|  T
|--------------------------------------|  I
|--------------------------------------|  M
|-7-7---0-0---6-6---0-0---6-5-3--------|  E
|-7-7---0-0---6-6---0-0---6-5-3--------|  S


|-----------------------------------------------------------| -7-
|-----------------------------------------------------------|  T
|-----------------------------------------------------------|  I
|-----------------------------------------------------------|  M
|-7-7---0-0---6-6---0-0--------7-7---0-0---6-6---0-0--------|  E
|-7-7---0-0---6-6---0-0--------7-7---0-0---6-6---0-0--------|  S


|---------------------------------------------------------------------------|
|---------------------------------------------------------------------------|
|---------------------------------------------------------------------------|
|---------------------------------------------------------------------------|
|-7-7---0-0---6-6---0-0-------3------------------7-7---0-0---6-6---0-0------|
|-7-7---0-0---6-6---0-0-------3------3--3--3--3--7-7---0-0---6-6---0-0------|



GTR I
 /acoustic/
|----------------------------------------------------------------------------------------------|
|----------------------------------------------------------------------------------------------|
|----------------------------------------------------------------------------------------------|
|----------------------------------------------------------------------------------------------|
|----------------------------------------------------------------------------------------------|-2-
|0--3--0--3--0--3--0--3--0--2--0--2--0--2--0--2--0--1--0--1--0--1--0--1--0--3--0--3--0--3--0--3| T
|                                                                                              | I
|GTR II                                                                                        | M
|/distorted/                                                                                   | E
|----------------------------------------------------------------------------------------------| S
|13--------------------------------------------------------------------------------------------|
|--------------------12--14----------------------12----------------------10--------------------|
|----------------------------------------------------------------------------------------------|
|----------------------------------------------------------------------------------------------|
|----------------------------------------------------------------------------------------------|



VERSE ("All within my hands...")
 /acoustic/
|-------------------------------------------------------
|-------------------------------------------------------
|-------------------------------------------------------
|-------------------------------------------------------
|-------------------------------------------------------
|-0--3--0-0-3--0-0-3--0-0-3--0--2--0-0-2--0-0-2--0-0-2--

-------------------------------------------------------| -2-
-------------------------------------------------------|  T
-------------------------------------------------------|  I
-------------------------------------------------------|  M
-------------------------------------------------------|  E
-0--1--0-0-1--0-0-1--0-0-1--0--3--0-0-3--0-0-3--0-0-3--|  S



|-----5-------5-------5-------5-------5-------5-------5-------5---
|---6---6---6---6---6---6---6---6---5---5---5---5---5---5---5---5-
|-7-------7-------7-------7-------5-------5-------5-------5-------
|-----------------------------------------------------------------
|-----------------------------------------------------------------
|-----------------------------------------------------------------

    (background)
    (5)     (5)     (5)     (5)
-----6-------6-------6-------6-------5-------5--------------------------|
---8---8---8---8---8---8---8---8---6---6---6---6--6-5-6---6-5-----------|
-7-------7-------7-------7-------7-------7--------------------7---5--7--|
------------------------------------------------------------------------|
------------------------------------------------------------------------|
------------------------------------------------------------------------|



CHORUS ("All within my hands! Love to death...")
 /distorted/
|-------------------------------------------------------------------------
|-------------------------------------------------------------------------
|-------------------------------------------------------------------------
|-------------------------------------------------------------------------
|-0-0-3---3---3---3---3---3---3---3---2---2---2---2---2---2---2---2---2---
|-0-0-3---3---3---3---3---3---3---3---2---2---2---2---2---2---2---2---2---


-----------------------------------------------------------------| -2-
-----------------------------------------------------------------|  T
-----------------------------------------------------------------|  I
-----------------------------------------------------------------|  M
-5---5---5---5---5---5---5---5---5---3---3---3---3-2-0---3-2-0---|  E
-5---5---5---5---5---5---5---5---5---3---3---3---3-2-0---3-2-0---|  S


|---------------------------------| -6-
|---------------------------------|  T
|---------------------------------|  I
|---------------------------------|  M
|-------------------------0-0-0-0-|  E
|-5-6-7---5-6-7---3-4-5---0-0-0-0-|  S


|-------------------------------------------------------| -4-
|-------------------------------------------------------|  T
|-------------------------------------------------------|  I
|-----------------------------_-_-----------_-_---------|  M
|-5--6--7--0-----6--7--3-----5_6_5--3---5--5_6_5--3-----|  E
|-5--6--7--0-----6--7--3-----5-6-5--3---5--5-6-5--3-----|  S


|------------------------------------------| -2-
|-----------------------------------9~~(8)-|  T
|------------------------------------------|  I
|------------------------------------------|  M
|-7-7---0-0---6-6---0-0---6-5-3------------|  E
|-7-7---0-0---6-6---0-0---6-5-3------------|  S


|-------------------------------------------------------| -2-
|-------------------------------------------------------|  T
|-------------------------------------------------------|  I
|-----------------------------_-_-----------_-_---------|  M
|-5--6--7--0-----6--7--3-----5_6_5--3---5--5_6_5--3-----|  E
|-5--6--7--0-----6--7--3-----5-6-5--3---5--5-6-5--3-----|  S



GTR I
|-----------------------------------------------------------|-----------------|
|-----------------------------------------------------------|-----------------|
|-----------------------------------------------------------|-----------------|
|-----------------------------------------------------------|-----------------|
|-0--0--------0-0-----0-0-----0-0--0--------0-0----0-0----0-|-0--0------------|
|-0--0--------0-0-----0-0-----0-0--0--------0-0----0-0----0-|-0--0------------|
|                                                           |                 |
|GTR II                                                     |                 |
|-----------------------------------------------------------|-----------------|
|----------15~~----15~~---15~~----------10~~----10~~---10~~-|-----------------|
|-----------------------------------------------------------|-----------------|
|-----------------------------------------------------------|-----------------|
|-----------------------------------------------------------|-----------------|
|-----------------------------------------------------------|-----------------|

                            (*= play only first time)
|-----------------------------------------------------------| -2-
|-------------------------10*-------------------------------|  T
|-------------------------9*--------------------------------|  I
|-----------------------------------------------------------|  M
|-7-7---0-0---6-6---0-0--------7-7---0-0---6-6---0-0--------|  E
|-7-7---0-0---6-6---0-0--------7-7---0-0---6-6---0-0--------|  S


GTR I
 /acoustic/
|-----------------------------------------------------------------------------------------------|
|-----------------------------------------------------------------------------------------------|
|-----------------------------------------------------------------------------------------------|
|-----------------------------------------------------------------------------------------------|
|-----------------------------------------------------------------------------------------------|
|-0--3--0--3--0--3--0--3--0--2--0--2--0--2--0--2--0--1--0--1--0--1--0--1--0--3--0--3--0--3--0--3|
|                                                                                               |
|GTR II                                                                                         |
|/distorted/                                                                                    |
|-----------------------------------------------------------------------------------------------|
|-13--------------------------------------------------------------------------------------------|
|---------------------12--14----------------------12----------------------10--------------------|
|-----------------------------------------------------------------------------------------------|
|-----------------------------------------------------------------------------------------------|
|-----------------------------------------------------------------------------------------------|


VERSE ("All within my hands...")
 /acoustic/
|-------------------------------------------------------
|-------------------------------------------------------
|-------------------------------------------------------
|-------------------------------------------------------
|-------------------------------------------------------
|-0--3--0-0-3--0-0-3--0-0-3--0--2--0-0-2--0-0-2--0-0-2--

-------------------------------------------------------| -2-
-------------------------------------------------------|  T
-------------------------------------------------------|  I
-------------------------------------------------------|  M
-------------------------------------------------------|  E
-0--1--0-0-1--0-0-1--0-0-1--0--3--0-0-3--0-0-3--0-0-3--|  S



|-----5-------5-------5-------5-------5-------5-------5-------5---
|---6---6---6---6---6---6---6---6---5---5---5---5---5---5---5---5-
|-7-------7-------7-------7-------5-------5-------5-------5-------
|-----------------------------------------------------------------
|-----------------------------------------------------------------
|-----------------------------------------------------------------

    (background)
    (5)     (5)     (5)     (5)
-----6-------6-------6-------6-------5-------5--------------------------|
---8---8---8---8---8---8---8---8---6---6---6---6--6-5-6---6-5-----------|
-7-------7-------7-------7-------7-------7--------------------7---5--7--|
------------------------------------------------------------------------|
------------------------------------------------------------------------|
------------------------------------------------------------------------|


CHORUS ("All within my hands! Love to death...")
 /distorted/
|-------------------------------------------------------------------------
|-------------------------------------------------------------------------
|-------------------------------------------------------------------------
|-------------------------------------------------------------------------
|-0-0-3---3---3---3---3---3---3---3---2---2---2---2---2---2---2---2---2---
|-0-0-3---3---3---3---3---3---3---3---2---2---2---2---2---2---2---2---2---


-----------------------------------------------------------------| -2-
-----------------------------------------------------------------|  T
-----------------------------------------------------------------|  I
-----------------------------------------------------------------|  M
-5---5---5---5---5---5---5---5---5---3---3---3---3-2-0---3-2-0---|  E
-5---5---5---5---5---5---5---5---5---3---3---3---3-2-0---3-2-0---|  S


|---------------------------------| -6-
|---------------------------------|  T
|---------------------------------|  I
|---------------------------------|  M
|-------------------------0-0-0-0-|  E
|-5-6-7---5-6-7---3-4-5---0-0-0-0-|  S


|-------------------------------------------------------| -4-
|-------------------------------------------------------|  T
|-------------------------------------------------------|  I
|-----------------------------_-_-----------_-_---------|  M
|-5--6--7--0-----6--7--3-----5_6_5--3---5--5_6_5--3-----|  E
|-5--6--7--0-----6--7--3-----5-6-5--3---5--5-6-5--3-----|  S


|------------------------------------------| -2-
|-----------------------------------9~~(8)-|  T
|------------------------------------------|  I
|------------------------------------------|  M
|-7-7---0-0---6-6---0-0---6-5-3------------|  E
|-7-7---0-0---6-6---0-0---6-5-3------------|  S


|-------------------------------------------------------| -2-
|-------------------------------------------------------|  T
|-------------------------------------------------------|  I
|-----------------------------_-_-----------_-_---------|  M
|-5--6--7--0-----6--7--3-----5_6_5--3---5--5_6_5--3-----|  E
|-5--6--7--0-----6--7--3-----5-6-5--3---5--5-6-5--3-----|  S

GTR I
|-----------------------------------------------------------|--------------------|
|-----------------------------------------------------------|--------------------|
|-----------------------------------------------------------|--------------------|
|-----------------------------------------------------------|--------------------|
|-0--0--------0-0-----0-0-----0-0--0--------0-0----0-0----0-|-0--0---------------|
|-0--0--------0-0-----0-0-----0-0--0--------0-0----0-0----0-|-0--0---------------|
|                                                           |                    |
|GTR II                                                     |                    |
|-----------------------------------------------------------|--------------------|
|----------15~~----15~~---15~~----------10~~----10~~---10~~-|--------------------|
|-----------------------------------------------------------|--------------------|
|-----------------------------------------------------------|--------------------|
|-----------------------------------------------------------|--------------------|
|-----------------------------------------------------------|--------------------|


|-------------------------------| -5-
|-------------------------------|  T
|-------------------------------|  I
|--_-------------------_-_------|  M
|-5_7-0-0-0-0-0-3-5-6-5_6_5--3--|  E
|-5-7-0-0-0-0-0-3-5-6-5-6-5--3--|  S


|-------------------------------| -4- |-----------------|
|-------------------------------|  T  |-----------------|
|-------------------------------|  I  |-----------------|
|--_------------------_-_-------|  M  |--_--------------|
|-6_7-0-0-0-0-0-0-5--5_6_5--3---|  E  |-6_7-0-0-0-0-0-0-|
|-6-7-0-0-0-0-0-0-5--5-6-5--3---|  S  |-6-7-0-0-0-0-0-0-|


|-------------------------------| -12-
|-------------------------------|  T
|-------------------------------|  I
|-------------------------------|  M
|-5-6-7--5-6-7--5-6-3---0-0-0-0-|  E
|-5-6-7--5-6-7--5-6-3---0-0-0-0-|  S


|---------------------------| -7- |----------|
|---------------------------|  T  |----------|
|---------------------------|  I  |----------|
|--------------_-_-------_--|  M  |----------|
|-0--0--0--3--5_6_5--3--6_7-|  E  |-0--0--0--|
|-0--0--0--3--5-6-5--3--6-7-|  S  |-0--0--0--|


|---------------------------------|
|---------------------------------|
|---------------------------------|
|---------------------------------|
|---------------------------------|
|-7-7-7-7-5-5-5-5-3-3-3-3-2-2-2-2-|


|---------------------------| -3-
|---------------------------|  T
|---------------------------|  I
|---------------------------|  M
|-3--5_6_5--3--6_7-0--0--0--|  E
|-3--5-6-5--3--6-7-0--0--0--|  S


|---------------------------------|
|---------------------------------|
|---------------------------------|
|---------------------------------|
|---------------------------------|
|-7-7-7-7-5-5-5-5-3-3-3-3-2-2-2-2-|


|-------------------------------| -4-
|-------------------------------|  T
|-------------------------------|  I
|-------------------------------|  M
|-5-6-7--5-6-7--5-6-3---0-0-0-0-|  E
|-5-6-7--5-6-7--5-6-3---0-0-0-0-|  S


|-------------------------------------------------------| -4-
|-------------------------------------------------------|  T
|-------------------------------------------------------|  I
|-----------------------------_-_-----------_-_---------|  M
|-5--6--7--0-----6--7--3-----5_6_5--3---5--5_6_5--3-----|  E
|-5--6--7--0-----6--7--3-----5-6-5--3---5--5-6-5--3-----|  S

|------------------------------------------| -2-
|-----------------------------------9~~(8)-|  T
|------------------------------------------|  I
|------------------------------------------|  M
|-7-7---0-0---6-6---0-0---6-5-3------------|  E
|-7-7---0-0---6-6---0-0---6-5-3------------|  S


|-------------------------------------------------------| -2-
|-------------------------------------------------------|  T
|-------------------------------------------------------|  I
|-----------------------------_-_-----------_-_---------|  M
|-5--6--7--0-----6--7--3-----5_6_5--3---5--5_6_5--3-----|  E
|-5--6--7--0-----6--7--3-----5-6-5--3---5--5-6-5--3-----|  S



GTR I
|-----------------------------------------------------------|
|-----------------------------------------------------------|
|-----------------------------------------------------------|
|-----------------------------------------------------------|
|-0--0--------0-0-----0-0-----0-0--0--------0-0----0-0----0-|
|-0--0--------0-0-----0-0-----0-0--0--------0-0----0-0----0-|
|                                                           |
|GTR II                                                     |
|-----------------------------------------------------------|
|----------15~~----15~~---15~~----------10~~----10~~---10~~-|
|-----------------------------------------------------------|
|-----------------------------------------------------------|
|-----------------------------------------------------------|
|-----------------------------------------------------------|



|-----------------------------------------------------------|
|-------------------------10--------------------------------|
|-------------------------9---------------------------------|
|-----------------------------------------------------------|
|-7-7---0-0---6-6---0-0--------7-7---0-0---6-6---0-0--------|
|-7-7---0-0---6-6---0-0--------7-7---0-0---6-6---0-0--------|

|------------------------------------------------|
|------------------------------------------------|
|------------------------------------------------|
|------------------------------------------------|
|-7-7---0-0---6-6---0-0--------7-7---0-0---6-6---|
|-7-7---0-0---6-6---0-0--------7-7---0-0---6-6---|


|-----------------------------|
|-----------------------------|
|-----------------------------|
|-7----6----3-----------------|
|-7----6----3-----------------|
|-7----6----3-----------------|


("Kill kill kill kill kill!")
|--------------------------------------------------------| -4-
|--------------------------------------------------------|  T
|--------------------------------------------------------|  I
|-7----6----3-----------------7----6----3----------------|  M
|-7----6----3-----------------7----6----3----------------|  E
|-7----6----3-----------------7----6----3----------------|  S


|--------------------(0)----------------|
|--------------------(0)----------------|
|--------------------(3)----------------|
|-7---------6---------2-----------------|
|-7---------6---------2-----------------|
|-7---------6---------2-----------------|

|--------------------(5)----------------|
|--------------------(5)----------------|
|--------------------(3)----------------|
|-7---------6---------2-----------------|
|-7---------6---------2-----------------|
|-7---------6---------2-----------------|
                                     _
|--------------------(0)----1---3---3-4------|
|--------------------(5)---------------------|                   tabbed by:
|--------------------(3)---------------------| THE       T E R O   S A I K K O N E N
|-7---------6---------2----------------------| END             contact me to:
|-7---------6---------2----------------------|       t s s l a y e r @ l u u k k u . c o m
|-7---------6---------2----------------------|
comments
We did not receive enough feedback on this tab! Please rate:
print report bad tab
1 2 3 4 5
1 comment total.
0 reply
royturner23 wrote on June 28 2007, 10:19 am

verse is wrong...

I want to post or [tab]
guest
You may want to rate the tab now too:
select rating
Please do not post tabs as comments. Select "correction" instead!