Oops, an error
Loading. Please wait.

Am I Evil Tab

ver5
ver5
More versions @911Tabs.com
9,739 views 9 this week
3 commentsread comments
1 2 3 4 5
excellent!
x 4
Autoscroll
+/-
esc
set tempo
stop
Contributor
Difficulty
advanced
Hey! There's an official Ultimate Guitar app which is ideal
for learning songs when you're away from computer. Get the app
WARNING: You are trying to view
                                    content from Ultimate-Guitar.com
                                    in an unauthorized application,
                                    which is prohibited.

                                    Please use an official Ultimate
                                    Guitar Tabs application for iPhone,
                                    iPad or Android to access legitimate
                                    chords, guitar, bass, and drum tabs
                                    from Ultimate-Guitar.com database.

                                    Type "ultimate guitar tabs" in Apple
                                    App Store's or Android Market's
                                    search to find the application.
#----------------------------------PLEASE NOTE---------------------------------#
#This file is the author's own work and represents their interpretation of the #
#song. You may only use this file for private study, scholarship, or research. #
#------------------------------------------------------------------------------##


Gtr I (E A D G B E) - 'Lead'
Gtr II (E A D G B E) - 'Singing'

  Moderate Rock Q=120(8=s8)
 4/4
  Gtr I
                                   PM--|     PM--|       PM--------------|
  H.      E E    H.       Q    E E E E E E E E E E   E E E E E E E E E E E
|-------------|--------------|---------------------|-----------------------|
|-------------|--------------|---------------------|-----------------------|
|-9-------7-9-|-10-------12--|-9---------9---------|-9---------------------|
|-9-------7-9-|-10-------12--|-9---------9---------|-9---------------------|
|-7-------5-7-|--8-------10--|-7---------7---------|-7---------------------|
|-0-----------|--------------|-----0-0-0-----0-0-0-|-----0-0-0-0-0-0-0-0-0-|


      PM--|    PM--|
  E E E E E E  E E E   W..            W
|--------------------|------------||-----------|
|--------------------|------------||o----------|
|--------------------|------------||-----------|
|-9---------9--------|-9\---------||-----------|
|-7---------7--------|-7\---------||o-2--------|
|-----0-0-0----0-0-0-|------------||--0--------|


                          1.,2.
  +H     H      W          +H     H
|-------------|----------|--------------||
|-------------|----------|-------------o||
|-------------|----------|--------------||
|-------------|----------|--------------||
|-(2)----9----|-8--------|-(8)----3----o||
|-(0)----7----|-6--------|-(6)----1-----||


  3.
  H      H      W          +H     H      W          +H     H      W
|-------------|----------|-------------|----------|-------------|------|
|-------------|----------|-------------|----------|-------------|------|
|-3-----------|----------|-------------|----------|-------------|------|
|-3----/10----|-9--------|-(9)---------|----------|-------------|------|
|-1-----/8----|-7--------|-(7)----9----|-8--------|-(8)----3----|-2----|
|-------------|----------|--------7----|-6--------|-(6)----1----|-0----|


       PM--|                     PM--|     PM--|       PM--|
       |-3-|                     |-3-|     |-3-|       |-3-| |-3-| |-3-|
  +Q   E E E E E E E E E     E E E E E E E E E E   E E E E E E E E E E E   3x
|------------------------||----------------------|-------------------------||
|------------------------||o---------------------|------------------------o||
|------------7-7-7-7-7-7-||--9---------9---------|-9---------7-7-7-7-7-7---||
|------------7-7-7-7-7-7-||--9---------9---------|-9---------7-7-7-7-7-7---||
|-(2)--------5-5-5-5-5-5-||o-7---------7---------|-7---------5-5-5-5-5-5--o||
|-(0)--0-0-0-------------||------0-0-0-----0-0-0-|-----0-0-0---------------||


        ~       ~     ~
  Q  Q  Q  Q    Q  Q  Q  Q    Q  Q  S Q..     E S  Q   S  H
|-------------|-------------|---------------|------------------|
|-------------|----------6--|-5s=6--6s8-----|---8s10--10s12----|
|-------------|----4--3-----|---------------|------------------|
|----------3--|-2-----------|---------------|------------------|
|----2--1-----|-------------|---------------|------------------|
|-0-----------|-------------|---------------|------------------|


  |-3-| |-3-| |-3-| |-3-|   |-3-| |-3-| |-3-| |-3-|
  S S S S S S S S S S S S   S S S S S S S S S S S S
|-------------------------|-------------------------|
|-0h5h8-0h5h8-0h5h8-0h5h8-|-0h5h8-0h5h8-0h5h8-0h5h8-|
|-------------------------|-------------------------|
|-------------------------|-------------------------|
|-------------------------|-------------------------|
|-------------------------|-------------------------|


  |-3-| |-3-| |-3-| |-3-|   |-3-| |-3-| |-3-| |-3-|
  S S S S S S S S S S S S   S S S S S S S S S S S S
|-------------------------|----------------------------|
|-0h4h7-0h4h7-0h4h7-0h4h7-|-0h4h7-0h4h7-0h4h7-0h4h7----|
|-------------------------|----------------------------|
|-------------------------|----------------------------|
|-------------------------|----------------------------|
|-------------------------|----------------------------|


  |-3-| |-3-| |-3-| |-3-|   |-3--| |-3--| |-3-| |-3-|
  S S S S S S S S S S S S   S S  S S S  S S S S S S S
|-------------------------|---------------------------|
|-0h5h8-0h5h8-0h5h8-0h5h8-|-0h7h10-0h7h10-0h5h8-0h5h8-|
|-------------------------|---------------------------|
|-------------------------|---------------------------|
|-------------------------|---------------------------|
|-------------------------|---------------------------|


  |-3-| |-3-| |-3-| |-3-|
  S S S S S S S S S S S S
|--------------------------|
|-0h4h7-0h4h7-0h4h7-0h4h7--|
|--------------------------|
|--------------------------|
|--------------------------|
|--------------------------|


                           Moderate Rock Q=120
  |-3-| |-3-| |-3-|
  S S S S S S S S S +S     +H     +Q.     E
|------------------------|-------------------|
|-0h4h7-0h4h7-0h4h7-(7)--|-(7)----(7)--------|
|------------------------|-------------------|
|------------------------|--------------<12>-|
|------------------------|-------------------|
|------------------------|-------------------|


 (8=s8)
                           3/4         2/4
    Q.     E    Q.     E      H.          +H
|-------------------------|-----------|-----------||
|-------------------------|-----------|-----------||
|-<12>--------------------|-----------|-----------||
|-------------<12>--------|-----------|-----------||
|--------<12>-------------|-<12>------|-(<12>)----||
|--------------------<12>-|-----------|-----------||


    Fast Metal Q=150(8=s8)
   4/4
    PM----|   PM|     PM--|             PM----|   PM|     PM--|
    E E E E E E E E   E E E E +Q   Q    E E E E E E E E   E E E E +Q   Q    3x
||------------------|-----------------|-----------------|-------------------||
||o-----------------|-----------------|-----------------|------------------o||
||------------------|-----------------|-----------------|-------------------||
||------------------|-----------------|-----------------|-------------------||
||o---------5-----7-|-------8-(8)--7--|---------5-----7-|-------8-(8)--7---o||
||--0-0-0-0-3-0-0-5-|-0-0-0-6-(6)--5--|-0-0-0-0-3-0-0-5-|-0-0-0-6-(6)--5----||


    W          W          W          H    Q  E E
||-----------|----------|----------|--------------||
||o----------|----------|----------|-----------5--||
||-----------|----------|----------|--------------||
||-----------|----------|----------|--------------||
||o----------|----------|----------|--------------||
||-----------|----------|----------|--------------||


  Gtr II
  E E E E Q   Q     H        Q   E E   E E S E.   +H          W
|-----------------|------------------|----------------------|-----------------|
|-8-5-5-5-5-------|------------------|-5-5------------------|-----------------|
|-----------------|--------------7-4-|-----9s7----(7)-------|-----------------|
|-----------------|------------------|----------------------|-----------------|
|-----------------|------------------|----------------------|-----------------|
|-----------------|------------------|----------------------|-----------------|
|
| Gtr I
| PM----|   PM|     PM--|              PM-------|     PM|     PM--|
| E E E E E E E E   E E E E +Q   Q     E E E    E  E  E E E   E E E E +Q   Q
|-----------------|------------------|----------------------|-----------------|
|-----------------|------------------|----------------------|-----------------|
|-----------------|------------------|----------------------|-----------------|
|-----------------|------------------|----------------------|-----------------|
|---------5-----7-|-------8-(8)--7---|-------------5------7-|-------8-(8)--7--|
|-0-0-0-0-3-0-0-5-|-0-0-0-6-(6)--5---|-0-0-0----0--3--0-0-5-|-0-0-0-6-(6)--5--|


  E E E E Q   Q     H        Q   E E   E Q   E H         +E  E Q    H
|-----------------|------------------|-----------------|-------------------|
|-5-5-5---5-------|------------------|-5-5---5---------|-------------------|
|-------8---------|--------------7-4-|---------7-------|-(7)---------------|
|-----------------|------------------|-----------------|-------------------|
|-----------------|------------------|-----------------|-------------------|
|-----------------|------------------|-----------------|-------------------|
|
| PM----|   PM|     PM--|              PM----|   PM|      PM---|
| E E E E E E E E   E E E E +Q   Q     E E E E E E E E    E  E E E +Q   Q
|-----------------|------------------|-----------------|-------------------|
|-----------------|------------------|-----------------|-------------------|
|-----------------|------------------|-----------------|-------------------|
|-----------------|------------------|-----------------|-------------------|
|---------5-----7-|-------8-(8)--7---|---------5-----7-|---------8-(8)--7--|
|-0-0-0-0-3-0-0-5-|-0-0-0-6-(6)--5---|-0-0-0-0-3-0-0-5-|--0--0-0-6-(6)--5--|


  E E Q   H          H        E  E E E   E E E E +H          H        Q   E E
|------------------|-------------------|-------------------|------------------|
|-8-5-5---5\-------|-------------------|-5-5-5-------------|------------------|
|------------------|-------------7-6-4-|-------7-(7)-------|----------------7-|
|------------------|-------------------|-------------------|------------------|
|------------------|-------------------|-------------------|------------------|
|------------------|-------------------|-------------------|------------------|
|
| PM----|    PM|     PM--|               PM----|     PM|     PM--|
| E E E E E  E E E   E E E E +Q    Q     E E E E  E  E E E   E E E E +Q   Q
|------------------|-------------------|-------------------|------------------|
|------------------|-------------------|-------------------|------------------|
|------------------|-------------------|-------------------|------------------|
|------------------|-------------------|-------------------|------------------|
|---------5------7-|-------8-(8)---7---|----------5------7-|-------8-(8)--7---|
|-0-0-0-0-3--0-0-5-|-0-0-0-6-(6)---5---|-0-0-0-0--3--0-0-5-|-0-0-0-6-(6)--5---|


  E Q   E H          H        Q   E E
|------------------|------------------|
|-5-5---5-5\-------|------------------|
|------------------|----------------6-|
|------------------|------------------|
|------------------|------------------|
|------------------|------------------|
|
| PM----|    PM|     PM--|
| E E E E E  E E E   E E E E +Q   Q
|------------------|------------------|
|------------------|------------------|
|------------------|------------------|
|------------------|------------------|
|---------5------7-|-------8-(8)--7---|
|-0-0-0-0-3--0-0-5-|-0-0-0-6-(6)--5---|


  E Q   E S E.   +Q      +Q    Q    H
|----------------------|-------------------|
|-5-5---5-5------------|-------------------|
|-----------7----(7)---|-(7)---------------|
|----------------------|-------------------|
|----------------------|-------------------|
|----------------------|-------------------|
|
| PM----|      PM|        PM---|
| E E E E E    E  E  E    E  E E E +Q   Q
|----------------------|-------------------|
|----------------------|-------------------|
|----------------------|-------------------|
|----------------------|-------------------|
|---------5----------7-|---------8-(8)--7--|
|-0-0-0-0-3----0--0--5-|--0--0-0-6-(6)--5--|


  Q   E E E E E E   E E E  E  +Q   Q    Q   E E E E E E   E E E  E  +Q   Q
|-----------------|-------------------|-----------------|-------------------|
|-----------5-5---|-5---6-------------|-----------5-5---|-5---6-------------|
|-----4-4-7-----7-|---7----7--(7)--4--|-----4-4-7-----7-|---7----7--(7)--4--|
|-----------------|-------------------|-----------------|-------------------|
|-----------------|-------------------|-----------------|-------------------|
|-----------------|-------------------|-----------------|-------------------|
|
| PM----|   PM|     PM--|               PM----|   PM|     PM--|
| E E E E E E E E   E E E  E  +Q   Q    E E E E E E E E   E E E  E  +Q   Q
|-----------------|-------------------|-----------------|-------------------|
|-----------------|-------------------|-----------------|-------------------|
|---------7-----9-|-------10-(10)--9--|---------7-----9-|-------10-(10)--9--|
|---------7-----9-|-------10-(10)--9--|---------7-----9-|-------10-(10)--9--|
|-----------------|-------------------|-----------------|-------------------|
|-7-7-7-7---7-7---|-7-7-7-------------|-7-7-7-7---7-7---|-7-7-7-------------|


  Q   E E E E E E   E Q    E  +Q   Q    Q   E E +E  Q   E   H         +Q   Q
|-----------------|-------------------|-------------------|-------------------||
|-----------5-5-5-|---6---------------|-------------------|-------------------||
|-----4-4-7-------|-7------7--(7)--4--|-------7-(7)-4---4-|-------------------||
|-----------------|-------------------|-------------------|-7---------(7)\----||
|-----------------|-------------------|-------------------|-------------------||
|-----------------|-------------------|-------------------|-------------------||
|
| PM----|   PM|     PM--|               PM----|     PM|     PM--|
| E E E E E E E E   E E E  E  +Q   Q    E E E E  E  E E E   E E E  E  +Q   Q
|-----------------|-------------------|-------------------|-------------------||
|-----------------|-------------------|-------------------|-------------------||
|---------7-----9-|-------10-(10)S=9--|----------7------9-|-------10-(10)S=9--||
|---------7-----9-|-------10-(10)S=9--|----------7------9-|-------10-(10)S=9--||
|-9-9-9-9---9-9---|-9-9-9-------------|-9-9-9-9-----9-9---|-9-9-9-------------||
|-7-7-7-7---7-7---|-7-7-7-------------|-7-7-7-7-----7-7---|-7-7-7-------------||


  H       E Q   E   +E  E Q   +H         H       E Q   E   +Q    Q    H
|-----------------|--------------------|-----------------|-------------------|
|---------8-8---8-|-(8)---5---(5)\-----|---------5-5---5-|-(5)---------------|
|-----------------|-----7--------------|-----------------|-------------------|
|-----------------|--------------------|-----------------|-------------------|
|-----------------|--------------------|-----------------|-------------------|
|-----------------|--------------------|-----------------|-------------------|
|
| PM----|   PM|      PM---|              PM----|   PM|      PM---|
| E E E E E E E E    E  E E E +Q    Q    E E E E E E E E    E  E E E +Q   Q
|-----------------|--------------------|-----------------|-------------------|
|-----------------|--------------------|-----------------|-------------------|
|-----------------|--------------------|-----------------|-------------------|
|-----------------|--------------------|-----------------|-------------------|
|---------5-----7-|---------8-(8)---7--|---------5-----7-|---------8-(8)--7--|
|-0-0-0-0-3-0-0-5-|--0--0-0-6-(6)---5--|-0-0-0-0-3-0-0-5-|--0--0-0-6-(6)--5--|


  H       E Q   E   +E  S S +H.             H       E Q   E
|-----------------|-----------------------|-----------------|
|---------8-8---8-|-(8)-5-----------------|---------5-5---5-|
|-----------------|-------7-(7)-----------|-----------------|
|-----------------|-----------------------|-----------------|
|-----------------|-----------------------|-----------------|
|-----------------|-----------------------|-----------------|
|
| PM----|   PM|      PM-----|               PM----|   PM|
| E E E E E E E E    E  E    E  E +Q   Q    E E E E E E E E
|-----------------|-----------------------|-----------------|
|-----------------|-----------------------|-----------------|
|-----------------|-----------------------|-----------------|
|-----------------|-----------------------|-----------------|
|---------5-----7-|-------------8-(8)--7--|---------5-----7-|
|-0-0-0-0-3-0-0-5-|--0--0----0--6-(6)--5--|-0-0-0-0-3-0-0-5-|


  1.                    2.
  Q   E E +E  E Q       Q   E E +E  E E E    +H        H          H     Q  Q
|--------------------||-------------------||-------------------|--------------|
|-------6-(6)-6-5\--o||-------5-(5)-8-5---||-------------------|--------6-----|
|-7------------------||-7---------------7-||-(7)---------------|-----------7--|
|--------------------||-------------------||-------------------|--------------|
|-------------------o||-------------------||-------------------|--------------|
|--------------------||-------------------||-------------------|--------------|
|
| PM--|                 PM--|
| E E E E +Q    Q       E E E E +Q    Q       Q   E E +E  E Q    +W
|--------------------||-------------------||-------------------|--------------|
|-------------------o||-------------------||-------------------|--------------|
|--------------------||-------------------||-------------------|--------------|
|--------------------||-------------------||--9-----7-(7)---5--|-(5)----------|
|-------8-(8)---7---o||-------8-(8)---7---||--7-----5-(5)---3--|-(3)----------|
|-0-0-0-6-(6)---5----||-0-0-0-6-(6)---5---||------0-------0----|--------------|


  +Q    Q   H         W                   W                  W      3x
|-------------------|-----------------||------------------|---------||
|-------------------|-----------------||o-----------------|--------o||
|-(7)---------------|-----------------||------------------|---------||
|-------------------|-----------------||------------------|---------||
|-------------------|-----------------||o-----------------|--------o||
|-------------------|-----------------||------------------|---------||
|
|  PM-----|   PM|     PM--|
|  E  E E E E E E E   E E E E +Q   Q      Q  E E +E  E Q    +W      3x
|-------------------|-----------------||------------------|---------||
|-------------------|-----------------||o-----------------|--------o||
|-------------------|-----------------||------------------|---------||
|-------------------|-----------------||--9----7-(7)---5--|-(5)-----||
|-----------5-----7-|-------8-(8)--7--||o-7----5-(5)---3--|-(3)----o||
|--0--0-0-0-3-0-0-5-|-0-0-0-6-(6)--5--||-----0-------0----|---------||


  Q  E E +Q    Q     +E   E H.        +W           +W
|-----------------|-----------------|------------|--------|
|-----------------|-----------------|------------|--------|
|-----------------|-----------------|------------|--------|
|-----------------|-----------------|------------|--------|
|-7----9-(9)--10--|-(10)-10S7-------|-(7)--------|-(7)----|
|-----------------|-----------------|------------|--------|


    $
        PM--|     PM--|       PM--|
      |--3--|   |--3--|     |--3--|
    Q W E E E Q Q E E E   Q Q E E E Q  Q
||----------------------|-----------------|
||o---------------------|-----------------|
||----------------------|-----------------|
||----------------------|--------------7--|
||o-7---------7---------|-7---------5--5--|
||--5-5-5-5-5-5-5-5-5-5-|-5-5-5-5-5-3-----|


      PM--|     PM--|       PM--|
    |--3--|   |--3--|     |--3--|
  Q Q E E E Q Q E E E   Q Q E E E Q  Q
|---------------------|--------------------||
|---------------------|-------------------o||
|---------------------|--------------------||
|---------------------|-----------5--------||
|-7---------7---------|-7---------3--5----o||
|-5-5-5-5-5-5-5-5-5-5-|-5-5-5-5-5----3-----||


   Bridge
    Gtr II
    E Q       E   +E  Q       E     +E  Q       E   +H
||--------------------------------|--------------------------|
||o---8-------8---(8)-8-------8---|-(8)-8-------8---(8)------|
||--------------------------------|--------------------------|
||--------------------------------|--------------------------|
||o-------------------------------|--------------------------|
||--------------------------------|--------------------------|
|
|   Gtr I
|   PM----------------------------------------------|
|         |--3--|  |-3--| |--3--|    |-3--| |--3--|
|   Q   E E E   E  Q    E E E   E    Q    E E E   E  E  Q.
||--------------------------------|--------------------------|
||o-------------------------------|--------------------------|
||--------------------------------|--------------------------|
||--------------------------------|---------------------7----|
||o-2-----------------------------|---------------------5----|
||--0---0-0-0---0--0----0-0-0---0-|--0----0-0-0---0--0-------|


  E Q       E   +E  Q       E     +H          H
|-------------------------------|----------------------|
|---5-------5---(5)-5-------5---|-(5)------------------|
|-------------------------------|----------------------|
|-------------------------------|----------------------|
|-------------------------------|----------------------|
|-------------------------------|----------------------|
|
| PM------------------------------------------|
|                                  |3-| |-3-| |-3-|
| Q   E E E   E  Q    E E E   E    Q  E E E E Q Q Q
|-------------------------------|----------------------|
|-------------------------------|----------------------|
|-------------------------------|----------------------|
|-------------------------------|---------------7-7----|
|-2---2-2-2---2--2----2-2-2---2-|--2--2-2-2-2-2-5-5----|
|-0---0-0-0---0--0----0-0-0---0-|--0--0-0-0-0-0--------|


  E Q       E   +E  Q       E     E Q       E   +Q     Q
|-------------------------------|-------------------------|
|---8-------8---(8)-8-------8---|-7-5-------7---(7)-------|
|-------------------------------|-------------------------|
|-------------------------------|-------------------------|
|-------------------------------|-------------------------|
|-------------------------------|-------------------------|
|
| PM--------------------------------------------|
| |-3-| |--3--|  |-3--| |--3--|   |-3-| |--3--|
| Q   E E E   E  Q    E E E   E   Q   E E E   E  E  Q.
|-------------------------------|-------------------------|
|-------------------------------|-------------------------|
|-------------------------------|-------------------------|
|-------------------------------|-------------------7-----|
|-2---2-2-2---2--2----2-2-2---2-|-2---2-2-2---2--2--5-----|
|-0---0-0-0---0--0----0-0-0---0-|-0---0-0-0---0--0--------|


  E Q       E   +E  Q       E     +E  S   S Q     +E  E   Q
|-------------------------------|-----------------------------|
|---5-------5---(5)-5-------5---|-(5)-------5-----(5)---------|
|-------------------------------|---------4-------------------|
|-------------------------------|-----7-----------------------|
|-------------------------------|-----------------------------|
|-------------------------------|-----------------------------|
|
| PM----------------------------------------------|
| |-3-| |--3--|  |-3--| |--3--|    |-3--|   |-3-|  |---3----|
| Q   E E E   E  Q    E E E   E    Q    E   E E E  Q    Q   Q
|-------------------------------|-----------------------------|
|-------------------------------|-----------------------------|
|-------------------------------|-----------------------------|
|-------------------------------|-----------------------7---7-|
|-2---2-2-2---2--2----2-2-2---2-|--2----2---2-2-2--2----5---5-|
|-0---0-0-0---0--0----0-0-0---0-|--0----0---0-0-0--0----------|


  E Q       E   +E  Q       E     +E  Q       E   +Q     Q
|-------------------------------|---------------------------|
|---5-------5---(5)-5-------5---|-(5)-5-------5---(5)-------|
|-------------------------------|---------------------------|
|-------------------------------|---------------------------|
|-------------------------------|---------------------------|
|-------------------------------|---------------------------|
|
| PM----------------------------------------------|
| |-3-| |--3--|  |-3--| |--3--|    |-3--| |--3--|
| Q   E E E   E  Q    E E E   E    Q    E E E   E  E  Q.
|-------------------------------|---------------------------|
|-------------------------------|---------------------------|
|-------------------------------|---------------------------|
|-------------------------------|---------------------7-----|
|-2---2-2-2---2--2----2-2-2---2-|--2----2-2-2---2--2--5-----|
|-0---0-0-0---0--0----0-0-0---0-|--0----0-0-0---0--0--------|


  E Q       E   +E  Q       E     +E  E   Q     H
|-------------------------------|------------------------|
|---5-------5---(5)-5-------5---|-(5)--------------------|
|-------------------------------|------------------------|
|-------------------------------|------------------------|
|-------------------------------|------------------------|
|-------------------------------|------------------------|
|
| PM--------------------------------------------|
|       |--3--|  |-3--| |--3--|    |-3--| |-3-| |-3-|
| Q   E E E   E  Q    E E E   E    Q    E E E E Q Q Q
|-------------------------------|------------------------|
|-------------------------------|------------------------|
|-------------------------------|------------------------|
|-------------------------------|-----------------7-7----|
|-2---2-2-2---2--2----2-2-2---2-|--2----2-2-2-2-2-5-5----|
|-0---0-0-0---0--0----0-0-0---0-|--0----0-0-0-0-0--------|


  |--3--|   |--3--|      |--3---|   |-3--|
  Q Q   Q   Q Q   Q     +Q  Q   Q   Q    H
|---------------------|---------------------|
|---8---8---8-8---8---|-(8)-8---8---8----8--|
|---------------------|---------------------|
|---------------------|---------------------|
|---------------------|---------------------|
|---------------------|---------------------|
|
| PM--------------------------------|
| |3| |-3-| |3| |-3-|    |3-| |-3-|
| Q E E E E Q E E E E    Q  E E E E E Q.
|---------------------|---------------------|
|---------------------|---------------------|
|---------------------|---------------------|
|---------------------|---------------7-----|
|-2-2-2-2-2-2-2-2-2-2-|--2--2-2-2-2-2-5-----|
|-0-0-0-0-0-0-0-0-0-0-|--0--0-0-0-0-0-------|


  H         E Q       E     +H.             Q
|-------------------------|----------------------||
|-----------5-5-------5---|-(5)------------------||
|-------------------------|----------------------||
|-------------------------|----------------------||
|-------------------------|----------------------||
|-------------------------|----------------------||
|
| PM------------------------------------|
| |3| |-3-| |-3-| |--3--|    |3-| |-3-| |--3--|
| Q E E E E Q   E E E   E    Q  E E E E Q Q   Q
|-------------------------|----------------------||
|-------------------------|----------------------||
|-------------------------|----------------------||
|-------------------------|---------------7---7--||
|-2-2-2-2-2-2---2-2-2---2-|--2--2-2-2-2-2-5---5--||
|-0-0-0-0-0-0---0-0-0---0-|--0--0-0-0-0-0--------||


  H        E Q     E     +E  E Q     +Q   Q
|----------------------|---------------------|
|----------8-8-----8---|-(8)-5-8-----(8)-----|
|----------------------|---------------------|
|----------------------|---------------------|
|----------------------|---------------------|
|----------------------|---------------------|
|
|    PM--|     PM----|         PM--|
|    |-3-|     |--3--|         |-3-|
| Q  E E E Q   E E   E    Q    E E E  Q   Q
|----------------------|---------------------|
|----------------------|---------------------|
|----------------------|---------------------|
|----------------------|------------------7--|
|-7--------7-----------|--7-----------5---5--|
|-5--5-5-5-5---5-5---5-|--5----5-5-5--3------|


  H        E Q     E     H.           Q
|----------------------|------------------|
|----------8-8-----8s==|=5----------------|
|----------------------|------------------|
|----------------------|------------------|
|----------------------|------------------|
|----------------------|------------------|
|
|    PM--|     PM----|       PM--|
|    |-3-|     |--3--|       |-3-|
| Q  E E E Q   E E   E   Q   E E E Q  Q
|----------------------|------------------|
|----------------------|------------------|
|----------------------|------------------|
|----------------------|-----------5------|
|-7--------7-----------|-7---------3--5---|
|-5--5-5-5-5---5-5---5-|-5---5-5-5----3---|


  H        E Q     E     +E  E Q     +Q   Q
|----------------------|---------------------|
|----------8-8-----8---|-(8)-5-8-----(8)-----|
|----------------------|---------------------|
|----------------------|---------------------|
|----------------------|---------------------|
|----------------------|---------------------|
|
|    PM--|     PM----|         PM--|
|    |-3-|     |--3--|         |-3-|
| Q  E E E Q   E E   E    Q    E E E  Q   Q
|----------------------|---------------------|
|----------------------|---------------------|
|----------------------|---------------------|
|----------------------|------------------7--|
|-7--------7-----------|--7-----------5---5--|
|-5--5-5-5-5---5-5---5-|--5----5-5-5--3------|


                                  To Coda
  Q  E   E   E E Q       +H.           Q
|----------------------|--------------------||
|--------5-------5-----|-(5)---------------o||
|------------7-7-------|--------------------||
|----------------------|--------------------||
|----------------------|-------------------o||
|----------------------|--------------------||
|
|    PM----|     PM--|        PM--|
|    |--3--|     |-3-|        |-3-|
| Q  E E   E Q   E E E    Q   E E E Q  Q
|----------------------|--------------------||
|----------------------|-------------------o||
|----------------------|--------------------||
|----------------------|------------5-------||
|-7----------7---------|--7---------3--5---o||
|-5--5-5---5-5---5-5-5-|--5---5-5-5----3----||


                                       Guitar Solo
  W           W           H    Q  Q     W
|----------|------------|------------||-----------------------|
|----------|------------|---------8--||-----------------------|
|----------|------------|------------||-----------------------|
|----------|------------|------------||-----------------------|
|----------|------------|------------||-----------------------|
|----------|------------|------------||-----------------------|
|
|                                                |3-|  |-3--|
| W          +W           H    H        H       +Q  E  E E  E
|----------|------------|------------||-------------7---------|
|----------|------------|------------||---------------10p7-10-|
|----------|------------|------------||-9b11----(9)-----------|
|----------|------------|------------||-----------------------|
|-2--------|-(2)--------|-5----7-----||-----------------------|
|-0--------|-(0)--------|-3----5-----||-----------------------|


  Gtr I
                      |3-|
   Q      Q.    +E   +Q  E  E  E
|--------------------------11-12-|
|-10b12rs12----(12)r(12)-0-------|
|------------------------0-------|
|--------------------------------|
|--------------------------------|
|--------------------------------|


                                               ~~
   |---3----|  |--3--|  |---3----|  |--3--|
   S  S  E  E  E  E  E  S  S  E  E  E  E  E    H     +Q   E  E
|-11h12p11----11-12-14-11h12p11----11-------|------------------|
|----------12-------------------12----12-11-|-10----(10)--7s10-|
|-------------------------------------------|------------------|
|-------------------------------------------|------------------|
|-------------------------------------------|------------------|
|-------------------------------------------|------------------|


   |--3--| |----3----|  |-3-|    |-3-| |-3-| |-3-| |3|
   Q Q E E E  S S S  S  S S Q    E E E E E E E E E Q E
|-10-9-7-9p7------7-----------|------------------------|
|------------10p7---10-10p7-7-|-10p7---7---------------|
|-----------------------------|------9---9-7-9p7---7-7-|
|-----------------------------|------------------9-----|
|-----------------------------|------------------------|
|-----------------------------|------------------------|


        |3-|  |-3-| |--3--| |-3-|
  a    +Q  E  E E E S S E E E E E
|----------7----------------------|
|------------10p7-----------------|
|-9b11r(9)--------9-7h9p7---7-7-7-|
|-------------------------9-------|
|---------------------------------|
|---------------------------------|


  |--3---|      |3-|         |3-|  |-3-| |--3--| |-3-|
  Q Q   +Q  Q  +Q  E   E    +Q  E  E E E S S E E E E E
|--------------------|----------7----------------------|
|-9------------------|------------10p7-----------------|
|-9-7b9r(7)--------7-|-9b11r(9)--------9-7h9p7---7-7-7-|
|-----------9--(9)---|-------------------------9-------|
|--------------------|---------------------------------|
|--------------------|---------------------------------|


        |3-|  |-3-| |--3--| |-3-|
  a    +Q  E  E E E S S E E E E E
|----------7-----------------------|
|------------10p7------------------|
|-9b11r(9)--------9-7h9p7---7-7-7--|
|-------------------------9--------|
|----------------------------------|
|----------------------------------|


        |3-|  |-3-| |--3--|       |--3--|
  E    +Q  E  E E E S S E E Q     Q  Q  Q  a      +H
|----------7-------------------|-19-20-22-22pb24r(22)----|
|------------10p7--------------|-------------------------|
|-9b11-(9)--------9-7h9p7---7--|-------------------------|
|-------------------------9----|-------------------------|
|------------------------------|-------------------------|
|------------------------------|-------------------------|


   |--3--|  |--3--|  |--3--|  |--3--|
   E  E  E  E  E  E  E  E  E  E  E  E
|-15p12-14p12----12-15p12-14p12----12-|
|-------------14----------------14----|
|-------------------------------------|
|-------------------------------------|
|-------------------------------------|
|-------------------------------------|


   |--3--|  |--3--|  |--3--|  |--3--|    |--3--|  |--3--|    |--3--|      |3|
   E  E  E  E  E  E  E  E  E  E  E  E    Q  Q  Q  Q  Q  Q    Q  Q  Q  Q   Q E
|-15p12-14p12----12-15p12-14p12----12-|-15-14-12----12----|-------------------|
|-------------14----------------14----|----------15----15-|-14-12-14----------|
|-------------------------------------|-------------------|----------12--12S7-|
|-------------------------------------|-------------------|-------------------|
|-------------------------------------|-------------------|-------------------|
|-------------------------------------|-------------------|-------------------|


        |3-|  |-3-| |-3-|  |-3-|
  a    +Q  E  E E E E E E  E E E
|----------7-10p7---9p7---10p7---|
|-----------------7-----7------7-|
|-9b11r(9)-----------------------|
|--------------------------------|
|--------------------------------|
|--------------------------------|


   |-3-|  |-3-| |-3-|  |-3-|    |-3-|  |-3--|
   E E E  E E E E E E  E E E    Q Q Q  Q Q  Q
|-12p7---10p7---9p7---10p7---|-10-9-7----7-----|
|------7------7-----7------7-|--------10---10--|
|----------------------------|-----------------|
|----------------------------|-----------------|
|----------------------------|-----------------|
|----------------------------|-----------------|


  |-3-|            |-3-| |-3-| |-3-| |-3-|   |-3-| |-3-| |-3-| |-3-|
  Q Q Q Q  +Q      E E E E E E E E E E E E   E E E E E E E E E E E E
|----------------|-------------------------|-------------------------|
|-9-7-9----------|-0h4h7-0h4h7-0h4h7-0h4h7-|-0h5h8-0h5h8-0h5h8-0h5h8-|
|-------7--(7)\--|-------------------------|-------------------------|
|----------------|-------------------------|-------------------------|
|----------------|-------------------------|-------------------------|
|----------------|-------------------------|-------------------------|


  |-3-| |-3-| |-3-| |-3-|   |-3-| |-3-| |-3-| |-3-|   |-3-| |-3-| |-3-| |-3-|
  E E E E E E E E E E E E   E E E E E E E E E E E E   E E E E E E E E E E E E
|-------------------------|-0h4h7-0h4h7-0h4h7-0h4h7-|-0h5h8-0h5h8-0h5h8-0h5h8-|
|-0h4h7-0h4h7-0h4h7-0h4h7-|-------------------------|-------------------------|
|-------------------------|-------------------------|-------------------------|
|-------------------------|-------------------------|-------------------------|
|-------------------------|-------------------------|-------------------------|
|-------------------------|-------------------------|-------------------------|


                                 T      T      T      T
  |-3-| |-3-|                    |-3-|  |-3-|  |-3-|  |-3-|
  E E E E E E S S S S S S S S    E E E  E E E  E E E  E E E
|-0h4h7-0h4h7-0h4h7p0-4h7-5h8-|-12p8p5-12p8p5-12p8p5-12p8p5-|
|-----------------------------|-----------------------------|
|-----------------------------|-----------------------------|
|-----------------------------|-----------------------------|
|-----------------------------|-----------------------------|
|-----------------------------|-----------------------------|


   T      T      T      T
   |-3-|  |-3-|  |-3-|  |-3-|
   E E E  E E E  E E E  E E E
|-12p8p5-12p8p5-12p8p5-12p8p5--|
|------------------------------|
|------------------------------|
|------------------------------|
|------------------------------|
|------------------------------|


   T      T      T      T
   |-3-|  |-3-|  |-3-|  |-3-|
   E E E  E E E  E E E  E E E
|-13p8p5-13p8p5-13p8p5-13p8p5-|
|-----------------------------|
|-----------------------------|
|-----------------------------|
|-----------------------------|
|-----------------------------|


   T      T      T      T        T      T      T      T
   |-3-|  |-3-|  |-3-|  |-3-|    |-3-|  |-3-|  |-3-|  |-3-|
   E E E  E E E  E E E  E E E    E E E  E E E  E E E  E E E
|-13p8p5-13p8p5-13p8p5-13p8p5-|-13p9p6-13p9p6-13p9p6-13p9p6-|
|-----------------------------|-----------------------------|
|-----------------------------|-----------------------------|
|-----------------------------|-----------------------------|
|-----------------------------|-----------------------------|
|-----------------------------|-----------------------------|


   T      T      T      T
   |-3-|  |-3-|  |-3-|  |-3-|
   E E E  E E E  E E E  E E E
|-13p9p6-13p9p6-13p9p6-13p9p6-|
|-----------------------------|
|-----------------------------|
|-----------------------------|
|-----------------------------|
|-----------------------------|


   T      T      T      T        T      T      T      T
   |-3-|  |-3-|  |-3-|  |-3-|    |-3-|  |-3-|  |-3-|  |-3-|
   E E E  E E E  E E E  E E E    E E E  E E E  E E E  E E E
|-14p9p6-14p9p6-14p9p6-14p9p6-|-14p9p6-14p9p6-14p9p6-14p9p6-|
|-----------------------------|-----------------------------|
|-----------------------------|-----------------------------|
|-----------------------------|-----------------------------|
|-----------------------------|-----------------------------|
|-----------------------------|-----------------------------|


   T       T       T       T
   |-3--|  |-3--|  |-3--|  |-3--|
   E  E E  E  E E  E  E E  E  E E
|-14p10p7-14p10p7-14p10p7-14p10p7-|
|---------------------------------|
|---------------------------------|
|---------------------------------|
|---------------------------------|
|---------------------------------|


   T       T       T       T
   |-3--|  |-3--|  |-3--|  |3|   |-3-| |-3-| |-3-| |-3-|
   E  E E  E  E E  E  E E  Q E   E E E E E E E E E E E E
|-14p10p7-14p10p7-14p10p7-14S7-|-0h4h7-------0h4h7--------|
|------------------------------|-------0h4h7-------0h4h7--|
|------------------------------|--------------------------|
|------------------------------|--------------------------|
|------------------------------|--------------------------|
|------------------------------|--------------------------|


  |-3-| |-3-| |-3-| |-3-|   |-3-| |-3-| |-3-| |-3-|   |-3-| |-3-| |-3-| |-3-|
  E E E E E E E E E E E E   E E E E E E E E E E E E   E E E E E E E E E E E E
|-0h4h7-------0h4h7-------|-------------------------|-------------------------|
|-------0h4h7-------0h4h7-|-0h4h7-------0h4h7-------|-0h4h7-------0h4h7-------|
|-------------------------|-------0h4h7-------0h4h7-|-------0h4h7-------0h4h7-|
|-------------------------|-------------------------|-------------------------|
|-------------------------|-------------------------|-------------------------|
|-------------------------|-------------------------|-------------------------|


  |-3-| |-3-| |-3-| |-3-|   |-3-| |-3-| |-3-| |-3-|   |-3-| |-3-| |-3-| |-3-|
  E E E E E E E E E E E E   E E E E E E E E E E E E   E E E E E E E E E E E E
|-------------------------|-------------------------|-------------------------|
|-------------------------|-------------------------|-------------------------|
|-0h4h7-------0h4h7-------|-0h4h7-------0h4h7-------|-------------------------|
|-------0h4h7-------0h4h7-|-------0h4h7-------0h4h7-|-0h4h7-------0h4h7-------|
|-------------------------|-------------------------|-------0h4h7-------0h4h7-|
|-------------------------|-------------------------|-------------------------|


   TP   TP    TP  TP
   Q   +Q    +E   S  S  S  S  S  S    S  S  S  S  S  S  S  S  S  S  S  S  S  S  S  S
|----------------------------------|-------------------------------------------------|
|--------------------7-10-10-12-12-|-15-12-12-12-17-12-12-12-15-12-12-12-17-12-12-12-|
|----------------------------------|-------------------------------------------------|
|----------------------------------|-------------------------------------------------|
|----------------------------------|-------------------------------------------------|
|-12--(12)--(12)\-7\---------------|-------------------------------------------------|


                           |--3--|
   S  S  S  S  S  S  S  S  S  S  S  S  S  S  S  S  S
|----------------------------------------------------|
|-15-12-12-12-17-12-12-12-15p14p12-12-12-17p12-12-12-|
|----------------------------------------------------|
|----------------------------------------------------|
|----------------------------------------------------|
|----------------------------------------------------|


   |--3--|       |--3--|  |------6-------|  |-3-|
   S  S  S  S  S E  E  E  S  S  S  S  S  S  E E E
|-------------------------------------------------|
|-15p14p12-12-12---12-10-13-11-10-13-11-10------7-|
|------------------------------------------10-9-7-|
|-------------------------------------------------|
|-------------------------------------------------|
|-------------------------------------------------|


             ~~~
   |3-| |3|  |3-| |-3--|                 |-3-| |-3-|
  +Q  E Q E +Q  E E E  E    a      H     E E E E E E
|------------------------|-----------------------------|
|-(7)-------------7-7-10-|-10b12==10----10p7---7-------|
|-(7)-9-7-7-(7)-7--------|-------------------9---9-7---|
|------------------------|-----------------------------|
|------------------------|-----------------------------|
|------------------------|-----------------------------|


                                                             D.S. al Coda
  |-3-| |3|  |----3----|
  E E E Q E  Q  a      E  +Q      +Q   E E a E S S E  S S    E S  S Q  H
|--------------10b12==10-(10)r=|=(10)--9-7-7h9p7-9p7------|------------------||
|------------------------------|---------------------10p8-|-10p8-10-8--------||
|-9p7---7-7/-------------------|--------------------------|------------7-----||
|-----9------------------------|--------------------------|------------------||
|------------------------------|--------------------------|------------------||
|------------------------------|--------------------------|------------------||


  &
  Gtr II
  H                 E Q         E         +E  E   Q           +Q   Q
|---------------------------------------|-----------------------------|
|-------------------8-8---------8-------|-(8)-5---8-----------(8)-----|
|---------------------------------------|-----------------------------|
|---------------------------------------|-----------------------------|
|---------------------------------------|-----------------------------|
|---------------------------------------|-----------------------------|
|
| Gtr I
|       PM------|       PM--|       PM            PM------|
|                                             |-----3-----|
| Q T.. T.. T.. T.. Q   T.. T.. T.. T..    Q  S.. S.. S.. S..  Q   Q
|---------------------------------------|-----------------------------|
|---------------------------------------|-----------------------------|
|---------------------------------------|-----------------------------|
|---------------------------------------|--------------------------7--|
|-7-----------------7-------------------|--7-------------------5---5--|
|-5-5---5---5---5---5---5---5---5---5---|--5--5---5---5---5----3------|


  Q     E       E     +E  Q           E
|--------------------------------------------|
|---------------8-----(8)-7-----------8------|
|--------------------------------------------|
|--------------------------------------------|
|--------------------------------------------|
|--------------------------------------------|
|
|       PM--------|           PM--------|
| Q T.. T.. T..   T..  Q  T.. T.. T..   T..
|--------------------------------------------|
|--------------------------------------------|
|--------------------------------------------|
|--------------------------------------------|
|-7--------------------7---------------------|
|-5-5---5---5-----5----5--5---5---5-----5----|


  Q  Q       +H         H          E Q     E     +E  E Q       +Q    Q
|---------------------|------------------------|-----------------------|
|-8--8-------(8)\-----|------------8-8-----8---|-(8)-5-8-------(8)\----|
|---------------------|------------------------|-----------------------|
|---------------------|------------------------|-----------------------|
|---------------------|------------------------|-----------------------|
|---------------------|------------------------|-----------------------|
|
|    PM  PM|               PM  PM|     PM|   PM        PM  PM|
|    |--3--|               |--3--|     |--3--|         |--3--|
| Q  E E E E  Q    Q    Q  E E E E Q   E E E E    Q    E E E E  Q    Q
|---------------------|------------------------|-----------------------|
|---------------------|------------------------|-----------------------|
|---------------------|------------------------|-----------------------|
|-------------5-------|------------------------|---------------------7-|
|-7-----------3----5--|-7----------7-----------|--7-------------5----5-|
|-5--5-5-5-5-------3--|-5--5-5-5-5-5---5-5-5-5-|--5----5-5-5-5--3------|


  Q  E   E   E E Q         +W                    H      +H
|------------------------|--------------------||-------------------|
|--------5-------5-------|-(5)----------------||-5------(5)\-------|
|------------7-7---------|--------------------||-------------------|
|------------------------|--------------------||-------------------|
|------------------------|--------------------||-------------------|
|------------------------|--------------------||-------------------|
|
|    PM|   PM    PM  PM|        PM  PM|          PM|            PM
|    |--3--|     |--3--|        |--3--|
| Q  S S S S Q   S S S S    Q   E E E E Q  Q     E E Q   E   Q  E
|------------------------|--------------------||-------------------|
|------------------------|--------------------||-------------------|
|------------------------|--------------------||-----9---7---7-----|
|------------------------|--------------5-----||-----9---7---7-----|
|-7----------7-----------|--7-----------3--5--||-----7---5---5-----|
|-5--5-5-5-5-5---5-5-5-5-|--5---5-5-5-5----3--||-0-0------------0--|


  Gtr I
       |-3-| |--3--|                         |-3-| |--3--|
  E Q  E E E E E E E     Q  Q  E Q  E   E Q  E E E E E E E     Q  Q  E Q  E
|--------------------||---------------|---------------------||--------------|
|--------------------||o--------------|--------------------o||--------------|
|--------------------||-----9--7-7----|-7-7-----------------||----9--7-7----|
|-7-7----------------||-----9--7-7----|-7-7-----------------||----9--7-7----|
|-5-5--------5-7p5-0-||o----7--5-5----|-5-5--------0-5-7-0-o||----7--5-5----|
|------0-5h7---------||--0----------0-|------0-5h7----------||-0------------|


               Slower Q=160
                   PM----|   PM|     PM--|
  E Q  E Q  Q      E E E E E E E E   E E E E +Q   Q   6x Q  Q Q
|--------------||------------------|------------------||--------*|
|--------------||o-----------------|-----------------o||--------*|
|-7-7----7-----||------------------|------------------||--------*|
|-7-7----7--7--||------------------|------------------||--------*|
|-5-5----5--7--||o---------5-----7-|-------8-(8)--7--o||-5--2---*|
|-----------5--||--0-0-0-0-3-0-0-5-|-0-0-0-6-(6)--5---||-3--0---*|


Duration Legend
---------------
W - whole; H - half; Q - quarter; E - 8th; S - 16th; T - 32nd; X - 64th; a - acciaccatura
+ - note tied to previous; . - note dotted; .. - note double dotted
Uncapitalized letters represent notes that are staccato (1/2 duration)
Irregular groupings are notated above the duration line
Duration letters will always appear directly above the note/fret number it represents the
duration for.  Duration letters with no fret number below them represent rests.  Multi-
bar rests are notated in the form Wxn, where n is the number of bars to rest for.  Low
melody durations appear below the staff

Tablature Legend
----------------
 h   - hammer-on
 p   - pull-off
 b   - bend
 pb  - pre-bend
 r   - bend release (if no number after the r, then release immediately)
 /\  - slide into or out of (from/to "nowhere")
 s   - legato slide
 S   - shift slide
  - natural harmonic
[n]  - artificial harmonic
n(n) - tapped harmonic
 ~   - vibrato
 tr  - trill
 T   - tap
 TP  - trem. picking
 PM  - palm muting
\n/  - tremolo bar dip; n = amount to dip
 \n  - tremolo bar down
 n/  - tremolo bar up
/n\  - tremolo bar inverted dip
 =   - hold bend; also acts as connecting device for hammers/pulls
 <>  - volume swell (louder/softer)
 x   - on rhythm slash represents muted slash
 o   - on rhythm slash represents single note slash

Misc Legend
-----------
 |  - bar
||  - double bar
||o - repeat start
o|| - repeat end
*|  - double bar (ending)
 :  - bar (freetime)
 $  - Segno
 &  - Coda
Tempo markers -  = BPM(8/16=s8/s16), where s8 = swing 8ths, s16 = swing 16ths


***************************************************************************************
* Generated using Power Tab Editor by Brad Larsen - http://powertab.guitarnetwork.org *
**
comments
print report bad tab
3 comments total.
0 reply
andressuarezp wrote on April 14 2010, 10:27 am

Good job man, nice tab!Thanks

0 reply
andrew10134 wrote on February 18 2011, 12:45 am

your welcome

0 reply
drug.me.2.hell wrote on June 5 2011, 04:01 pm

Fantastic tab, just one thing:

In the preverse I think its better with a powerchord 2 on low E 4 on the A (:

I want to post or [tab]
guest
You may want to rate the tab now too:
select rating
Please do not post tabs as comments. Select "correction" instead!