Oops, an error
Loading. Please wait.

And Justice For All Bass Tab

ver2
ver2
More versions @911Tabs.com
9,377 views 6 this week
1 commentread comment
1 2 3 4 5
worth learning
x 3
Autoscroll
+/-
esc
set tempo
stop
Hey! There's an official Ultimate Guitar app which is ideal
for learning songs when you're away from computer. Get the app
WARNING: You are trying to view
                                    content from Ultimate-Guitar.com
                                    in an unauthorized application,
                                    which is prohibited.

                                    Please use an official Ultimate
                                    Guitar Tabs application for iPhone,
                                    iPad or Android to access legitimate
                                    chords, guitar, bass, and drum tabs
                                    from Ultimate-Guitar.com database.

                                    Type "ultimate guitar tabs" in Apple
                                    App Store's or Android Market's
                                    search to find the application.
Band- Metallica
Album- And Justice For All

1.BLACKENED

Gtr I (E A D G) - 'Untitled'

 Intro
  Slowly Q=72
 4/4
  Gtr I
  H    H       H    H      H    H       H    H      E  E Q  H
|-----------|------------|-----------|------------|--------------|
|-----------|------------|-----------|------------|--------------|
|-----------|-------7----|-----------|-------7----|-9-10---------|
|-7----8----|-10----0----|-7----8----|-10----0----|------7--8----|


                                        Moderately Fast Rock Q=182
                                       5/4
   H    H      H    H       H    H      E E E E S S E Q  Q
|------------|-----------|------------|-----------------------|
|------------|-----------|------------|-----------------------|
|-------7----|-----------|-------7----|-1-----2-3-3-----------|
|-10----0----|-7----8----|-10----0----|---2-3-------1-0-------|


 7/4
  Q  Q  H    H.        Wx6
|--------------------|------------------|
|--------------------|------------------|
|--------------------|------------------|
|-0------------------|------------------|


 4/4
  E S S E E E E Q    E S S E E E E Q
|------------------|--------------------|
|------------------|--------------------|
|------------------|--------------------|
|-3-3-3-3-0-2-2----|-3-3-3-3-0-2-2------|


   7/4
    E E E E E E E E E E E E E E   E E E E E E E E E E E E S S E  4x
||------------------------------|--------------------------------||
||o-----------------------------|-------------------------------o||
||o---7---7---7-8-7---7---7---7-|---7---7---7-8-7-1-----2-3-3---o||
||--0---0---0-------0---0---6---|-0---0---0---------2-3-------1--||


     6/4
      E E E E E E E E E E E E    4x
|-||-----------------------------||
|-||o---------------------------o||
|-||o-------------1-----2-1-----o||
|-||--0-0-0-0-0-0---2-3-----3----||


   1st, 2nd, 3rd Verses
    $
    E E E E E E E E E E E E
||--------------------------|
||o-------------------------|
||o-------------1-----2-1---|
||--0-0-0-0-0-0---2-3-----3-|


  E E E E E E E E E E E E   E E E E E E E E E E E E
|-------------------------|-------------------------|
|-------------------------|-------------------------|
|-------------1-----2-1---|-------------1-----1-----|
|-0-0-0-0-0-0---2-3-----3-|-0-0-0-0-0-0---2-3---2-3-|


  E E E E E E E E E E E E   E E E E E E E E E E E E   E E E E E E E E E E E E
|-------------------------|-------------------------|--------------------------|
|-------------------------|-------------------------|--------------------------|
|-------------1-----2-1---|-------------1-----2-1---|-------------1-----2------|
|-3-3-3-3-3-3---2-3-----3-|-0-0-0-0-0-0---2-3-----3-|-0-0-0-0-0-0---2-3---1-3--|


  E E E E E E E E E E E E   E E E E E E E E E E S S E
|-------------------------|---------------------------|
|-------------------------|---------------------------|
|-------------1-----1-----|-------------1-----2-3-3---|
|-0-0-0-0-0-0---2-3---2-3-|-3-3-3-3-3-3---2-3-------1-|


 7/4
  E E E E E E E E E E E E E E
|------------------------------|
|------------------------------|
|---7---7---7-8-7---7---7---7--|
|-0---0---0-------0---0---6----|


                                                               2/4
  E E E E E E E E E E E E S S E   E E E E E E E E E E E E E E   E E E E
|-------------------------------|-----------------------------|---------|
|-------------------------------|-----------------------------|---------|
|---7---7---7-8-7-1-----2-3-3---|---7---7---7-8-7---7---7---7-|---------|
|-0---0---0---------2-3-------1-|-0---0---0-------0---0---6---|-0-0-0-0-|


 Chorus
 4/4
  H.      E E   Q  E E Q  E E   Q.   E E E E E   S S E Q  S S E Q
|-------------|---------------|----------------|-------------------|
|-------------|---------------|----------------|-------------------|
|-7-----------|-5------3------|----------------|-------------------|
|-0-------5-5-|----3-3----3-3-|-2----2-2-2-2-0-|-3-3-3----3-3-3----|


                                       To Coda
                       |-3-|
  H.      E E   Q  E E Q Q Q   Q.   E E E E E   E S S E E E E Q
|-------------|--------------|----------------|------------------|
|-------------|--------------|----------------|------------------|
|-7-----------|-5------3-3---|----------------|------------------|
|-0-------5-5-|----3-3-----3-|-2----2-2-2-2-0-|-3-3-3-3-0-2-2----|


  1.                                 2.
 7/4                                 4/4                2/4
  W                W                  E S S E E E E Q    E E Q
|----------------|-----------------||------------------|----------|
|----------------|----------------o||------------------|----------|
|----------------|----------------o||------------------|----------|
|----------------|-----------------||-3-3-3-3-0-2-2----|-1-1------|


  Slow Rock Q=128
 7/4                 4/4
  W        +H.        +W           +W           +W           +W
|-------------------|------------|------------|------------|--------|
|-------------------|------------|------------|------------|--------|
|-------------------|------------|------------|------------|--------|
|-0--------(0)------|-(0)--------|-(0)--------|-(0)--------|-(0)----|


  +Q   Q  E E E E   E E Q  E E E E   E E Q  E E E E   E E E E +E  E Q
|-----------------|----------------|----------------|------------------||
|-----------------|----------------|----------------|------------------||
|-----------------|----------------|----------------|-----6-6-(6)-6-6--||
|-(0)--0--0-0-0-0-|-0-0-0--0-0-0-0-|-0-0-0--0-0-0-0-|-5-6--------------||


                                                            ~
  E E E E E E E E   E E E E E E E E   E E E E E E E E   E E H    E E
|-----------------|-----------------|-----------------|--------------|
|-----------------|-----------------|-----------------|--------------|
|-------7---------|-----8-7---------|-------7---------|-----6----6-6-|
|-0-5-6---0-0-0-0-|-5-6-----0-0-0-0-|-0-5-6---0-0-0-0-|-5-6----------|


                                                       5/4
  E E E E E E E E   E E E E E E E E   E E E E E E E E   E E E E E E E E E E
|-----------------|-----------------|-----------------|---------------------|
|-----------------|-----8-----------|-----------------|---------------------|
|-------7---------|-7-----7---------|-------7---------|-----6-6-6-6-6-6---7-|
|-0-5-6---0-0-0-0-|---6-----0-0-0-0-|-0-5-6---0-0-0-0-|-6-0-------------0---|


 4/4
                                                     ~~
  Q  E E E E E E   Q  E E E E E E   Q  E E E E E E   Q.  E E E E E
|----------------|----------------|----------------|---------------|
|----------------|----------------|----------------|---------------|
|----7-7-7-------|----7-7-7---7---|----7-7-7---7-5-|-6---6-6-5-7---|
|-0--------5-7-6-|-0--------5---6-|-0--------0-----|-------------6-|


                                                     ~
  Q  E E E E E E   Q  E E E E E E   Q  E E E E E E   Q  E E E E E E
|----------------|----------------|----------------|----------------|
|----------------|----------------|----------------|----------------|
|----7-7-7-------|----7-7-7---7---|----7-7-7---7-5-|-6--6-6-6-----2-|
|-0--------5-7-6-|-0--------5---6-|-0--------0-----|----------0-2---|


                                                       3/4
  E E E E E E E E   E E E E E E E E   E E E E E E E E   Q  E E E E
|-----------------|-----------------|-----------------|-------------|
|---4-------------|-5-4-------------|---4-------------|-------------|
|-3-------------2-|---------------2-|-3---------3-2---|-------------|
|-----2-2-2-0-2---|-----2-2-2-0-2---|-----2-2-2-----3-|-1--1-1-1-1--|


 4/4
                                                            ~~
  E E E E E E E E   E E E E E E E E   E E E E E E E E   E E H.
|-----------------|-----------------|-----------------|-----------|
|-----------------|-----------------|-----------------|-----------|
|-------7---------|-----8-7---------|-------7---------|-----6-----|
|-0-5-6---0-0-0-0-|-5-6-----0-0-0-0-|-0-5-6---0-0-0-0-|-5-6-------|


                                                       5/4
  E E E E E E E E   E E E E E E E E   E E E E E E E E   E E E E E E E E E E
|-----------------|-----------------|-----------------|---------------------|
|-----------------|-----8-----------|-----------------|---------------------|
|-------7---------|-7-----7---------|-------7---------|-----6---5---6-----7-|
|-0-5-6---0-0-0-0-|---6-----0-0-0-0-|-0-5-6---0-0-0-0-|-6-0---4---4---4-0---|


 4/4
  Q  E E E E E E   Q  E E E E E E   Q  E E E E E E   Q.   E E E E E
|----------------|----------------|----------------|----------------|
|----------------|----------------|----------------|----------------|
|----7-7-7-------|----7-7-7---7---|----7-7-7---7-5-|-6----6-6-5-7---|
|-0--------5-7-6-|-0--------5---6-|-0--------0-----|--------------6-|


                                                     ~
  Q  E E E E E E   Q  E E E E E E   Q  E E E E E E   Q  E E E E E E
|----------------|----------------|----------------|----------------|
|----------------|----------------|----------------|----------------|
|----7-7-7-------|----7-7-7---7---|----7-7-7---7-5-|-6--6-6-6-----2-|
|-0--------5-7-6-|-0--------5---6-|-0--------0-----|----------0-2---|


  E E E E E E E E   E E E E E E E E   E E E E E E E E   H    H
|-----------------|-----------------|-----------------|-----------|
|---4-------------|-5-4-------------|---4-------------|-----------|
|-3-------------2-|---------------2-|-3---------3-2---|------8----|
|-----2-2-2-0-2---|-----2-2-2-0-2---|-----2-2-2-----3-|-1---------|


                 2/4         4/4             3/4
  Q  E E Q  E E   +E  E E E   Q  E E Q  E E   +E  E Q  E E
|---------------|-----------|---------------|---------------|
|----9---7------|-----------|---------------|---------------|
|-7----7-5--3-3-|-(3)-2-----|----7-0-5--3-3-|-(3)-2-2-------|
|---------------|-------3-2-|-0-------------|----------3-2--|


   4/4              2/4         4/4             3/4
    Q  E E E E E E   +E  E E E   Q  E E Q  E E   +E  E Q  E E  3x
||-----------------|-----------|---------------|---------------||
||o----------7-----|-----------|---------------|--------------o||
||o----7-0-5---3-3-|-(3)-2-----|----7-0-5--3-3-|-(3)-2-2------o||
||--0--------------|-------3-3-|-0-------------|----------3-2--||


   Guitar Solo
   4/4
    E E E E E E E E   E E E E E E S S S  S  6x
||------------------|-----------------------||
||o-----------------|----------------------o||
||o-----------------|---------------9---10-o||
||--0-3-0-2-0-3-0-2-|-0-3-0-2-0-3-7---8-----||


  E E E E E E E E   E E E E E E E E
|-----------------|-------------------|
|-----------------|-------------------|
|-----------------|-------------------|
|-0-3-0-2-0-3-0-2-|-0-3-0-2-0-3-7-8---|


  Moderately Fast Rock Q=182
                                       2/4      4/4
                                                  TP          TP
  E S S E E E E Q    E S S E E E E Q    E E Q     W           W
|------------------|------------------|--------|------------|-------|
|------------------|------------------|--------|------------|-------|
|------------------|------------------|--------|-19\--------|-x\----|
|-3-3-3-3-0-2-2----|-3-3-3-3-0-2-2----|-1-1----|------------|-------|


  E E E E E E E E   E E E E E E E E   E E E E E E E E   E E E E E E E E
|-----------------|-----------------|-----------------|-----------------|
|-----------------|-----------------|-----------------|-----------------|
|---8---8---8---8-|---7---7-----5h7-|---7---7---7---7-|---5---5---5---5-|
|-0---0---0---0---|-0---0---0-0-----|-0---0---0---0---|-0---0---0---0---|


  E E E E E E E E   E E E E E E E E   E E E E E E E E   H.      E E
|-----------------|-----------------|-----------------|-------------|
|-----------------|-----------------|-----------------|-------------|
|---8---8---8---8-|---7---7-----5h7-|-----------------|-7-----------|
|-0---0---0---0---|-0---0---0-0-----|-0-0-0-0-0-0-0-0-|-0-------5-5-|


  Q  E E Q  E E   Q.   E E E E E   S S E Q  S S E Q    H.      E E
|---------------|----------------|-------------------|---------------|
|---------------|----------------|-------------------|---------------|
|-5------3------|----------------|-------------------|-7-------------|
|----3-3----3-3-|-2----2-2-2-2-0-|-3-3-3----3-3-3----|-0-------5-5---|


                                  5/8           4/4
  Q  E E Q  E E   Q.   E E E E E   E S S E E E   E E E E E E E E
|---------------|----------------|-------------|------------------|
|---------------|----------------|-------------|------------------|
|-5------3------|----------------|-------------|---7---7---7---7--|
|----3-3----3-3-|-2----2-2-2-2-0-|-3-3-3-3-0-2-|-0---0---0---6----|


  E E E E E E E E   E E E E E E E E   E  E E  E E  E E  E   E E E E E E E E
|-----------------|-----------------|---------------------|-----------------|
|-----------------|-----------------|---------------------|-----------------|
|---7---7---7---7-|---5---5---5---5-|---10---10---10---10-|---7---7---7---7-|
|-5---5---5---5---|-3---3---3---3---|-8----8----8----8----|-0---0---0---6---|


                                     2/4         5/8
  E E E E E E E E   E E E E E E E E   E  E E  E   E E E E E
|-----------------|-----------------|-----------|------------|
|-----------------|-----------------|-----------|------------|
|---7---7---7---7-|---5---5---5---5-|---10---10-|------------|
|-5---5---5---5---|-3---3---3---3---|-8----8----|-3-3-3-3-3/-|


                                                D.S. al Coda
   7/4
    E E E E E E E E E E E E E E   E E E E E E E E E E E E S S E 4x
||------------------------------|-------------------------------||
||o-----------------------------|------------------------------o||
||o---7---7---7-8-7---7---7---7-|---7---7---7-8-7-1-----2-3-3--o||
||--0---0---0-------0---0---6---|-0---0---0---------2-3-------1-||


  &
 5/8           4/4
  E S S E E E   H.      E E   Q  E E Q  E E   Q.   E E E E E
|-------------|-------------|---------------|-----------------|
|-------------|-------------|---------------|-----------------|
|-------------|-7-----------|-5------3------|-----------------|
|-3-3-3-3-0-2-|-0-------5-5-|----3-3----3-3-|-2----2-2-2-2-0--|


                                           |-3-|
  S S E Q  S S E Q    H.      E E   Q  E E Q Q Q   Q.   E E E E E
|-------------------|-------------|--------------|----------------|
|-------------------|-------------|--------------|----------------|
|-------------------|-7-----------|-5------3-3---|----------------|
|-3-3-3----3-3-3----|-0-------5-5-|----3-3-----3-|-2----2-2-2-2-0-|


 3/4             4/4                2/4
  E S S E E E E   E S S E E E E Q    E E Q
|---------------|------------------|--------|
|---------------|------------------|--------|
|---------------|------------------|--------|
|-3-3-3-3-0-2-2-|-3-3-3-3-0-2-2----|-1-1----|


 7/4
  E E E E E E E E E E E E E E   W
|-----------------------------|------*|
|-----------------------------|------*|
|---7---7---7-8-7---7---7-----|------*|
|-0---0---0-------0---0---6-0-|------*|

2.AND JUSTICE FOR ALL

Bass Riff1
|-----------------------------|
|-----------------------------|
|--2-2-2-2-2-2-1-1-1-1-1-0-1--|
|-----------------------------|

Bass Riff2
|------------------------------------------------4-------------3----|
|-----------------------7--------------------4---------------3------|
|--7-7-7--7-5h7-5-5-5-5---5-3-3-3--3-3h5-2-2---2---2-1-1-3-1-----1--|
|-------------------------------------------------------------------|

Bass Riff3
|----------------------------------------------------------------|
|-----------------------------------------------------------3-2--|
|---------------------------------------------------------0------|
|---6----6-5----6-5-4----6-5-4-3----6-5-3-1-5-3-1-0-3-1-0--------|

Bass Riff3 (cont.)
|---------------------------------|
|---------------------------------|
|--3--2--0-----2-0-----0----------|
|-----------3------3-2---3-2-1-0--|

Bass Riff4
|---------------------------------------------------------------|
|---------------------------------------------------------------|
|-----------------------5h7--7-5------------------5h7--7-5------|
|--6--6--5---6--6--5--0------------7---6--6--5--0------------7--|

Bass Riff5
|-------------------------------------------------------------------------|
|-------------------------------------------------------------------------|
|-------------------------7------7-----------------------0----------0-----|
|--6--6--5---6--6--5---0------0------0--0---2--3--0---0------3--5------0--|

Bass Riff5 (cont.)
|----------------------------------------------------------------------|
|----------------------------------------------------------------------|
|------0-0-----0-0-----7------7-----------------------0----------0-----|
|--0-3-----0-3------0------0------0--0---2--3--0---0------3--5------0--|

Bass Riff5 (cont.)
|---------------------|
|---------------------|
|--------0---8--8--7--|
|--0--3---------------|

Bass Riff6
|----------------------------------------------------------------|
|----------------------------------------------------------------|
|----5h7--7-5------------------5h7--7-5--------------------------|
|--0------------7---6--6--5--0------------7---6--6--5---6--6--5--|

Bass Riff6 (cont.)
|----------------------------------------------------------------|
|----------------------------------------------------------------|
|----5h7--7-5------------------5h7--7-5--------------------------|
|--0------------7---6--6--5--0------------7---6--6--5---3--3--2--|

Bass Riff7
|-----------------------------------------------------------|
|-----------------------------------------------------------|
|----7----7--7---------------7----7--7----------------------|
|--0----0----0---0--0--1---0----0----0---6--6--5---6--6--5--|

Bass Riff8
|--------------------------|
|--------------------------|
|-----7--7--------5--5-----|
|--0--------0--0--------3--|

Bass Riff9
|-----------------------------------|
|-----------------------------------|
|-----------------------------------|
|--2---2-2-2-2-2-2-3-2-0-2h3---2h3--|

Bass Riff10
|-------------------|
|-------------------|
|-------------------|
|--2---2-2-2-2-2-2--|

Bass Riff11
|------------------------------|
|--5---------------------------|
|----------3--3-----------5h7--|
|---------------------5h7------|

Bass Riff12
|----------------------------------------------------------------|
|----------------------------------------------------------------|
|--7-------------------------------------------------------------|
|--0---0-0-0-0-0-0--1-0-0-0h1---0h1---5---5-5-3-5-7---7-7-5-7-8--|

Bass Riff12 (cont.)
|---------------------------------------------------------------------|
|---------------------------------------------------------------------|
|----------------------------------------------------------------7-8--|
|--7-5-3-1--0---0-0-0-0-0-0--1-0-0-0h1---0h1---5--5-5-3-5-7--10-------|

Bass Riff12 (cont.)
|----------------------------------------------------------------|
|----------------------------------------------------------------|
|--7-------------------------------------------------------------|
|--0---0-0-0-0-0-0--1-0-0-0h1---0h1---5---5-5-3-5-7---7-7-8-7-5--|

Bass Riff12 (cont.)
|-------------------------------------------------------|
|-------------------------------------------------------|
|----------5--3--3-3-2----------------------------------|
|--3-3-5-3-------------3-2-1----1----6--6--5---6--6--5--|

Bass Riff13
|----------------------------------------------------------------|
|----------------------------------------------------------------|
|----5h7--7-5------------------5h7--7-5--------------------------|
|--0------------7---6--6--5--0------------7---6--6--5---6--6--5--|

Bass Riff13 (cont.)
|--------------------------------------------|
|--------------------------------------------|
|----5h7--7-5------------------5h7--7-5------|
|--0------------7---6--6--5--0------------7--|

Bass Riff14
|------------------------------------|
|------------------------------------|
|------------------------------------|
|--0---0-0-0-0-0-0--1-0-0-0h1---0h1--|

Bass Riff15
|---------------------|
|---------------------|
|--3--3--2---3--3--2--|
|---------------------|

Bass Riff16
|----------------------|
|----------------------|
|----------------------|
|--0-2--0-2--2--0-2-3--|

Bass Riff17
|-----------------------------------------------------|
|-----------------------------------------------------|
|-----5--5--------3--3--------4--4--------2--2--------|
|--0--------3--0--------1--0--------2--0--------0--0--|

Bass Riff18
|-------------------------------------------------------------|
|----------------------------------------------------------4--|
|------------------------------------------------4------------|
|--5--5--3---5--5--3---3--3--2---3--3--2---2--2------2--2-----|

Bass Riff18 (cont.)
|--------------------|
|--------3-----------|
|--------------3-----|
|--1--1-----1-----1--|

Bass Riff19
|----------------------------------------------------4-------------3----|
|--------------9-----------7---------------5-----4---------------3------|
|--7-----9-7-7---5-----7-5---5-3-----5-3-3---2-2---2---2-1-1-3-1-----1--|
|----0-0-----------0-0-----------0-0------------------------------------|

Bass Riff19 (cont.)
|------------3-----------------------------------------------------------|
|------3---3-------------------------------------------------------------|
|--1-1---1-----1---7------7---5------5---3------3---2------2---1------1--|
|------------------0--x-x-0------x-x--------x-x--------x-x--------x-x----|

Bass Riff19 (cont.)
|--------------------------|
|--------------------------|
|--1------1---1------1-----|
|-----x-x--------x-x----0--|

Bass Riff20
|---------------------|
|---------------------|
|---------------------|
|--6--6--5---3--3--2--|

Bass Riff21
|-----------------------------------------------------|
|-----------------------------------------------------|
|-----7------7-----------------------0----------0-----|
|--0------0------0--0---2--3--0---0------3--5------0--|

Bass Riff21 (cont.)
|----------------------------------------------------------------------|
|----------------------------------------------------------------------|
|------0-0-----0-0-----7------7-----------------------0----------0-----|
|--0-3-----0-3------0------0------0--0---2--3--0---0------3--5------0--|

Bass Riff21 (cont.)
|---------------------|
|---------------------|
|--------0---8--8--7--|
|--0--3---------------|

Bass Riff22
|--------------------------------------------------------------------------|
|--------------------------------------------------------------------------|
|-----7------7--7----------------------------------------------------5--3--|
|--0------0-----0---0--2--3--0---5---5-5-3-5-7---7-7-8-7-5-3---3-5-3-------|

Bass Riff22 (cont.)
|--------------------------------------------|
|--------------------------------------------|
|--3--3--2-----------------------------------|
|------------3--2--1------6--6--5---6--6--5--|

Bass Riff23
|----------------9------------------------------|
|--9-------9----------------------------12------|
|--7----------7-----7--12-------12--------------|
|----------------------10-----------10------10--|

Bass Riff24
|---------------------------------------|
|----------------9-----7----------------|
|--9-------9-----------0----------------|
|--7----------7-----7----------3--3--2--|

Bass Riff25
|------------------------------------------------------|
|-------------------7----------------------------------|
|--9----------------0----------------------------------|
|--7-------6--6--5----------3--3--2-----------3--3--0--|

3.EYE OF THE BEHOLDER

     INTRO
-----------------------------!
-----------------------------!
-----------------------------!  14X's
0--0--0-0-0--0-0-0-0-0-0-0-0-!

------------------------------------------------------------------!
------------------------------------------------------------------!
------------------------------------------------------------------!  3X's
3---3---3-3-3---2-2-2-2--2-2-2-2---2---2---2-2-2--0-0-0-0-0-0-0-0-!

-----------------------------!--------------!
-----------------------------!--------------!
-----------------------------!--------------!
3---3---333---2-2-2-2-2-2-2-2!2---2---2-2-2-!

!--------------------------!
!--------------------------!
!-------7----------7-----7-!  7X's
!0-0-0-----0--0--0---0-0---!

-------------------------------------!
--------------------8H9P8H9----------!
----------7------------------7H8P7H8-!  2X's
0-0-0-----------0--------------------!

!-------------------!-----------------------!
!-------------------!-----------------------!
!-------------------!-----------------------!
!--6H7P6H7--2H3P2H3-!----0---------0--------!

1,3 VERSES
-----------------------------!----------------------------!
-----------------------------!----------------------------!
-----------------------------!----------------------------!  4X's
0-0-0-0-0-0-0--0-3--3--3-3-3-!2-2-2-2---2-2-2-2--2--2-2-2-!

-------------------------!--------------------------!
-------------------------!--------------------------!
-------------------------!--------------------------!
0-0-0-0-0-0-0-0-0-0-0-0-0!0-0-0-0-0-0-0-0-0-0-0-0-0-!

2,4,5 VERSES
----------------------------!-----------------------------!
----------------------------!-----------------------------!
----------------------------!-----------------------------!  3X's
0-0-0-0-0-0-0-0-3--3--3-3-3-!2-2-2-2--2-2-2-2-2--2--2-2-2-!

------------------------------!----------------!
------------------------------!----------------!
------------------------------!----------------!
0-0-0-0-0-0-0-0-3---3---3-3-3-!-2--------------!

PRE-CHORUS
---------------------------!
---------------------------!
---7---7---8---5---5-----6-!  5X's
-0---0---0---0---0---------!


-----------------------!-------------------!-------------------!
-----------------------!-------------------!-------------------!
7------------7---------!-------------------!-------------------!
0---0--0--0--0---------!-2/3----0-0-0-0----!-2/3----3-3-3-3----!

--------------!----------------------------!-----------------!
--------------!----------------------------!-----------------!
--------------!----------------------------!-----------------!
-6-6-6--3-3-3-!-5-5-5--3-3-3--2-2-2--3-3-3-!-2----3--2----3--!       
                  CHORUS
------------------!       !--------------------! 
------------------!       !--------------------!
------------------!2X's   !------4-------5-----!
-2-----3--2----3--!       !-2-------2-3-----3--!

------------------!       !--------------------!
------------------!       !--------------------!
------------------!2X's   !-----4---------5----!
-2-----3--2----3--!       !-2-------2-3-----3--!

------------------!       !--------------------!
------------------!       !--------------------!
------------------!2X's   !-----4--------7-----!    
2------3--2----3--!       !-2-------2-5-----0--!

--------------------!-------------------------!
--------------------!-------------------------!
-7------5--7--------!--------7-------7-----7--!  3X's
-----------0-----0--!--0-0-0---0-0-0---0-0----!

-----------------------------!-------------------!
------------8H9P8H9----------!-------------------!
-------7------------7H8P7H8--!-------------------!
-0-0-0---0-------------------!-6H7P6H7--2H3P2H3--! 

-----------------!--------------------!
-------------5---!--------------------!
-----7-----------!-------7-----2-2----!  2X's
-0-0---0-0-3---0-!-(0)-0---0-0-----3--!

------------------!------------------------!-------------------!
-------------5----!------------------------!-------------3-----!
-----7------------!--------7----2--5-----5-!-----7-------------!
-0-0---0-0-3---0--!-(0)-0-----0-------3----!-0-0---0-0-1----0--!

-----------------------!-----------------!-----------------------!
-----------------------!-----4---5-------!-----------------------!
-------7---2--5-----5--!-2-2---2---3-0-2-!-(2)-2-2-0-2-5---5---5-!
-(0)-0---0-------3-----!-----------------!---------------3---3---!
                             
-----------------------!-------------------!
-------4-----5---------!-------------------!
---2-2----2----3--0-2--!-(2)-2-2-0-2-5---5-!
-----------------------!---------------3---!
                   ............3X's........................
------------------!--------------------!-------------------!
------7---8-------!--------------------!-----7---8---------!
--5-5---5---6-3-5-!-(5)-5-5-0-0-3----3-!-5-5---5----6-3-5--!
------------------!----------------1---!-------------------!

-----------------!-------------------!
-----------------!-----7---8---------!
---------0-3---3-!-5-5---5----6-3----!  2X's
-5-5-5-5-----1---!----------------5--!

------------------------!
------------------------!
-----5-5-0-0-3---3---3--!
-(5)-----------1---1----!

----------------------------!
----------------------------!
----------------------------!  2X's
-7-7-7--5-5-5--4-4-4--5-5-5-!

-----------------------------!-------------------------!
-----------------------------!--7--7--5--5--4--4-------!
-5-5-5--3-3-3--2-2-2--3-3-3--!--5--5--3--3--2--2-------!
-----------------------------!--------------------3-3--!

---------------!       !---------7P6P4H6P4H6P4------! 
---------------!       !-------------------------7--!
---------------!7X's   !----------------------------!
-2----3-2---3--!       !-2-2-2-2--------------------!


CODA:!--------------------!      !-------------------!
     !--------------------!      !-------------------!
     !------4-------7-----!      !--7----5--7--------!
     !--2------2--5----0--!      !----------0-----0--!

--------------------------------------!-------------------!
--------------------------------------!-------------------!
---7-----7-----8-----5-----5-------6--!-7--------------7--!
-0----0-----0-----0-----0-------------!-0--------0-0-0-0--!

-----------------------------------!       !--------------!
-----------------------------------!       !--------------!
---7-----7-----8-----5-----5----6--!2X's   !-7---------7--!
0-----0-----0-----0-----0----------!       !-0---0-0-0-0--!

--------------------!---------------------------------!-----------!
--------------------!---------------------------------!-----------!
--7-----------------!---------------------------------!-7---------!
--0-----------------!-2/3------0-0-0-0-0-0-0-0-0-0-0--!-0---------!

4.ONE

|----------|------------|------|------------|-----------------||----4-------|
|----------|------------|------|------------|-----------------||------------|
|----------|------------|------|------------|---2---2---2---2-||-2----2-3-2-|
|----------|------------|------|------------|-----------------||------------|


|------------|----4---------|------------|
|------------|--------------|------------|
|------------|-2----2-2h3-2-|------------|
|-3----3-0-2-|--------------|-3----3-0-2-|


  
|----4---------|---------------|---------------|
|--------------|--------7-5----|---------------|
|-2----2-2h3-2-|-0----0-----7\-|---------------|
|--------------|---------------|-3----3-0-2-3--|


|------------|------------||-------7-------|
|------------|------------||---7-----------|
|----------4-|----5-----7-||-5---5---/7----|
|-0----0-2---|-3----3-5---||------------8\-|


|------------|------------|--------------|
|----5-------|----3---3---|-----2---2----|
|------------|------------|---2---2---2/-|
|-3----3-5-3-|-1----1---1-|-0------------|


   
|--------7-------|------------|------------|
|----7-----------|----4-------|----3---3---|
|-/5---5---/7----|------------|------------|
|-------------8\-|-3----3-5-3-|-1----1---1-|


                 1st, 2nd Verses
  
|-------------||-------4-----|-------------|
|-------------||o------------|-------------|
|--------2h3--||o-2------3-2-|-------------|
|-0----0------||-------------|-2----3-0-2--|



|---4--------|-------------|--------------|---------------|--------------|
|------------|-------------|--------------|--------7-5----|--------------|
|-2----2-3-2-|--------2h5--|-2----2-2h3-2-|-0----0-----7\-|--------------|
|------------|-3--3-0------|--------------|---------------|-3----3-0-2-3-|



|-------------|------4-----|------------|--------------|--------------|
|-------------|------------|------------|--------------|--------------|
|---2-----2---|-2------3-2-|------------|-2----2-2h3-2-|--------0-2h5-|
|-0-----2-----|------------|-2----3-0-2-|--------------|-3----3-------|



  
|--------------|---------------|--------------|--------||---------------------|
|--------------|--------7-5----|--------------|--------||---------------------|
|-2----2-2h3-2-|-0----0-----7\-|--------------|--------||--------2-------2----|
|--------------|---------------|-3----3-0-2-3-|-0--2-0-||-3----5---5-3-2------|



|-----------------------||--------------|
|-----------------5---6-||-----7--------|
|------2-4-2----3---4---||--5----5s7----|
|-5----------5----------||-----------8\-|


 
|------------|------------|-------------|
|----5-------|----3---3---|-----2---2---|
|------------|------------|---2---2---2-|
|-3----3-5-3-|-1----1---1-|-0-----------|


  
|-------7-------|-------------|------------|--------------||-------7--------|
|---7-----------|-----5-------|----3---3---|-------------o||---7------------|
|-5---5---/7----|-------------|------------|--------2h3--o||-5---5---/7-----|
|------------8\-|-\3----3-5-3-|-1----1---1-|-0----0-------||------------8\--|


  
|------------|------------|-------------|-------7-------|
|----5-------|----3---3---|-----2---2---|---7-----------|
|------------|------------|---2---2---2-|-5---5---/7----|
|-3----3-5-3-|-1----1---1-|-0-----------|------------8\-|


  
|------------|------------|---------------|
|----5-------|----3---3---|-----2---2-----|
|------------|------------|---2---2---2---|
|-3----3-5-3-|-1----1---1-|-0-------------|



|---------------------|---------------------|---------------------|
|---------------------|---------------------|---------------------|
|--------2---------3--|------2-4-2----2--4--|--------2---------2--|
|-3----3---5-3--3-----|-3----------5--------|-3----3---5-3--2-----|


  
|---------------------|-----------------------||
|---------------------|-----------------------||
|------2-4-2----2--4--|--------2---------2----||
|-5----------5--------|-3----5---5-3--2-------||



|------------|-------------|------------|------------|-------------|
|------------|-------------|------------|------------|-------------|
|----5-----5-|-------5-----|-2--2---2---|-3--3---3---|-----5---5---|
|-5----5-5---|-3-3-3---3-0-|------0---0-|------1---0-|-5-5---5---5-|


  
|-------------|------------|---------------|-------------|-------------|
|-------------|------------|---------------|-----7-------|-------------|
|-------------|-2--2---2-0-|-3-3-3-3---3---|---5---5-----|-------5-----|
|-3-3-3-5-3-0-|------0-----|---------1---0-|-5-------5-0-|-3-3-3---3-0-|


 
|------------|-------------|-------------|-------------|-------------|
|------------|-------------|-----7-------|-------------|-------------|
|-2--2---2---|-3-3-3---3---|---5---5-----|-------------|-2--2---2-0--|
|------0---0-|-------1---0-|-5-------5-0-|-3-3-3-5-3-0-|------0------|


 
|--------------|-------------|-------------|------------|--------------|
|--------------|-------7-----|-------7-----|------------|--------------|
|-3-3-3-3---3/-|-7-7-7---7-0-|-5-5-5---5\--|-2------2-0-|-3-3-3---3/---|
|---------1----|-------------|-------------|------0-----|-------1------|


      
|--------------|-------------|------------|---------------|----------|--------||
|--------7-----|-------7-----|------------|---------------|----------|--------||
|-/7-7-7---7-0-|-5-5-5---5\--|-2--2-0-2-0-|-3-3-3-3---3---|-7--------|-(7)----||
|--------------|-------------|------------|---------1---0-|-0--------|-(0)----||


 
|---------------------------------|
|---------------------------------|
|-------------7---------------7---|
|-0-0-0-0-0-0-0---0-0-0-0-0-0-0---|


  
|---------------------------------|--------------------------------||
|---------------------------------|--------------------------------||
|-------------7---------------7---|-------------7--------------7---||
|-0-0-0-0-0-0-0---0-0-0-0-0-0-0---|-0-0-0-0-0-0-0--0-0-0-0-0-0-0---||


    
||----------------------------------||-|
||o--------------------------------o||-|
||o-------------7------------------o||-|
||--0-0-0-0-0-0-0--0-0-0-0-0-0-0-1--||-|



||----------------------------------|-----------------------------------|
||o---------------------------------|-----------------------------------|
||o-------------7---------------7---|-------------7---------------7-----|
||--0-0-0-0-0-0-0---0-0-0-0-0-0-0---|-0-0-0-0-0-0-0---0-0-0-0-0-0-0-----|


  
|---------------------------------|
|---------------------------------|
|-------------7---------------7---|
|-0-0-0-0-0-0-0---0-0-0-0-0-0-0---|


                                  
|---------------------------------|--------------------------------|
|---------------------------------|--------------------------------|
|-------------7-------------------|-------------7--------------7s8-|
|-0-0-0-0-0-0-0---0-0-0-0-0-0-0-1-|-0-0-0-0-0-0----0-0-0-0-0-0-----|


    
|--------------------------------|--------------------------------|
|--------------------------------|--------------------------------|
|-------------5--------------5s8-|-------------7--------------7s8-|
|-0-0-0-0-0-0----0-0-0-0-0-0-----|-0-0-0-0-0-0----0-0-0-0-0-0-----|



|---------------------------------||
|--------------------------------o||
|-------------5--------------2---o||
|-0-0-0-0-0-0----0-0-0-0-0-0---1--||


    
||-----------------------|-------------------|
||o----------------------|-------------------|
||o-------------2--------|-------2--------3--|
||--0-0-0-0-0-0----0-0-0-|-0-0-0----0-0-0----|


  
|----------------------|--------------------|
|----------------------|--------------------|
|-------------2--------|-------2--------3---|
|-0-0-0-0-0-0----0-0-0-|-0-0-0----0-0-0-----|



|----------------------|-------------------|
|----------------------|-------------------|
|-------------2--------|-------2--------3--|
|-0-0-0-0-0-0----0-0-0-|-0-0-0----0-0-0----|



|----------------------|---------------------|
|----------------------|---------------------|
|-------------2--------|-------2--------3----|
|-0-0-0-0-0-0----0-0-0-|-0-0-0----0-0-0------|


 
|-----------------------|-----------------------|------------------------||
|-----------------------|-----------------------|-----------------------o||
|-7-7-7-7-7-7-7---7-7-7-|-7-7-7-7-7-7-7---7-7-7-|-7-7-7-7-7-7-7---7-7-7-o||
|-0-0-0-0-0-0-0---0-0-0-|-0-0-0-0-0-0-0---0-0-0-|-0-0-0-0-0-0-0---0-0-0--||


   Guitar Solo lardey dar dey dar
    4x
||-----------------------|--------------------||-|
||o----------------------|-------------------o||-|
||o-------------2--------|-------2--------3--o||-|
||--0-0-0-0-0-0----0-0-0-|-0-0-0----0-0-0-----||-|


    
||------------------------|-----------------------||
||o-----------------------|----------------------o||
||o-7-7-7-7-7-7-7---7-7-7-|-7-7-7-7-7-7-7---7-7-7o||
||--0-0-0-0-0-0-0---0-0-0-|-0-0-0-0-0-0-0---0-0-0-||


  
||--------------------|-------------------|
||o-------------------|-------------------|
||o-------------7--7--|-------------7--7--|
||--0-0-0-0-0-0-0--0--|-0-0-0-0-0-0-0--0--|


  
|-------------------|--------------------||
|-------------------|-------------------o||
|-------------------|-------------------o||
|-0-0-0-0-0-0-0--1--|-3-3-3-3-3-3-3--3---||


    
||--------------------|-------------------|
||o-------------------|-------------------|
||o-------------5--5--|-------------5--5--|
||--3-3-3-3-3-3-------|-3-3-3-3-3-3-------|



|-------------------|--------------------||
|-------------------|-------------------o||
|-------------5--5--|-------------------o||
|-3-3-3-3-3-3-------|-1-1-1-1-1-1-1--1---||


     
||----------------|---------------|-------------------|-------------------||
||o---------------|---------------|-------------------|------------------o||
||o---------------|---------------|-------------------|------------------o||
||--0-0-3--0-0-3--|-0-0-3--0-0-3--|-1-1-1-1-1-1-1--1--|-1-1-1-1-1-1-1--1--||



|-----------------------|-------------------------|
|-----------------------|-------------------------|
|-----------------5-5-5-|-5-5-5-4-4-4-3-3-3-2-2-2-|
|-3-3-3-3-3-3-3---------|-------------------------|


    4x
||-----------------------|--------------------||
||o----------------------|-------------------o||
||o-------------2--------|-------2--------3--o||
||--0-0-0-0-0-0----0-0-0-|-0-0-0----0-0-0-----||



|-----------------------|-------------------------|
|-----------------------|-------------------------|
|-7-7-7-7-7-7-7---5-5-5-|-5-5-5-4-4-4-3-3-3-2-2-2-|
|-----------------------|-------------------------|


   4x
||-----------------------|--------------------||
||o----------------------|-------------------o||
||o-------------2--------|-------2--------3--o||
||--0-0-0-0-0-0----0-0-0-|-0-0-0----0-0-0-----||


  
|---------------|---------------|---------------|
|---------------|---------------|---------------|
|---------------|---------------|---------------|
|-0-0-3--0-0-3--|-0-0-3--0-0-3--|-0-0-3--0-0-3--|



||--------------------|-----------------||
||o-------------------|----------------o||
||o-------------7--7--|----------------o||
||--0-0-0-0-0-0-0--0--|-1-1-1--1-1-1----||



|---------------|---------------|----------------------|
|---------------|---------------|----------------------|
|---------------|---------------|-------------2--------|
|-3-3-3--3-3-3--|-3-3-3--3-3-3--|-0-0-0-0-0-0----0-0-0-|


 

|-------------------|--------------------------|--------------------*|
|-------------------|--------------------------|--------------------*|
|-------2--------3--|-7-7-7-7-7-7-7---19-19-19-|-19-19-19-19--------*|
|-0-0-0----0-0-0----|-0-0-0-0-0-0-0----0--0--0-|--0--0--0--0--------*|

5.THE SHORTEST STRAW

Intro:

G|------------------------------|
D|------------------------------|
A|------------------------------|
E|-0-0-0----0-0-0--0-0-0-3--0-0-|

G|------------------------------|
D|------------------------------|
A|------------------------------|
E|-0-0-0----0-0-0--0-0-0-5--0-0-|

G|------------------------------|
D|------------------------------|
A|------------------------------|
E|-0-0-0----0-0-0--0-0-0-3--0-0-|

G|------------------------------|
D|------------------------------|
A|------------------------------|
E|-0-0-0----0-0-0--0-0-0-0--0-0-|


Chorus:

G|-----------------------------------------------|
D|-----------------------------------------------|
A|-----------------------------------------------|
E|-0-1-0--0-0-000--0-1-0--0-3-0-5--0-1-0-0-0-000-|

G|----------------|
D|----------------|
A|----------------|
E|-0-1-0--0-5-0-3-|

A bar is repeatedly done after a number of the above 
Chorus lick. The bar is below (very simple).

G|----------|
D|----------|
A|----------|
E|-3-3--2-2-|



Verse:

G|----------------------------------------|
D|----------------------------------------|
A|----------------------------------------|
E|-0-0-00--00-0-1-0-1--0-0-00--00-0-3-0-3-|

G|--------------------------------------|
D|--------------------------------------|
A|--------------------------------------|
E|-0-0-00-00-0-1-0-1--0-0-00-00-0-3-2-1-|


After 2 or more times of the above, the same lick goes 
higher, demonstrated directly below.

G|--------------------------------------|
D|--------------------------------------|
A|--------------------------------------|
E|-2-2-22-22-2-3-2-3--2-2-22-22-2-5-2-5-|

G|--------------------------------------|
D|--------------------------------------|
A|--------------------------------------|
E|-2-2-22-22-2-3-2-3--2-2-22-22-2-5-4-3-|



Main lick (used in several parts of song, and after a 
few of the Chorus's...it is also used as a Pre-Chorus. When used as a 
Pre-Chorus, just do the first bar twice):

G|------------------------------------|
D|------8-7-8\------------------------|
A|---/7-------------------------------|
E|-0-------------0-0-0-00--00-0-1-0-1-|

G|----------------------------------|
D|------8-7-8\----------------------|
A|---/7-----------------------------|
E|-0-------------0-0-00--00-0-3-0-3-|

G|----------------------------------|
D|-------8-7-8\---------------------|
A|---/7-----------------------------|
E|-0-------------0-0-00--00-0-5-0-5-|

G|----------------------------------|
D|--------8-7-5\--------------------|
A|---7-8----------------------------|
E|-0--------------3-3-33-33-3-2-2-1-|



Another Bridge or Pre-Chorus is shown below.

G|---------------|-------------------|
D|---------------|-------------------|
A|-2-2-2-2-------|-7----7-7-8--------|
E|---------------|---0---------7h8-8-|

G|-----------------|----------------|-----------------|
D|-----------------|----------------|-----------------|
A|-7h8p7p6-7h8p7p6-|----7-7-8-------|-7h8p7p6-7h8p7p6-|
E|-----------------|-5--------7h8-8-|-----------------|


Pre-Solo

G|---------|----------|---------|----------|
D|---------|----------|---------|----------|
A|---------|----------|---------|----------|
E|-0-------|-1--------|-2-------|-3--------|

G|----------|---------|----------|---------|-------|
D|----------|---------|----------|---------|-------|
A|----------|---------|----------|---------|-------|
E|-0--------|-1-------|-2--------|-3-------|-3-2-1-|

Chorus, then:

G|--------------|-------------|---------------|-------|
D|--------------|-------------|---------------|-------|
A|--------------|-------------|---------------|-------|
E|-0---0-1-0-1--|-0---0-3-0-3-|-0---0-1-0-1-0-|-3-2-1-|

G|-------------|-------------|---------------|-------|
D|-------------|-------------|---------------|-------|
A|-------------|-------------|---------------|-------|
E|-0---0-1-0-1-|-0---0-3-0-3-|-0---0-1-0-1-0-|-3-2-1-|

G|---------|---------|----------|
D|---------|---------|----------|
A|---------|---------|----------|
E|-2-3-4-5-|-2-3-4-5-|-5-4-3--1-|

Chorus, then back to the song (Verse and Chorus)



The ending is below:

G|---------|---------|-------|-----------------------|
D|---------|---------|-------|-----------------------|
A|---------|---------|-------|-----------------------|
E|-2-3-4-5-|-2-3-4-5-|-3-2-1-|-0-0-00-00-0-0-1-0-1-0-|

6.HARVESTER OF SORROW

INTRO
---------------------!
---------------------!
---------2-1-0-------!2X's
---3-2-0-------3-2-0-!
..............3X;s................
-----------------!----------------!-----------------!
-----------------!----------------!-----------------!
----7\-----------!--7\-----5------!----7\-----------!
-0-----0-5-7-1-1-!0----0-3---1-1--!0------0-5-7-1-1-!
                          ......INTRO #2................
-------------------------!------------------------------!
-------------------------!------------------------------!
-----7\--------2-1-0-----!--------------------2-1-0-----!
-0-------3-2-0-------3-2-!0--0-0-0--0-0-3-2-0-------3-2-!

-------------------------------!------------------------------!
-------------------------------!------------------------------!
---------------------2-1-0-----!--------------------2-1-0-----!
-1--1-1-1--1-1-3-2-0-------3-2-!0--0-0-0--0-0-3-2-0-------3-2-!

-------------------------------!----------------------!
-------------------------------!----------------------!
-------------------------------!----------------------!
-1--1-1-1--1-1-3-2-0-5-5-5-3-2-!-0-----(0)--------0-1-!

-----------------------------------!
-----------------------------------!
-----1/-----7-----7-----7--7-------!3X's
--2------0-----0-----0--------0--1-!

-----------------------!--------------------------!--------------------!
-----------------------!--------------------------!--------------------!
---5-------------------!---1/-----7-----7--7------!---5----------------!
-2---0--3----3--3--0-1-!2------0-----0--------0-1-!2----0--3---3--3-0-1!

------------------------!         !--------------------------!
------------------------!         !--------------------------!
------------------------!3X's     !--------------------------!
-2--0---0----0---0--0-1-!         !-2--3----3----3---3---0-1-!
                              .............2X's.................        
-----------------------------!----------------------------------!
-----------------------------!----------------------------------!
-----------------------------!----------------------------------!
-2---0-----0-1-2---0-----0-1-!-2---0-----0-----0----0---0---0-1-!  
                                        PRE-CHORUS
--------------------------------!-----!--------------------------!
--------------------------------!-----!--------------------------!
--------------------------------!-----!--------------------------!
-2---3-----3-----3----3---0-1-0-!-0-1-!-2--0----0-1-2--0-----0-1-!

---------------------------------!
---------------------------------!    THEN PLAY INTRO #2 WHICH IS
---------------------------------!     THE CHORUS
-2--0----0----0-0-0-1-0------(0)-!
                 ......3X's...........
----------------!---------------------!--------------------!
----------------!---------------------!--------------------!
----------------!----1/---7---7-7-----!---5----------------!
-(0)-----1--0-1-!-2-----0---0-----0-1-!-2---0-3----3-3-0-1-!

-------------------------------------!
-------------------------------------!
-------------------------------------!
0---------0--------0----(0)---1--0-1-!

   GUITAR SOLO
------------------------!----------------------!-----------------------!
------------------------!----------------------!-----------------------!
------------------------!----------------------!-----------------------!
-2--0----0-1-0-0----0-1-!-2-0----0----0--0-0-1-!-2--0----0-1-2--0---0-1!

------------------------!-----------------------!----------------------!
------------------------!-----------------------!----------------------!
------------------------!-----------------------!----------------------!
-2--3----3----3--3--0-1-!-2--0----0-1-2-0---0-1-!-2--0---0---0-0-0-1-0-!

-----------------------------!-------------------------------!
-----------------------------!-------------------------------!
-----------------------------!---------------------2-1-0-----!
-0--0-0-0--0-0-0--0-0-0--0-0-!-0--0-0-0--0-0-3-2-0-------3-2-!

-------------------------------!-----------------------------!
-------------------------------!-----------------------------!
---------------------2-1-0-----!-----------------------------!
-1--1-1-1--1-1-3-2-0-------3-2-!-0--0-0-0--0-0-0--0-0-0--0-0-!

------------------------------!----------------------------!
------------------------------!----------------------------!
------------------------------!----------------------------!
-0--0-0-0--0-0--1--1-1-1--1-1-!-0----(0)--------1-1--1-1-1-!

------------------------!------------------------!
------------------------!------------------------!
------------------------!------------------------!
------------1-1---1-1-1-!-----0--0----0----0-0-1-!

------------------------!       !------------------------------!
------------------------!       !------------------------------!
------------------------!2X's   !------------------------------!
-2-0---0----0--0--0--1--!       !-2--3-----3-----3--3--0--1--0-!

7.THE FRAYED ENDS OF SANITY

Intro:

G|----------------------|
D|----------------------|
A|------3----------2----|
E|-0---------0----------|


  "Oh-ee-oh"
G|--------------|
D|--------------|
A|---1------1---|
E|-0---0-xx---0-|

  Whoosh
G|----------|
D|----------|
A|---1-11-1-|
E|----------|



Verse (this style of Verse is complex. It alternates
the 2nd and 1st riff. When singing, 2nd, and 1st when 
not. After a few of each, alternate between 3rd and 1st 
riff twice. Then go back and do the 1st riff twice):

G|-----------------------------|
D|-----------------------------|
A|---------1-------1-----------|
E|-0-0-0-0----0--0---0-0-0-0-1-|


G|-------------------------------------------------|
D|-------------------------------------------------|
A|-------------------------------------------------|
E|-7-0-0-7-0-0-6-0-0-6-0-0-5-0-0-5-0-0-4-0-0-3-0-0-|

G|-----------------|
D|-----------------|
A|-----------------|
E|-7-7-6-6-5-5-4-4-|



Pre-Chorus:

G|-----------------------------------------|
D|-----------------------------------------|
A|-----------------------------------------|
E|-0-0-3-3-5-0-0-3-3-5-0-0-3-3-0-0-3-4-5-6-|

G|-----------------------------------------|
D|-----------------------------------------|
A|-----------------------------------------|
E|-0-0-3-3-5-0-0-3-3-0-0-0-3-3-0-0-3-4-5-6-|



Chorus:

G|----------|-----------|----------|---------|
D|----------|-----------|----------|---------|
A|----------|-----------|------2---|---------|
E|-0---2----|-3-4-5-6---|-0--------|-3-4-5-6-|

G|----------|-----------|----------|
A|----------|-----------|----------|
D|----------|-----------|-7-----5--|
E|-0--3--2--|-3-4-5-6---|----------|

G|--------------------------|
D|--------------------------|
A|----------3-4-5-6---------|
E|-3-4-5-6----------3-4-5-6-|



Bridge (do this, then go one note higher, ect.):

G|--------------------------------|
D|-2-4-2-5------------------------|
A|---------4-2-2h4p2p-----------2-|
E|--------------------5-3-2-3-5---|



  Pre-Solo
G|-----------------------------|
D|-----------------------------|
A|-7p5h7-7p5h7-7p5h7-7p5h7-----|
E|-------------------------7-6-|

G|------------------------------|
D|------------------------------|
A|-7p5h7-7p5h7-7p5h7-7p5h7------|
E|--------------------------6-8-|



  Post-Solo
G|---------------------------|
D|---------------------------|
A|-7-----5-7---7---5h7-------|
E|---0-0-----0---0-----0-0-0-|

8.TO LIVE IS TO DIE

 Riff 1

G:--------------------------------------------------------------------------|
D:--------------------------------------------------------------------------|
A:--------------------------------------------------------------------------|
E:--2---2--X--X--0--2--3---3--X--X--3p2--2---2--X--X--0--2--5--5---5p3--3p2-|



__________

  Riff 2 (start)

G:------------------------------------------------------------|
D:------------------------------------------------------------|
A:------------------------------------------------------------|
E:--2-2-2--3--3-3-2--2-2--5-5-5--2-2-2--3--3-3-2--2-2--5-5-5--|



                                                        Riff 2 (end)

G:-------------------------------------------------------------------|
D:-------------------------------------------------------------------|
A:-------------------------------------------------------------------|
E:--2---3---2---5---2---3---2---5---2-3-2-5-2-3-2-5-2-3-2-5-2h3-2h5--|



__________

  Riff 3

G:----------------------------------------------------------------|
D:----------------------------------------------------------------|
A:-------------3--2--------------------------4--3--2--------------|
E:-2--2--5--2--------5--2------5------2--X-X----------------------|





The song begins with 13 bars of acoustic guitar.  The guitar & drums fade

into a snare drum hitting at TIME=100.  Bass plays muted E-string in time

with snare hits.



Riff 1   3x

Riff 2   1x

Riff 1   2x

Riff 2   1x

Riff 1   2x

Riff 3   2x

Riff 1   2x

Riff 2   1x

Riff 1   4x

Riff 2   1x

Riff 1   2x



Then, following that is:



G:-------------------------------------------------------------|
D:-------------------------------------------------------------|
A:-------------------------------------------------------------|
E:--2--2----r----3--3----r----0--0----r----5----------3--------|





G:---------------------------------------------------------------------------|
D:---------------------------------------------------------------------------|
A:---------------------------------------2-----------------------------------|
E:--5----5--5--0--3----3--3--5--0-----0-----0--1-------3-----5---5--5--7--3--|

                                                                

                                                   (guitar)

                                         (2x)         16

G:---------------------------------------------|---------------|
D:---------------------------------------------|--|=========|--|
A:----5--------------------2-------------------|---------------|
E:-------3--5--0-----0--0-----3-----(3)--------|---------------|





G:--------------------------------------------------------------|
D:--------------------------------------------------------------|
A:--/12---12-12h14p12--10----10-12-10--7----7--7--10--8----10---|
E:--------------------------------------------------------------|





G:---------------------------------------------------------------------|
D:---------------------------------------------------------------------|
A:--12----12--12h14p12--10-----10-10h12p10--7----7--10--7---10----10/--|
E:---------------------------------------------------------------------|





G:--------------------------------------------------------------------|
D:-------------9h10--9------------------------------------------------|
A:--/12-----12----------10----10--12--10--7----7--7--10--8-------10---|
E:--------------------------------------------------------------------|





G:--------------------------------------------------------------------|
D:--------------------------------------------------------------------|
A:--12---12h14p12--10----10--12--10--7-----7--10--7--10-----10--7--\--|
E:--------------------------------------------------------------------|





G:---------------------------------------------------------------|
D:---------------------------------------------------------------|
A:---------------------------------------------------------------|
E:--5-----5--7--5--3-----3--5--3--0----0--0--3--1-------3--------|





G:--------------------------------------------------------------|
D:--------------------------------------------------------------|
A:--------------------------------------------------2-----------|
E:--5----5--5h7p5--3-----3-----3--3h5p3--0----0--0-----3----3---|





G:------------------------------------------------------|
D:------------------------------------------------------|
A:------------------------------------------------------|
E:--5----5--5h7p5--3----3--3h5p3--0----0-0-0-1----3-----|





G:------------------------------------------------------------|
D:------------------------------------------------------------|
A:------------------------------------------------------------|
E:--5----5--7--5--3-----3--5--3--0-----0--3--0--3----3---3-\--|





G:---------------------------------------------------------------------------|
D:*--------------------------------------------------------------------------|
A:*----------------------------------------2---------------------------------|
E:----5----5--5--0--3-----3--3--5--0----0-----0--1----3----5-----5--5--7--3--|





G:------------------------------------------|  
D:-----------------------------------------*|  
A:----5--------------------2---------------*|  
E:-------3--5--0-----0--0-----3-------------|  





G:------------------------------------------------------------------|
D:*----------------------------------------------------------------*|
A:*----------------------------------------------------------------*|
E:---5---5-5-0-3-5---5-5-0-3-5---5-5-0-2-3---3-3-3-0-3---3-3-3-0----|





G:---------------------------------------------------------------------------|
D:---------------------------------------------------------------------------|
A:--2---2-2-2--2-2--------2---2-2-2--2-2--------2---2-2-2--2-2---------------|
E:------------------2--5------------------2--5------------------2--4--5---5-5|


G:---------------------------------------------------------------------------|
D:---------------------------------------------------------------------------|
A:----------------------------------2--2--------------2--2------------2------|
E:-5--5-5-5--2--5--5-5-5--5-5-5--2-------------------------------------------|

                                                 (drums)

G:----------------------------------------------------------|
D:----------------------------------------------------------|
A:-----------2----------------2------------(2)--------------|
E:----------------------------------------------------------|



Now Cliff starts the spoken part: 



Riff 1 x6

(spoken):  When a man lies, he murders some part of the

           world.  These are the pale deaths which men miscall their

           lives.  All this i cannot bear to witness any longer.

           Cannot the kingdome of salvation take me home?



Riff 3 x2



G:------------------------------------------------------------------------|
D:------------------------------------------------------------------------|
A:------------------------------------------------------------------------|
E:--2---2---2----0--2--3---3---3---3p2--2---2---2---0--2--5--5---5p3--3p2-|


G:--------------------------------------|
D:--------------------------------------|
A:--------------------------------------|
E:----2--2---------3--3------0------0---|



Riff 1 x2



  This is the outro part.  Repeat and fade a bunch of times.  Segues into

  "Dyers Eve"
G:---------------------|
D:---------------------|
A:---------------------|
E:---2---2-----2---2---|

9.DYERS EVE

Intro:

G|-------------------------------------------------|
D|-------------------------------------------------|
A|-2-3-2-3-2-3-2-3---------------------------------|
E|-----------------0---1---0---3-0---1---0---0-1-0-|

G|------------------------|
D|------------------------|
A|--------------2-3-2-3---|
E|-1---0---3-0----------0-|


Riff 1:
              1,2,3,                   4,
G|------------------|--------------------|
D|------------------|----------------3-2-|
A|-2h33333333-2-0h2-|-2h33333333-3-2-----|
E|------------------|--------------------|



Verse (Dear Mother, Dear Father):

G|--------------------------------------------------|
D|--------------------------------------------------|
A|---------0-----3\2-------------0---------5------3-|
E|-2---3-------0------2---3---0----3-2-0------3-----|


At the end of Verses, there are often little Bridge
bars. Examples follow.

G|-----------|
D|-----------|
A|-----------|
E|-xxx-x-xxx-|

G|-----------|
D|-----------|
A|-----------|
E|-000-0-000-|

G|--------|
D|--------|
A|---5-7--|
E|--------|

ENJOY!!!
comments
We did not receive enough feedback on this tab! Please rate:
print report bad tab
1 2 3 4 5
1 comment total.
+1 reply
mfurseman wrote on May 25 2007, 01:15 pm

there's bass for ...and justice for all?

I want to post or [tab]
guest
You may want to rate the tab now too:
select rating
Please do not post tabs as comments. Select "correction" instead!