Oops, an error
Loading. Please wait.

And Justice For All Tab

ver2
ver2

Album

Solo

Whole song

More versions @911Tabs.com
31,836 views 37 this week
2 commentsread comments
1 2 3 4 5
worth learning
x 6
Autoscroll
+/-
esc
set tempo
stop
WARNING: You are trying to view
                                    content from Ultimate-Guitar.com
                                    in an unauthorized application,
                                    which is prohibited.

                                    Please use an official Ultimate
                                    Guitar Tabs application for iPhone,
                                    iPad or Android to access legitimate
                                    chords, guitar, bass, and drum tabs
                                    from Ultimate-Guitar.com database.

                                    Type "ultimate guitar tabs" in Apple
                                    App Store's or Android Market's
                                    search to find the application.
            .-/                                    ~=-._
         .-~ /   ____  ______ __  _    _     _   ____|  ~-._
        ~~/  -~||  __||_  __//  || |  | |   | | / __/| .\~~
         / . . ||  __| | |  / ' || |__| |__ | || (__ |   \
        / / ~| ||____| |_| /_/|_||____|____||_| \___\| |\ \
       / /   |-~                                     ~-| \ \


------------------------------------------------------------------------------|
------------------------------------------------------------------------------|

Contents....
1. Blackened (version 1)        : Matt Holliman (slayer@imsa.edu)
   Blackened (version 2)        : Timi Hendrix (tahuq@bucknell.edu)
2. ..And Justice For All        : Brett Phillip Renike (bprenike@socs.uts.EDU.AU)
3. Eye Of The Beholder          : Greg and or Paul Halvorson (gregh@tcs.itis.com)
4. One                          : C. Enders (C.W.G.M.Enders@kub.nl) [and]
                                  Jackson C. Yang 
5. The Shortest Straw           : Greg and or Paul Halvorson (gregh@tcs.itis.com)
6. Harvester Of Sorrow          : Blake Butterworth (butterwo@cs.tulane.edu) [and]
                                  Andrew Bowie (bowie@yoyo.cc.monash.edu.au)
7. The Frayed Ends Of Sanity    : RoY (nancy.henry@gbd.com)
8. To Live Is To Die            : Michael Alford
9. Dyers Eve                    : RoY (nancy.henry@gbd.com)

------------------------------------------------------------------------------|
---------------------------      MetallicA      ------------------------------|
Blackened (version 1)
---------------------
(Thanks to Vassilis Tzerpos, bpatr@theseas.ntua.gr, for typing up the
solo!  I think this is most of the song, more or less.)

Intro (two gtrs.):                      (Gtr. II shown on right)
E|-14-15h17p15-17b(18)r(17)-17b(18)r(17)-17\15-15-17\15-15-9\7-7------------|
B|-16-17h19p17-19b(20)r(19)-19b(20)r(19)-19\17-17-19\17-17-------12\10|7----|
G|--------------------------------------------------------------------------|
D|--------------------------------------------------------11\9-9------------|
A|--------------------------------------------------------------------------|
E|--------------------------------------------------------------------------|

E|-------------------------------------------------------------------|
B|-8-10|7-12-10|7\8|5-8|5-10|7\8|5-8|5-/12-12-12-12\10|7-8-10|7-12|8-|
G|-9-------9---------------------------------------------9-----------|
D|---------------------------------------9-10--9---------------------|
A|-------------------------------------------------------------------|
E|-------------------------------------------------------------------|

E|----------------------------------------------------------------------|
B|-10|7\8|5-8|5-10|7\8|5-8|5-\0-4-5h7p5-7-(7)b(8)r(7)-10|7\5-5-10|7\5-5-|
G|----------------------------------------------------------------------|
D|----------------------------------------------------------------------|
A|----------------------------------------------------------------------|
E|----------------------------------------------------------------------|

Tempo=182           Rhy. Fig. 1                        play three times
E|-----------------|---------------------------------------------------|
B|-----------------|*-------------------------------------------------*|
G|-----------------|*-------------------------------------------------*|
D|-2-------------2-|-------------------3-------------------------------|
A|---------3-4-5---|-2--2--2-3-2--2--2---2--2--2--2-3-2--2-------3-4-5-|
E|---2-3-4---------|---------------------------------------2-3-4-------|

E|--------------------------------------|
B|--------------------------------------|
G|-------------------3------------------|
D|-2--2--2-3-2--2--2---2-5--5-5-5---4-4-|
A|-----------------------5--5-5-5---4-4-|
E|-----------------------3--3-3-3-0-2-2-|

                                    play four times
E|---------------------------------------------------|
B|*-------------------------------------------------*|
G|*------------------3------------------------------*|
D|-2--2--2-3-2--2--2---2--2--2--2-3-2--2-------3-4-5-|
A|---------------------------------------2-3-4-------|
E|---------------------------------------------------|

 Rhy. Fig. 2 (play 4 times)
|-------------------------------|
|*-----------------------------*|
|*-----------------------------*|
|-------------------------------|
|-------------------------------|
|-0-0-0-0-0-0-6-0-0-7-6-3-------|


"Opposition, contradiction" etc.     Tempo=128
Rhy. Fig. 3
E|------------------------------------------------------|
B|*-----------------------------------------------------|
G|*---------------------------------------------------8-|
D|-------2-------------3-2----------------2-----------8-|
A|---0-1-----------0-1----------------0-1-------------6-|
E|-0-------0-0-0-0---------0-0-0-0--0-------0-0-0-0-6---|

E|------------------------------------------------------| (End Fig. 3)
B|-----------------------------------------------------*|
G|--------------------3------------------------------8-*|
D|-------2---------2----2----------------2-----------8--|
A|---0-1-------------1---------------0-1-------------6--|
E|-0-------0-0-0-0--------0-0-0-0--0-------0-0-0-0-6----|


Solo:
t = tap	^ = bend	\/= use tremolo bar	<>= harmonics

|---------------------------------------------|
|*--------------------------------------------|
|*--------------------------------------------|
|------7-9-------7-9-------7-9--10/7--9h10p9--|
|-10/7-9-10-10/7-9-10-10/7-9-10------10h12p10-|
|---------------------------------------------|

|-------------------------------------------------|
|------------------------------------------------*|
|----------------7-9-------7-9--11--9h11p9-------*|
|------7-9-------9-10-10/7-9-10-12-10h12p10-9--7--|
|-10/7-9-10-10/7----------------------------10-9--|
|-------------------------------------------------|

|-------------------------------------------|
|-------------------------------------------|
|------7-9-------7-9-------7-9--11--9h11p9--|
|-10/7-9-10-10/7-9-10-10/7-9-10-12-10h12p10-|
|-------------------------------------------|
|-------------------------------------------|

|------------------------------------------|
|----------------7-8----7-8-10-8h10p8-7----|
|------7-9-------7-9-9--7-9-11-9h11p9-7-9--|
|-10/7-9-10-10/7-----10-----------------10-|
|------------------------------------------|
|------------------------------------------|

|-----------------------------------------------7--------7-8--7h8p7----------|
|----7-8----7-8----7-8-10-8h10p8----7-8----10/7-8-8-10/7-8-10-8h10p8-8-10/7--|
|-9--7-9-9--7-9-9--7-9-11-9h11p9-9--7-9-9---------9------------------9-------|
|-10-----10-----10---------------10-----10-----------------------------------|
|----------------------------------------------------------------------------|
|----------------------------------------------------------------------------|

|-------------------------------7-8-8-7----7---------------------------------|
|-8---7-8---7-8---7-8---7-8---7---------10---10-8-10-8-7-8-7---7-------------|
|-9/9-----9-----9-----9-----9--------------------------------9---9-7-9-7-6-7-|
|----------------------------------------------------------------------------|
|----------------------------------------------------------------------------|
|----------------------------------------------------------------------------|

|---------------------------------------7-9-7h9p7----7-9-10-12-12|10-9-7----7-|
|--------------------7-8-7h8p7---7-8-11-----------11---------------------11---|
|6-----6h7p6---6-7-9-----------9----------------------------------------------|
|--7-9-------9----------------------------------------------------------------|
|-----------------------------------------------------------------------------|
|-----------------------------------------------------------------------------|

|-9-10-12-9-t19p12-t19p10-t19p10p9-t18p10-t18p8-t18p8p7----------------------|
|-------------------------------------------------------t17p8-t17p7-t17p7p5--|
|----------------------------------------------------------------------------|
|----------------------------------------------------------------------------|
|----------------------------------------------------------------------------|
|----------------------------------------------------------------------------|

|---------------------------------------------------|
|-t17p8-t17p7-t17p7p5-t17p8p7-t17p8p7-t17p8p7p5s3s5-|
|---------------------------------------------------|
|---------------------------------------------------|
|---------------------------------------------------|
|---------------------------------------------------|

|-12^-12^-12^-rp10-12-10h12p10-9-10-9|10-9-7-6-19^-19^-r-18-15-14-15-15p14---|
|-10^-10^-10^-rp8--10--8h10p8--7-8--7|8--7-----17^-17^-r-16-13-12-13-13p12---|
|------------------------------------------9-8-------------------------------|
|----------------------------------------------------------------------------|
|----------------------------------------------------------------------------|
|----------------------------------------------------------------------------|

|----15p14----s12-14-18-14-12-18-14-12-18-14-12-18-14-12-18-14-12-18-14-12-----|
|-17-13p12-15------------------------------------------------------------------|
|-14-------12------------------------------------------------------------------|
|------------------------------------------------------------------------------|
|------------------------------------------------------------------------------|
|------------------------------------------------------------------------------|

|-18-14-12-18-14-12-18-14-12-18-14-12--19----------------------------------|
|--------------------------------------------------------------------------|
|--------------------------------------------------------------------------|
|------------------------------------------5--5-5-5---4-4--5--5-5-5---4-4--|
|------------------------------------------5--5-5-5---4-4--5--5-5-5---4-4--|
|------------------------------------------3--3-3-3-0-2-2--3--3-3-3-0-2-2--|

|------------s18-19-24-22-20-19-23-21-19-17-20-19-17-15-19-17-15-14-14-17--|
|-------13^----------------------------------------------------------------|
|-------13^----------------------------------------------------------------|
|-3-3----------------------------------------------------------------------|
|-3-3----------------------------------------------------------------------|
|-1-1----------------------------------------------------------------------|

|-17p15-14-12-11-12-15-14-12-10-9-10-9-10-14-12-10-9-8-9-12-10-8-7---------|
|------------------------------------------------------------------10^-10^-|
|--------------------------------------------------------------------------|
|--------------------------------------------------------------------------|
|--------------------------------------------------------------------------|
|--------------------------------------------------------------------------|

|--------------------------------------------------------------------------|
|-12p10-8-7---7-8-7---7-----------7---------0---0---------0-\/--12---------|
|-----------9-------9---9-7-9---7---9-7---9---7---2-------------12---------|
|---------------------------------------9-----------4-2-0-------12---------|
|--------------------------------------------------------------------------|
|--------------------------------------------------------------------------|

|--------------------------------------------7h8p7----7-8-8h10h12-12-10-8-7--|
|-----------------------------7-8-7---7-8-10-------10------------------------|
|-7h9-7----5h7-5-4-5-4-----s9-------9----------------------------------------|
|-------10-------------4-----------------------------------------------------|
|----------------------------------------------------------------------------|
|----------------------------------------------------------------------------|

|-----------7--------------------------------------------------------|
|-------------10p8-7-<5>-\/------------------------------------------|
|-9-7--7-5-----------<5>-\/--12p0-12p0-12p0-12p0-12p0-12p0-11p0-11p0-|
|-9-7--7-5-----------------------------------------------------------|
|--------------------------------------------------------------------|
|--------------------------------------------------------------------|

|-------------------------------------------------------------------------|
|-------------------------------------------------------------------------|
|-9p0-9p0-9p0-9p0-9p0-9p0-9p0-9p0-16p0-16p0-16p0-16p0-16p0-16p0-14p0-14p0-|
|-------------------------------------------------------------------------|
|-------------------------------------------------------------------------|
|-------------------------------------------------------------------------|

|----------------------------------------------------------------------------|
|----------------------------------------------------------------------------|
|-12p0-12p0-12p0-12p0-12p0-12p0-12p0-12p0-2p0-2p0-2h4p0-4p0-5p0-5p0-4p0-4p0--|
|----------------------------------------------------------------------------|
|----------------------------------------------------------------------------|
|----------------------------------------------------------------------------|

|--------------------------------------------------|
|--------------------------------------------------|
|-5p0-5p0-7p0-7p0-9p0-9p0-9p0-9p0-(5)-\/--\/--\/---|
|---------------------------------(5)-\/--\/--\/---|
|--------------------------------------------------|
|--------------------------------------------------|

Matt Holliman, slayer@imsa.edu

---------------------------      MetallicA      ------------------------------
Blackened (version 2)
---------------------
tahuq@bucknell.edu (Timi Hendrix)

Okay, For Blackened. This is a little rough sketch... I assume you are familiar
with it... here goes.

x - percussive mute

After intro. (see previous post).

fast

riff 1 (7/4) time
  note: the last phrase (3-4-5), 3 & 4 are 16th notes. All other notes are 8th's
||-------------------------------|---------------------------------------------||
||-------------------------------|---------------------------------------------||
||---------------------------3---|---------------------------------------------||
||---x-2-x-2-x-2-3-2-x-2-x-2---2-|-x-2-x-2-x-2-3-2-2---------------------------||
||-------------------------------|-------------------------3-4-5---------------||
||-------------------------------|-------------------2-3-4---------------------||

I. repeat riff 1 (3 times) then

||-------------------------------|---------------------------------------------||
||-------------------------------|---------------------------------------------||
||---------------------------3---|---------------------------------------------||
||---x-2-x-2-x-2-3-2-x-2-x-2---2-|---------------------------------------------||
||-------------------------------|---5--5-5-5---4-4------5--5-5-5---4-4--------||
||-------------------------------|---3--3-3-3-0-2-2------3--3-3-3-0-2-2--------||

II. repeat riff 1 (4 times) then III.

riff 2 (6/4) time, used during the verses.
  note: all eighth notes

||-----------------------------||
||-----------------------------||
||-----------------------------||
||-----------------------------||
||-----------------------------||
||---0-0-0-0-0-0-6-0-0-7-6-3---||

III. repeat riff 2 (4 times)  then IV.

riff 3 (6/4) time, used during verses
  note: all eighth notes

||-----------------------------||
||-----------------------------||
||-----------------------------||
||-----------------------------||
||-----------------------------||
||---3-3-3-3-3-3-6-3-3-7-6-3---||

IV. verses: riff 2 (3 times) then riff 3 (1 time)   <----play IV. twice.
V. then riff 1 then

||-------------------------------|       |-------------||
||-------------------------------|   one |-------------||
||---------------------------3---|   bar |-------------||
||---x-2-x-2-x-2-3-2-x-2-x-2---2-|    of |-------------||
||-------------------------------|  (2/4)|---2-2-2-2---||
||-------------------------------|       |---0-0-0-0---||

VI. chorus
      not sure where the bar lines should be. it's in (4/4) time

||-------------------------------------------------------------||
||-------------------------------------------------------------||
||-------------------------------------------------------------||
||---9----------7-----5--5--5--4-------------------------------||
||---7----------5-----3--3--3--4---------------5-5-5---4-4-4---||
||---0------0-0---0-0----------2---------------3-3-3---2-2-2---||

||----------------------------------------------------------------------------||
||----------------------------------------------------------------------------||
||----------------------------------------------------------------------------||
||---2----------7-----5--5--5--4----------------------------------------------||
||---2----------5-----3--3--3--4-----------5--5-5-5---4-4----5--5-5-5---4-4---||
||---0------0-0---0-0----------2-----------3--3-3-3-0-2-2----3--3-3-3-0-2-2---||

VII. play riff 1 (2 times) then repeat IV., V., and VI. then play an F5th and
     then an E5th.

---------------------------      MetallicA      ------------------------------
...And Justice For All
----------------------
From: bprenike@socs.uts.EDU.AU (Brett Phillip Renike)

 Intro: (clean)
|----------------------------------------------|
|----------------------------------------------|
|.---------------------------------------------|
|.-6-7-9---7-6h7p6-4-5-5-4-7-4-2-3-5---3-2h3p2-|
|--7-----7---------5-----5---5-3-----3---------|
|--0-------------------------------------------|

                        (x 5)
|----------------------------|
|----------------------------| 3rd and 4th times
|-----------------------2---.|     play this with distortion
|-0-2-2-0-2-0-0-2-2-0-2---3-.| I can't remember how Gtr. 2 goes
|-2-----2---2-1-----1-----1--| 5th time play all distorted
|----------------------------|

 Riff 1:
|------------------------------|--------------------------|
|-.----------------------------|--------------------------|
|-3----.-.----.-.-.----.-.-.-.-|-5-3-2---3-2-----2--------|
|-3----8-7----8-7-6----8-7-6-5-|-5-3-2-5-3-2-5-3-2-5-3-2--|
|-1----8-7----8-7-6----8-7-6-5-|-------5-----5-3---5-3-2--|
|------6-5----6-5-4----6-5-4-3-|--------------------------|

|---------------------------------|
|---------------------------------|
|--2------------------------------|
|--2--5--3--2----5-3-2---2--------|
|-----5--3--2----5-3-2-5-2-5-3-2--|
|----------------------5---5-3-2--|

 Riff 2                                                         (x 4)
|--------------------------------|-----------------------------------|
|--------------------------------|-----------------------------------|
|--------------------------------|.---------------------------------.|
|-2------------------------(2)---|.-(2)-------------------------(2)-.|
|-2------------------------(2)---|--(2)-------------------------(2)--|
|-0------------------------(0)---|--(0)-------------------------(0)--|

 Riff 3: (x 4)
|------------------------------------------------|
|------------------------------------------------|
|-.-.----.-.------------------.-.----------------|
|-8-8-7--8-8-7---------------8-8-7---------------|
|-8-8-7--8-8-7----5h7-7-5----8-8-7----5h7-7-5----|
|-6-6-5--6-6-5--0---------7--6-6-5--0---------7--|

 Riff 4:
|-------------------------|-----------|-----------|-----------|
|-------------------------|-----------|-----------|-----------|
|-.-.----.-.--------------|-2---------|-----------|-2---------|
|-8-8-7--8-8-7--2---------|-2---------|-2---------|-2---------|
|-8-8-7--8-8-7--2---------|-0---------|-2---------|-0---------|
|-6-6-5--6-6-5--0---------|-----------|-0---------|-----------|

Riff 3 (x 2)

 Riff 5:
|-------------------------------------------------|
|-------------------------------------------------|
|-.-.----.-.------.----.--------------.----.------|
|-8-8-7--5-5-4----2--x-2-2-------3----2--x-2--2---|
|-8-8-7--5-5-4--.-2--x-2-2---.-.-3--.-2--x-2--2---|
|-6-6-5--3-3-2--0-0--x-0-0---0-0-1--0-0--x-0--0---|

|---------------------------------------------------------------|
|---------------------------------------------------------------|
|-.-.----.-.------.----.--------------.----.------.-.----.-.----|
|-8-8-7--8-8-7----2--x-2-2-------3----2--x-2--2---8-8-7--8-8-8\-|
|-8-8-7--8-8-7--.-2--x-2-2---.-.-3--.-2--x-2--2---8-8-7--8-8-8\-|
|-6-6-5--6-6-5--0-0--x-0-0---0-0-1--0-0--x-0--0---6-6-5--6-6-6\-|

Verse 1
=======

 Riff 6: (x 4)
|-------------------------------------------------|
|-------------------------------------------------|
|--------.-------------------.------.-.----.-.----|
|---2--x-2-2-------3----2--x-2--2---8-8-7--8-8-7--|
|-.-2--x-2-2---.-.-3--.-2--x-2--2---8-8-7--8-8-7--|
|-0-0--x-0-0---0-0-1--0-0--x-0--0---6-6-5--6-6-5--|

 Fill 1: ??
|-----------------------------|
|-----------------------------|
|-----------------------------|
|-----------------------------|
|-----------------------------|
|-----------------------------|

 Riff 7:                  (x 3)
|-------------------------------|------------------------------------|
|-------------------------------|------------------------------------|
|.-----------------------------.|--------------0h5h7-----------------|
|.-3-------------4\3---4/5-4/5-.|-3-----------------0h5h7------------|
|--3-------------4\3---4/5-4/5--|-3----------------------0h5h7-0h2h3-|
|--1-1-1-1-1-1-1-2\1-0-2/3-2/3--|-1-1-1-1-1-1-1----------------------|

                          (x 3)
|-------------------------------|------------------------------------|
|-------------------------------|------------------------------------|
|.-----------------------------.|--------------0h5h7-----------------|
|.-3-------------4\3---4/5-4/5-.|-3-----------------0h5h7------------|
|--3-------------4\3---4/5-4/5--|-3----------------------0h5h7-0h2h3-|
|--1-1-1-1-1-1-1-2\1-0-2/3-2/3--|-1-1-1-1-1-1-1----------------------|

|-------------------------------------------------------|
|-------------------------------------------------------|
|-0h5h7-------------------------------------------------|
|------0h5h7------------4-2--------------4\3---4/5-4/5--|
|-----------0h5h7-0h2h3-4-2--------------4\3---4/5-4/5--|
|-----------------------2-0--0-0-0-0-0-0-2\1-0-2/3-2/3--|

Chorus
======

 Riff 8:
|-------------------------------------------------|
|-------------------------------------------------|
|--2----4----5------------------------------------|
|--2----4----5----4-2--------------4\3---4/5-4/5--|
|--0----2----3----4-2--------------4\3---4/5-4/5--|
|-----------------2-0--0-0-0-0-0-0-2\1-0-2/3-2/3--|

|------------------------------------------|-------------------------|
|------------------------------------------|-------------------------|
|-2----4-----------------------------------|-2----4----0----5--------|
|-2----4----4-2--------------4\3---4/5-4/5-|-2----4----0----5----2---|
|-0----2----4-2--------------4\3---4/5-4/5-|-0----2---------3----2---|
|-----------2-0--0-0-0-0-0-0-2\1-0-2/3-2/3-|-----------3---------0---|

Riff 3 (x 2)
Riff 5
Verse
Chorus

Riff 3 (x 2)
Riff 1
Riff 2

Solo
====

Riff 7
Riff 6 (x ?)

Fill 2: ??
|------------------------------------------|
|------------------------------------------|
|------------------------------------------|
|------------------------------------------|
|------------------------------------------|
|------------------------------------------|

Riff 6 (x 3)
|--------------------------------------------------------------------|
|--------------------------------------------------------------------|
|--------------------------------------------------------------------|
|-8-8-7--8-8-7--7-7-6--7-7-6--6-6-5--6-6-5--5-5-4--5-5-4--3-4-4-4-4--|
|-8-8-7--8-8-7--7-7-6--7-7-6--6-6-5--6-6-5--5-5-4--5-5-4--3-4-4-4-4--|
|-6-6-5--6-6-5--5-5-4--5-5-4--4-4-3--4-4-3--3-3-2--3-3-2--1-2-2-2-2--|

Intro (x 5) w/distortion
                                                                (x 3)
|--------------------------------------------------|-----------------|
|--------------------------------------------------|-----------------|
|------.-.---.-----.-.---.-----.-.---.-----.-.---.-|.-----.-.---.---.|
|--6---6-6-6-6-4---4-4-4-4-2---2-2-2-2-0---0-0-0-0-|.-0---0-0-0-0---.|
|--7---7-7-7-7-5---5-5-5-5-3---3-3-3-3-2---2-2-2-2-|--1---1-1-1-1----|
|--------------------------------------------------|-----------------|

                                            (x 2)
|--------------------|---------------------------|
|--------------------|---------------------------|
|--------------------|.-------------------------.|
|--2------------(2)--|.-(2)-----------------(2)-.|
|--2------------(2)--|--(2)-----------------(2)--|
|--0------------(0)--|--(0)-----------------(0)--|

Riff 3 (x 2)

 Fill 3:
|--------------|
|--------------|
|-.-.----.-.---|
|-8-8-7--2-2-3-|
|-8-8-7--2-2-3-|
|-6-6-5--0-0-1-|

Verse
Chorus
Riff 4 (repeat last bar)
Riff 8 (last bar only)
Riff 4

|---------|---------|---------|---------|---------|
|---------|---------|---------|---------|---------|
|-7-------|-5-------|---------|---------|-.-.-.---|
|-7-------|-5-------|-7-------|-5-------|-5-4-2---|
|-5-------|-3-------|-7-------|-5-------|-5-4-2---|
|---------|---------|-5-------|-3-------|-3-2-0---|

|---------|---------|---------|---------|
|---------|---------|---------|---------|
|---------|-5-------|---------|-.-.-.---|
|-5-------|-5-------|-7-------|-5-4-2---|
|-5-------|-3-------|-7-------|-5-4-2---|
|-3-------|---------|-5-------|-3-2-0---|

|---------|---------|---------|---------|
|---------|---------|---------|---------|
|---------|-.-.-.---|---------|-.-.-.---|
|-5-------|-5-4-2---|---------|-5-4-2---|
|-5-------|-5-4-2---|---------|-5-4-2---|
|-3-------|-3-2-0---|---------|-3-2-0---|

---------------------------      MetallicA      ------------------------------
Eye Of The Beholder
-------------------
From: gregh@tcs.itis.com (Greg and or Paul Halvorson)

                             EYE OF THE BEHOLDER
                                by Metallica
                     from the ...And Justice For All album

       Well here's another one for you by Metallica. I think the whole song is
here, except the solos. If anyone else wants to tab the solos and repost this
w/ the solos, go right ahead. I don't have music for the solos. Well anyway...
have fun.

Repeat & fade from pp-ff                    14x
||-------------------------------------------------||--||----------------------|
||-------------------------------------------------||--||----------------------|
||*-----------------------------------------------*||--||*---------------------|
||*--------------------------------------------9--*||--||*---------------------|
||---------------------------------------------7---||--||----------------------|
||---0--0--0--0--0--0--0--0--0-----0-----0--0--0---||--||---0--0--0--0--0------|


                                                                       4x
------------------------------|------------------------------------------------|
------------------------------|------------------------------------------------|
------------------------------|------------------------------------------------|
------------------------------|------------------------------------------------|
------------------------------|------------------------------------------------|
0--0--0--3-----3-----3--3--3--|--2--2--2--2--2--2--2--2--2-----2-----2--2------|

----||--||-------------------------------------------||--||--------------------|
----||--||-------------------------------------------||--||--------------------|
---*||--||*-----------------------------------------*||--||*-------------------|
---*||--||*-----------------------------------------*||--||*-------------------|
----||--||-------------------------------------------||--||--------------------|
2---||--||---0--0--0-----0--0--0-----0--0--0--0--0---||--||---0--0--0-----0----|

----------------------||----------------------------------------|--||----------|
----------------------||----------------------------------------|--||----------|
---------------------*||----------------------------------------|--||*---------|
---------9--9--9--8--*||--------------------8h9p8---------------|--||*---------|
---------7--7--7--7---||------------------------------7h8p7-----|--||----------|
---0------------------||--0--0--0-----0--0---------0---------0--|--||---0------|

-------------------------------||----------------------------------------------|
-------------------------------||----------------------------------------------|
------------------------------*||----------------------------------------------|
------------------9--9--9--8--*||-----------------------8h9p8------------------|
------------------7--7--7--7---||---------------------------------7h8p7--------|
0--0-----0--0------------------||--0--0--0-----0--0------------0---------0-----|


                                            Rhy. Fig. 1
|----------------------|-----------||--||--------------------------------------|
|----------------------|-----------||--||--------------------------------------|
|----------------------|-----------||--||*-------------------------------------|
|----------------------|--2-----2--||--||*-------------------------------------|
|----------------------|--2-----2--||--||--------------------------------------|
|--6h7p6--0--2h3p2--0--|--0-----0--||--||----0--0--0--0--0--0--0--0--3---------|

---------------|------------------------------------------------||-------------|
---------------|------------------------------------------------||-------------|
---------------|-----------------------------------------------*||-------------|
------------5--|--------------------------------------------4--*||-------------|
------------5--|--------------------------------------------4---||-------------|
3-----3--3--3--|--2--2--2--2--2--2--2--2--2-----2-----2--2--2---||--0--0--0----|

------------------------------------|------------------------------------------|
------------------------------------|------------------------------------------|
------------------------------------|------------------------------------------|
------------------------------------|------------------------------------------|
---------------------------------7--|------------------------------------------|
0--0--0--0--0--0-----0-----0--0--0--|--0--0--0--0--0--0--0--0--0-----0---------|


                   Rhy. Fig. 2
---------||-----|-------------------------|------------------------|-----------|
---------||-----|-------------------------|------------------------|-----------|
---------||-----|------9--9--10--7--7--8--|-----9--9--10--7--7--8--|-----9-----|
---------||--4--|------9--9--10--7--7--8--|-----9--9--10--7--7--8--|-----9-----|
------7--||--4--|------7--7--8---5--5--6--|-----7--7--8---5--5--6--|-----7-----|
0--0--0--||--2--|---0---------------------|--0---------------------|--0--7-----|

----------------|------------------------|------------------------|------------|
----------------|------------------------|------------------------|------------|
9--10--7--7--8--|-----9--9--10--7--7--8--|-----9--9--10--7--7--8--|------------|
9--10--7--7--8--|-----9--9--10--7--7--8--|-----9--9--10--7--7--8--|--9---------|
7--8---5--5--6--|-----7--7--8---5--5--6--|-----7--7--8---5--5--6--|--7---------|
7--8---5--5--6--|--0--7--7--8---5--5--6--|--0--7--7--8---5--5--6--|--0---------|

------------------|--------------------|-----------------------|---------------|
------------------|--------------------|-----------------------|---------------|
------------------|--------------------|-----------------------|---------------|
---------------9--|--5--------------2--|-----------------------|---------------|
---------------7--|--5--------------2--|-----------------------|---------------|
0-----0-----0--0--|--3-----0--0--0--0--|--6--6--6-----3--3--3--|--5--5--5------|

------------------------------------|--------------||--||----------------------|
------------------------------------|--------------||--||----------------------|
------------------------------------|--------------||--||*---------------------|
------------------------------------|--4-----5--4--||--||*---------------------|
------------------------------------|--4-----5--4--||--||----------------------|
---3--3--3-----2--2--2-----3--3--3--|--2-----3--2--||--||---0--0--0--0--0------|

------------|-----------------------------|-----------------------------|------|
------------|-----------------------------|-----------------------------|------|
------------|-----------------------------|-----------------------------|------|
9--9--9--8--|-----------------9--9--9--8--|-----------------9--9--9--8--|------|
7--7--7--7--|-----------------7--7--7--7--|-----------------7--7--7--7--|------|
------------|--0--0--0--0--0--------------|--0--0--0--0--0--------------|------|

-----------------------------------------------------------||------------------|
-----------------------------------------------------------||------------------|
----------------------------------------------------------*||------------------|
---------------8h9p8-----------------------------------2--*||------------------|
-------------------------7h8p7-------------------------2---||------------------|
0--0--0--0--0---------0---------0--6h7p6--0--2h3p2--0--0---||------------------|


Go back and play next verse here.
-------------------------------||--||--------------------------||--------------|
-------------------------------||--||--------------------------||--------------|
-------------------------------||--||*-----9--9--10--7--7--8--*||--------------|
-------------------------------||--||*-----9--9--10--7--7--8--*||--9-----------|
-------------------------------||--||------7--7--8---5--5--6---||--7-----------|
-------------------------------||--||---0--7--7--8---5--5--6---||--0-----0-----|

---------||------------------------|------------------------|------------------|
---------||------------------------|------------------------|------------------|
---------||-----9--9--10--7--7--8--|-----9--9--10--7--7--8--|------------------|
------9--||-----7--7--10--7--7--8--|-----9--9--10--7--7--8--|--9---------------|
------7--||-----7--7--8---5--5--6--|-----7--7--8---5--5--6--|--7---------------|
0--0--0--||--0---------------------|--0---------------------|--0-----0--0------|

------|-----|-----------------------------------|-----||-----------------------|
------|-----|-----------------------------------|-----||-----------------------|
------|-----|-----------------------------------|-----||-----------------------|
---9--|--2--|--5--------------------------------|--2--||-----------------------|
---7--|--2--|--5--2--2--2--2--2--2--2--2--2--2--|--2--||-----------------------|
0--0--|--0--|--3--0--0--0--0--0--0--0--0--0--0--|--0--||-----------------------|

---------------------------      MetallicA      ------------------------------
One
---
From: C.W.G.M.Enders@kub.nl  (C. Enders)
First 90 lines by From: "Jackson C. Yang" 

[ intro ]
[ begins with gunfires and battlefield sound for a few seconds.. ]

   Bm             Gmaj7(no3rd)   Bm             Gmaj7(no3rd)
|--------------|--------------|--------------|-------------------|
|--------------|--------------|--------------|-------------------|
|--------------|--------------|--------------|----------------0--|
|-----4-----0--|-----4-----0--|-----4-----0--|-----4-----0-------|
|--2-----2-----|--------------|--2-----2-----|-------------------|
|--------------|--3-----3-----|--------------|--3-----3----------|

		 D/A            Gmaj7(no3rd)
|--------------|--------------|--------------|-------------------|
|--------------|--------------|--------------|-------------------|
|-(0)----------|--------------|--------------|-------------------|
|-----4-----0--|-----4-----0--|-----4-----0--|-------------------|
|--2-----2-----|--0-----0-----|--------------|-----2-----2-------|
|--------------|--------------|--3-----3-----|--0-----2----------|

   Bm              Gmaj7(no3rd)  Bm
|--------------|--------------|--------------|-------------------|
|--------------|--------------|--------------|-------------------|
|*-------------|--------------|--------------|--------------0----|
|*----4-----0--|-----4-----0--|-----4-----0--|-----4-----0-------|
|--2-----2-----|--------------|--2-----2-----|-------------------|
|--------------|--3-----3-----|--------------|--3-----3----------|

		  D/A            Gmaj7(no3rd) [1. N.C           ]
|--------------|--------------|--------------|-------------------|
|--------------|--------------|--------------|-------------------|
|--------------|--------------|--------------|------------------*|
|-----4-----0--|-----4-----0--|-----4-----0--|------------------*|
|--2-----2-----|--0-----0-----|--------------|-----2-----2-------|
|--------------|--------------|--3-----3-----|--0-----2----------|

 [2. N.C                    ] Bm                     Gmaj7(no3rd)
|---------------------------|----------------------|-----------------------|
|---------------------------|----------------------|-----------------------|
|---------------------------|----------------------|-----------------------|
|---------------------------|-----4-----0--0--4----|-----4-----0--4--4--0--|
|-----2-----2-----2--2h4--2-|--2-----2-----------0-|-----------------------|
|--0-----2-----0------------|----------------------|--3-----3--------------|

   Bm                     Gamj7                   Bm
|-----------------------|-----------------------|-----------------------|
|-----------------------|-----------------------|-----------------------|
|-----------------------|-----------------------|-----------------------|
|-----4-----0--0--4-----|-----4-----0--4--4--0--|-----4-----0--0--4--0--|
|--2-----2-----------0--|-----------------------|--2-----2--------------|
|-----------------------|--3-----3--------------|-----------------------|

  D/A                     Gamj7                   (Em)
|-----------------------|-----------------------|-------------------|
|-----------------------|-----------------------|-------------------|
|--------------------0--|-(0)-------------------|-------------------|
|-----4-----0--4--4-----|-----4-----0--0--4--0--|-----2h4--2--------|
|--0-----0--------------|-----------------------|----------------4--|
|-----------------------|--3-----3--------------|--0----------2-----|

  G5            A5        (D) Riff A              (G)
|-----------------------|-----------------------|------------------------|
|-----------------------|-----------------------|-----0h3p0----0h3p0-----|
|-----------------------|*--------0--7-----0----|------------4--------0--|
|---------0-------------|*-----7--------7-------|--5---------------------|
|-----5------------7----|---5-------------------|------------------------|
|--3---------3--5-------|-----------------------|------------------------|

  (F)              [1. (Em)            ]  [2.(Em) N.C end Riff A
|--------1--------|--------------0------|------------------|
|-----------1-----|-----------0-----0---|-----0------------|
|-----0--------0--|-----4--0-----------*|--------0--4------|
|--3--------------|--2-----------------*|--2---------------|
|-----------------|---------------------|-------------/3---|
|-----------------|---------------------|------------------|

Then the solo:

  1       2       3  4    1       2   3       4          1        2  3  4
|-----------------------|------------------------------|--------------------|
|-----------------------|-----3p2-----3p2---------3----|-3p2----------------|
|---------2---4b6b4-----|---------4-------2------------|-----4--------------|
|-----2h4---------------|------------------------------|--------------------|
|-----------------------|------------------------------|--------------------|
|-----------------------|------------------------------|--------------------|

    1       2       3       4          1     2     3     4
|----------------------------------|----------------------------|
|-----7\5---5\4---4\2---2p0--------|------------------------2h3-|
|---------7-----------4-----0h2----|-2/4--------------2/4-------|
|----------------------------------|----------------------------|
|----------------------------------|----------------------------|
|----------------------------------|----------------------------|

    1   2    3        4         1     2     3     4       1     2
|---------------------------|-------------------------|-------------|
|-2-------------2---3p2-----|-------------------------|-------------|
|---------2/4-----------2---|-2/4---------------------|-------------|
|---------------------------|-------------------------|-------------|
|---------------------------|-------------------------|-------------|
|---------------------------|-------------------------|-------------|

    1     2     3         4       1           2      3     4
|-----------------}14---19----|-17-15-14-15--------------------|
|-----------------{x----------|-------------15-----------------|
|-----------------}x----------|--------------------------------|
|-----------------{x----------|--------------------------------|
|-----------------------------|--------------------------------|
|-----------------------------|--------------------------------|

    1       2     3       4          1       2          3      4
|--------------------------------|---------------------------------|
|--------------------------------|---------------------------------|
|-----7p6-7-----9p7-9-------11p9-|-11----11/12---12---11-----------|
|--------------------------------|---------------------------------|
|--------------------------------|---------------------------------|
|--------------------------------|---------------------------------|

    1         2          3           4            1          2
|---------------------------------------------|----------------12-----|
|----------------------------------12---------|----12-14---15---------|
|-----------11-12-14---------11-12------------|-11--------------------|
|--------12---------------12---------------12-|-----------------------|
|-----14---------------14---------------14----|-----------------------|
|---------------------------------------------|-----------------------|

    3         4           1         2      3     4
 -----------------------|------------------------------|
 ---15---14---12---14---|-14-----15-12-----------------|
 -----------------------|------------------------------|
 -----------------------|------------------------------|
 -----------------------|------------------------------|
 -----------------------|------------------------------|


[ Now play the verses with both Rhy. Fig.'s simultaneously for the verses.  ]
[ (Rhy. Fig. 1 changes slightly, where you play the open 3rd string at the  ]
[ end of the 1st line of tab.  Simply leave that note out.  Where it is in  ]
[ the verses, a slide is done on the bottom 2 strings from the 3rd to 5th   ]
[ fret {3/5}).                                                              ]

Bm                   Gmaj7(no3rd)    Bm                      Gmaj7(no3rd)
  I can't remember   anything          can't tell if this is true or dream
Bm                   D/A             Gmaj7(no 3rd)           N.C.
  deep down inside I feel to scream    this terrible silence stops me
Bm                    Gmaj7(no3rd)   Bm                Gmaj7(no3rd)
  Now that the war is through with me, I'm waking up I can not see
Bm                      D/A          Gmaj7(no 3rd)           N.C.
  that there's not much lef to to me.   Nothing is real but pain now!

[Next comes the chorus.  Just power chords. ]

 G5   A5 B5     A5 G5 F#5  B5  A5
 Hold my breath as I  wish for death
 B5 C#5 B5 A5  (5th string:)-3---4----5---
        Oh,please           God  wake me!

[ One guitar holds that last note forever.  The other plays Riff A twice   ]
[ (1st ending, 2nd ending).                                                ]

Bm                   Gmaj7(no3rd)    Bm                 Gmaj7(no3rd)
  Back in the womb it's much to real in pumps life that I must feel
Bm                     D/A             Gmaj7(no 3rd)           N.C.
But can't look forward to reveal         look to the time when I'll live
Bm                       Gmaj7(no3rd)   Bm                    Gmaj7(no3rd)
Fed thourgh the tube that sticks in me    just like a wartime novelty
Bm                      D/A           Gmaj7(no 3rd)            N.C.
  tied to machines that make me be         cut this life off   from me

 G5   A5 B5     A5 G5 F#5  B5  A5
 Hold my breath as I  wish for death
 B5 C#5 B5 A5  (5th string:)-3---4----5---
        Oh,please           God  wake me!

[ classical solo ]
|----------------------------|----------------------|----------------------|
|-------------10p7-----7-----|-10-----10---8---7----|-7h8p7----------------|
|------------------7---------|--------------------9-|--------7-------------|
|----------------------------|----------------------|----------------------|
|-(5)------------------------|----------------------|----------------------|
|----------------------------|----------------------|----------------------|

|-/10-8-7-----7---8-|---------17p14-----14-|-17---17-15--14---15p14--------|
|---------10--------|-8~~~~~---------15----|-------------------------------|
|-------------------|----------------------|-------------------------------|
|-------------------|----------------------|-------------------------------|
|-------------------|----------------------|-------------------------------|
|-------------------|----------------------|-------------------------------|

|------------------15--17--|--19p17p15-19p17p15-19p17p15-14-15----14-------|
|-15------15--19-----------|-----------------------------------17----15----|
|--------------------------|-----------------------------------------------|
|--------------------------|-----------------------------------------------|
|--------------------------|-----------------------------------------------|
|--------------------------|-----------------------------------------------|

|------|-------------------------------|-----------------------------------|
|------|-/8---8--8\7-------------------|-/13----13---13---13---12----------|
|------|-/7---7--7----7----------------|-/12----12---12---12---12----------|
|------|-------------------------------|-----------------------------------|
|------|-------------------------------|-----------------------------------|
|------|-------------------------------|-----------------------------------|

    T          T          T          T          T          T
|---20p17p13---20p17p13---20p17p13---20p17p13---20p17p13---20p17p13--------|
|--------------------------------------------------------------------------|
|--------------------------------------------------------------------------|
|--------------------------------------------------------------------------|
|--------------------------------------------------------------------------|
|--------------------------------------------------------------------------|
[ T := tap using edge of pick ]

    T             T
|---20p12h13p12---20p12h13p12-|
|-----------------------------|
|-----------------------------|
|-----------------------------|
|-----------------------------|
|-----------------------------|

G5  A5  B5    A5 G5   F#5 B5
Now the world is gone I'm just one.
A5 B5 C#5 B5 A5 B5 C#5
Oh God help me!

G5  -A5-B5    -A5-G5-F#5 -B5 -A5-B5-C#5-B5-A5-B5-C#5
Hold my breath as I  wish for death. Oh,please God wake

G5-A5-B5-A5-G5-F#5-B5
me!

  Am           G                B               C
-------------|----------------|-------------|------------|
-------------|----------------|-------------|------------|
-------------|----------------|-4-----4-----|---5-----5--|
--2--0--2--0-|-----5--5--5--5-|-4-----4-----|---5-----5--|
--3--2--3--0-|--2--5--5--5--5-|-2-----2-----|---3-----3--|
-------------|--3--3--3--3--3-|----2-----2--|------3-----|
                                              Play 4 times

  C/E                D                  B5            C5
-------------------|----------------|---------------|---------------------|
-------------------|----------------|---------------|---------------------|
-------------------|----------------|---4-----4-----|-5--5-5--------5-----|
--5--5--5--7--5----|-4--4--4--5--4\-|---4-----4-----|-5--5-5--5-----5-----|
--7--7--7--7--7--5-|-5--5--5--5--5\-|---2-----2-----|-3--3-3--3-----3-----|
-------------------|----------------|------2-----2--|------------3-----3--|
                                                                Play twice

---------------|-----------------|------------------------------------|
---------------|-----------------|------------------------------------|
---------------|-----------------|------------------------------------|
--5------(5)---|--------------2--|--------------2-(2)-------------2-3-|
--7------(7)---|--------------2--|--------------2-(2)-------------2-3-|
--0------(0)---|--0-0-0-0-0-0-0--|--0-0-0-0-0-0-------0-0-0-0-0-0-----|
		   Play 4 times                       Play 4 times

--------------------------------|-----------------------------------|
--------------------------------|-----------------------------------|
--------------------------------|-----------------------------------|
--------------------------------|------------------------------2-3--|
--------------2---------------2-|--------------2---------------2-3--|
--0-0-0-0-0-0-0---0-0-0-0-0-0-0-|--0-0-0-0-0-0-0---0-0-0-0-0-0------|
    Dark-ness     imprisoning me   all that I see  absolute  hor-ror
I can-not live I can-not die Trapped in my-self body my holdind cell!

------------------------------------|------------------------------------|
------------------------------------|------------------------------------|
------------------------------------|------------------------------------|
------------------------------------|------------------------------------|
--------------7-(7)-------------7-8-|-------------5-(5)-------------5/8--|
--0-0-0-0-0-0-------0-0-0-0-0-0-----|-0-0-0-0-0-0-------0-0-0-0-0-0------|

------------------------------------|------------------------------------|
------------------------------------|------------------------------------|
------------------------------------|------------------------------------|
------------------------------------|------------------------------------|
--------------7-(7)-------------7-8-|-------------5-(5)-------------5----|
--0-0-0-0-0-0-------0-0-0-0-0-0-----|-0-0-0-0-0-0-------0-0-0-0-0-0---7--|

---------------------------------|-----------------------------------|
---------------------------------|-----------------------------------|
---------------------------------|-----------------------------------|
---------------------------------|------------------------------2-3--|
--------------2---------------2--|--------------2---------------2-3--|
--0-0-0-0-0-0-0---0-0-0-0-0-0-0--|--0-0-0-0-0-0-0---0-0-0-0-0-0------|
  Land-mine    has taken my sight  taken my speech taken my  hear-ing
  Taken my   arms taken my   legs taken my soul left me with life in

Double-time
-----------------------------------------|
-----------------------------------------|
-----------------------------------------|
--------------2--------------2--------3--|
--------------2--------------2--------3--|
--0-0-0-0-0-0----0-0-0-0-0-0----0-0-0----|
hell!_____________

Finally:

Riff C
  E5                                      F5
-------------------------|--------------------|
-------------------------|--------------------|
-------------------------|--------------------|
---------------2---------|--------2--------3--|
---------------2---------|--------2--------3--|
--0-0-0-0-0-0-----0-0-0--|--0-0-0----0-0-0----|

[ Play Riff C 4 times                         ]

[ fast solo (COOL !). Okay this looks hard but with a little practice .... ]

  T         T        T        T        T        T        T        T
E-19p15p12--19p15p12-19p15p12-19p15p12-19p15p12-19p15p12-19p15p12-19p15p12-|
B--------------------------------------------------------------------------|
G--------------------------------------------------------------------------|
D--------------------------------------------------------------------------|
A--------------------------------------------------------------------------|
E--------------------------------------------------------------------------|
[ T := Tap using edge of pick; p := pull off finger or pick                ]

  T         T        T        T        T        T        T        T
E-20p15p12--20p15p12-20p15p12-20p15p12-20p15p12-20p15p12-20p15p12-20p15p12-|
B--------------------------------------------------------------------------|
G--------------------------------------------------------------------------|
D--------------------------------------------------------------------------|
A--------------------------------------------------------------------------|
E--------------------------------------------------------------------------|

  T         T        T        T        T        T        T        T
E--------------------------------------------------------------------------|
B-19p15p12--19p15p12-19p15p12-19p15p12-19p15p12-19p15p12-19p15p12-19p15p12-|
G--------------------------------------------------------------------------|
D--------------------------------------------------------------------------|
A--------------------------------------------------------------------------|
E--------------------------------------------------------------------------|

  T         T        T        T        T        T        T        T
E--------------------------------------------------------------------------|
B-20p15p12--20p15p12-20p15p12-20p15p12-20p15p12-20p15p12-20p15p12-20p15p12-|
G--------------------------------------------------------------------------|
D--------------------------------------------------------------------------|
A--------------------------------------------------------------------------|
E--------------------------------------------------------------------------|

  T         T        T        T        T        T        T        T
E--------------------------------------------------------------------------|
B-17p13p10--17p13p10-17p13p10-17p13p10-17p13p10-17p13p10-17p13p10-17p13p10-|
G--------------------------------------------------------------------------|
D--------------------------------------------------------------------------|
A--------------------------------------------------------------------------|
E--------------------------------------------------------------------------|

  T         T        T        T        T        T        T        T
E--------------------------------------------------------------------------|
B-18p13p10--18p13p10-18p13p10-18p13p10-18p13p10-18p13p10-18p13p10-18p13p10-|
G--------------------------------------------------------------------------|
D--------------------------------------------------------------------------|
A--------------------------------------------------------------------------|
E--------------------------------------------------------------------------|

  T        T     T     T     T     T      T     T    T    T    T    T
E---------------------------------------|----------------------------------|
B-17p12h14-17p12-17p10-17p12-17p10-17p8-|-17p10-17p8-17p7-17p8-17p7-17p5---|
G---------------------------------------|----------------------------------|
D---------------------------------------|----------------------------------|
A---------------------------------------|----------------------------------|
E---------------------------------------|----------------------------------|

E------------------------------14-14-14-|-15-15-15--17-17-17----------------|
B-/12-12-12--12-12-12--12--12-----------|---------------------15-15-15------|
G---------------------------------------|-----------------------------------|
D---------------------------------------|-----------------------------------|
A---------------------------------------|-----------------------------------|
E---------------------------------------|-----------------------------------|

E-17-17-17-17-|-22^24-------22^24----22^24~|~~~~~~~~\---------------15-----|
B-------------|----------------------------|--------------/17--------------|
G-------------|----------------------------|-------------------------------|
D-------------|----------------------------|-------------------------------|
A-------------|----------------------------|-------------------------------|
E-------------|----------------------------|-------------------------------|

E-17p15---------------15h17p15-------------|-15h17p15-------------15h17p15--|
B--------17-15-17-19-----------17-15-17-19-|----------17-15-17-19-----------|
G------------------------------------------|--------------------------------|
D------------------------------------------|--------------------------------|
A------------------------------------------|--------------------------------|
E------------------------------------------|--------------------------------|

E-----------15-|-17p15------------15-17p15---------15h17----|
B-17-17-19-----|--------15-17-19------------17--15----------|
G--------------|--------------------------------------------|
D--------------|--------------------------------------------|
A--------------|--------------------------------------------|
E--------------|--------------------------------------------|

E-19p17p15-----19p17p15-----19p17p15------19p17p15----------|
B----------15-----------15------------15------------15------|
G-----------------------------------------------------------|
D-----------------------------------------------------------|
A-----------------------------------------------------------|
E-----------------------------------------------------------|

E-19p17--------19p17--------19p17---------19p17p15----------|
B----------15-----------15------------15--------------------|
G-----------------------------------------------------------|
D-----------------------------------------------------------|
A-----------------------------------------------------------|
E-----------------------------------------------------------|

E-------15-------15-------15-------15-|-18^19-15-------15-18^19-15-------15-|
B-18^20----18^20----18^20----18^20----|----------18^20-------------18^20----|
G-------------------------------------|-------------------------------------|
D-------------------------------------|-------------------------------------|
A-------------------------------------|-------------------------------------|
E-------------------------------------|-------------------------------------|

E-19p17p15-17----17p15----15----------|-------------------------------------|
B----------------------19-------------|-19p17p15-17-----15h17p15\13--15-----|
G-------------------------------------|-------------------------------------|
D-------------------------------------|-------------------------------------|
A-------------------------------------|-------------------------------------|
E-------------------------------------|-------------------------------------|

E------------------------------------------|--------------------------------|
B-13h15p13\12--13-----12h13p12----12-------|--------------------------------|
G------------------------------14----14p12-|-14p12----12----12--14^-14^-14^-|
D------------------------------------------|-------14----14-----------------|
A------------------------------------------|--------------------------------|
E------------------------------------------|--------------------------------|

E----------------------------|---------------------|------------------------|
B----------------------------|---------------------|------------------------|
G-14^16-14^16-----v14p12-----|-12-----12-----------|------------------------|
D-------------------------14-|----14------14-13-12-|------------------------|
A----------------------------|---------------------|-14-13-12-10~~~~~-------|
E----------------------------|---------------------|------------------------|

E---------------------------|---------------------------|-------------------|
B---------15^----------15^--|---------15^----------15^--|-17^-v-^-v-^-17^v^-|
G---------15^----------15^--|---------15^----------15^--|-17^-v---v-^-17^v^-|
D-17--17--------17--17------|-17--17--------17--17------|-------------------|
A---------------------------|---------------------------|-------------------|
E---------------------------|---------------------------|-------------------|
[ different notation : ^ := bend 1 fret up; v := release 1 fret             ]
[ imho use tremolo bar for easy playing                                     ]

E---------------------|------------------------|----------------------------|
B-v(17)-^-v--15----15-|--------15^---------15^-|-17-----17-----15^-------15-|
G-v(17)-^-v--15----15-|--------15^---------15^-|-17-----17-----15^----------|
D---------------17----|-17--17------17--17-----|----------------------------|
A---------------------|------------------------|----------------------------|
E---------------------|------------------------|----------------------------|

E-------15--------15--------15--------15-|-------15--------15--------------||
B-18^20-----18^20-----18^20-----18^20----|-18^20-----18^20-----18^20~~~~~~-||
G----------------------------------------|---------------------------------||
D----------------------------------------|---------------------------------||
A----------------------------------------|---------------------------------||
E----------------------------------------|---------------------------------||

E------------------------------------|------------------------------------|
B------------------------------------|------------------------------------|
G------------------------------------|------------------------------------|
D------------------------------------|------------------------------------|
A---------------------------5-5-5----|-5-5-5----4-4-4---3-3-3---2-2-2-----|
E-3-3-3--3-3-3--3--------------------|------------------------------------|

Riff C
  E5                                      F5
-------------------------|--------------------|
-------------------------|--------------------|
-------------------------|--------------------|
---------------2---------|--------2--------3--|
---------------2---------|--------2--------3--|
--0-0-0-0-0-0-----0-0-0--|--0-0-0----0-0-0----|

[ Play riff C 9 times                         ]

E------------------------------------|------------------------------------|
B------------------------------------|------------------------------------|
G------------------------------------|------------------------------------|
D------------------------------------|------------------------------------|
A---------------------------5-5-5----|-5-5-5----4-4-4---3-3-3---2-2-2-----|
E-0-0-0--0-0-0--0--------------------|------------------------------------|

[ two guitars                                                             ]
E-----------------------5--5--5------|------------------7--7--7--5--------|
B-8--8--8--7^-----------7--7--7------|--8^--------5-----8--8--8--7--------|
G-9--9--9--7^----7-------------------|--8^--------------------------------|
D----------------9-------------------|------------9-----------------------|
A------------------------------------|------------------------------------|
E------------------------------------|------------------------------------|

E-7--5-----5-------5-----------------|------------------------------------|
B-8--7--8--7-------7--8--7--8--------|-8--7--5--7--------7--5-----5-------|
G-------9-------------9--7--9--------|-9--7--6--7--------7--6--7--6-------|
D------------------------------------|-------------------------9----------|
A------------------------------------|------------------------------------|
E------------------------------------|------------------------------------|

E-----------------------5--5--5------|------------------7--7--7--5--------|
B-8--8--8--7^-----------7--7--7------|--8^--------5-----8--8--8--7--------|
G-9--9--9--7^----7-------------------|--8^--------------------------------|
D----------------9-------------------|------------9-----------------------|
A------------------------------------|------------------------------------|
E------------------------------------|------------------------------------|

E-7--5-----5-------5-----------------|-8--7--5--7--------7--5-----5-------|
B-8--7--8--7-------7--8--7--8--------|-10-8--7--8--------8--7--8--7-------|
G-------9-------------9--7--9--------|-------------------------9----------|
D------------------------------------|------------------------------------|
A------------------------------------|------------------------------------|
E------------------------------------|------------------------------------|

E-----------------------5--5--5------|------------------7--7--7--5--------|
B-8--8--8--7^-----------7--7--7------|--8^--------5-----8--8--8--7--------|
G-9--9--9--7^----7-------------------|--8^--------------------------------|
D----------------9-------------------|------------9-----------------------|
A------------------------------------|------------------------------------|
E------------------------------------|------------------------------------|

E-7--5-----5-------5-----------------|------------------------------------|
B-8--7--8--7-------7--8--7--8--------|-8--7--5--7--------7--5-----5-------|
G-------9-------------9--7--9--------|-9--7--6--7--------7--6--7--6-------|
D------------------------------------|-------------------------9----------|
A------------------------------------|------------------------------------|
E------------------------------------|------------------------------------|

E-----------------------5--5--5------|------------------7--7--7--5--------|
B-8--8--8--7^-----------7--7--7------|--8^--------5-----8--8--8--7--------|
G-9--9--9--7^----7-------------------|--8^--------------------------------|
D----------------9-------------------|------------9-----------------------|
A------------------------------------|------------------------------------|
E------------------------------------|------------------------------------|

E-7--5-----5-------5-----------------|------------------------------------|
B-8--7--8--7-------7--8--7--8--------|-8--7--5--7--------7--5-----5-------|
G-------9-------------9--7--9--------|-9--7--6--7--------7--6--7--6-------|
D------------------------------------|-------------------------9----------|
A------------------------------------|------------------------------------|
E------------------------------------|------------------------------------|

E------------------------------------|------------------------------------|
B-5----------------------------------|------------------------------------|
G-6--7--6--7-------7--6--4--6--------|-6--4--2--4--------4--2--0--2-------|
D----9--7--9-------9--7--5--7--------|-7--5--4--5--------4--2--0--2-------|
A------------------------------------|------------------------------------|
E------------------------------------|------------------------------------|

[ two guitars                                                             ]

Riff C
  E5                                      F5
-------------------------|--------------------|
-------------------------|--------------------|
-------------------------|--------------------|
---------------2---------|--------2--------3--|
---------------2---------|--------2--------3--|
--0-0-0-0-0-0-----0-0-0--|--0-0-0----0-0-0----|

[ Play riff C 4 times                         ]

  G5
-------------------------|--------------------|
-------------------------|--------------------|
-------------------------|--------------------|
-------------5--------5--|--------5--------5--|
-------------5--------5--|--------5--------5--|
--3-----3----3--3--3--3--|--3--3--3--3--3--3--|

  E5                                      F5
-------------------------|--------------------|
-------------------------|--------------------|
-------------------------|--------------------|
---------------2---------|--------2--------3--|
---------------2---------|--------2--------3--|
--0-0-0-0-0-0-----0-0-0--|--0-0-0----0-0-0----|

  G5
-------------------------|--------------------|
-------------------------|--------------------|
-------------------------|--------------------|
-------------5--------5--|--------5--------5--|
-------------5--------5--|--------5--------5--|
--3-----3----3--3--3--3--|--3--3--3--3--3--3--|

  E5                        F5
-------------------------|--------------------|
-------------------------|--------------------|
-------------------------|--------------------|
---------------2------2--|--------3--------3--|
---------------2------2--|--------3--------3--|
--0-0-0-0-0-0---------0--|--1--1--1--1--1--1--|
[ play this 2 bars 3 times                    ]

  E5                        G5
-------------------------|--------------------|--------------------|
-------------------------|--------------------|--------------------|
-------------------------|--------------------|--------------------|
---------------2------2--|--------5--------5--|--------5--------5--|
---------------2------2--|--------5--------5--|--------5--------5--|
--0-0-0-0-0-0---------0--|--3--3--3--3--3--3--|--3--3--3--3--3--3--|

  E5                                      F5
-------------------------|--------------------|
-------------------------|--------------------|
-------------------------|--------------------|
---------------2---------|--------2--------3--|
---------------2---------|--------2--------3--|
--0-0-0-0-0-0-----0-0-0--|--0-0-0----0-0-0----|

   E5
E------------------------------------|-----------------------------------||
B------------------------------------|-----------------------------------||
G------------------------------------|-----------------------------------||
D--2-2-2--2-2-2--2------------2-2-2--|--2-2-2--2-------------------------||
A--2-2-2--2-2-2--2------------2-2-2--|--2-2-2--2-------------------------||
E--0-0-0--0-0-0--0------------0-0-0--|--0-0-0--0-------------------------||

---------------------------      MetallicA      ------------------------------
The Shortest Straw
------------------
                              The Shortest Straw
              From Metallica's ...And Justice For All album.

Tabbed by Paul Halvorson

pm  pm              pm  pm                 pm  pm
-------------------------------------------------------------------------------|
-------------------------------------------------------------------------------|
-------------------------------------------------------------------------------|
-2---2-----2---------2---2-----2--2--2------2---2-----2------------------------|
-2---2-----2---------2---2-----2--2--2------2---2-----2------------------------|
-0---0-----0---------0---0-----0--0--0------0---0-----0-----3-----5------------|


pm  pm              pm  pm                 pm  pm
-------------------------------------------------------------------------------|
-------------------------------------------------------------------------------|
-------------------------------------------------------------------------------|
-2---2-----2---------2---2-----2--2--2------2---2-----2------------------------|
-2---2-----2---------2---2-----2--2--2------2---2-----2------------------------|
-0---0-----0---------0---0-----0--0--0------0---0-----0-----5-----3------------|


pm  pm              pm  pm                 pm  pm
-------------------------------------------------------------------------------|
-------------------------------------------------------------------------------|
-------------------------------------------------------------------------------|
-2---2-----2---------2---2-----2--2--2------2---2-----2------------------------|
-2---2-----2---------2---2-----2--2--2------2---2-----2------------------------|
-0---0-----0---------0---0-----0--0--0------0---0-----0-----3-----5------------|


pm  pm              pm  pm                 pm  pm
-------------------------------------------------------------------------------|
-------------------------------------------------------------------------------|
-------------------------------------------------------------------------------|
-2---2-----2---------2---2-----2--2--2------2---2-----2------------------------|
-2---2-----2---------2---2-----2--2--2------2---2-----2------------------------|
-0---0-----0---------0---0-----0--0--0------0---0-----0-----3--3--3--3---------|


pm  pm
-----------------------|-------------------------------------------------------|
-----------------------|-------------------------------------------------------|
-----------------------|-------------------------------------------------------|
-2---2-----2-----------|-------------------------------------------------------|
-2---2-----2-----------|-------------------------------------------------------|
-0---0-----0-----3--3--|-------------------------------------------------------|


Riff #1
---------------------------------------------------|---------------------------|
---------------------------------------------------|---------------------------|
---------------------------------------------------|---------------------------|
-------8--7/8--------------------------------3--3--|---------------------------|
----7----------7-----------------------------3--3--|---------------------------|
-0----------------------0--0--0--0--0--0--0--1--1--|---------------------------|


Riff played right before verse          Riff during verses
--------------------------------|----------------------------------------------|
--------------------------------|----------------------------------------------|
-------3--2--3--0---------------|----------------------------------------------|
----2---------------------------|-----------------------------3--3-------------|
--------------------------------|-----------------------------3--3-------------|
-0------------------------------|--------0--0--0--0--0--0--0--1--1-----0--0----|

---------------------------------------------------------------------|---------|
---------------------------------------------------------------------|---------|
---------------------------------------------------------------------|---------|
---------------5--5--------------------------------------------------|---------|
---------------5--5--------------------------------------------------|---------|
0--0--0--0--0--3--3-----0--0--0--0--0--0--0-----5-----3-----1--------|---------|

-------------------------------------------------------------------------------|
-------------------------------------------------------------------------------|
-------------------------------------------------------------------------------|
------------------------5--5--------------------------------------7--7---------|
------------------------5--5--------------------------------------7--7---------|
2--2--2--2--2--2--2-----3--3--------------2--2--2--2--2--2--2-----5--5---------|

-------------------------------------------------------------------------------|
-------------------------------------------------------------------------------|
-------------------------------------------------------------------------------|
------------------------5--5---------------------------------------------------|
------------------------5--5---------------------------------------------------|
2--2--2--2--2--2--2-----3--3--------------2--2--2--2-----7--5--3---------------|

---------------------------      MetallicA      ------------------------------
Harvester Of Sorrow
-------------------
Andrew Bowie (bowie@yoyo.cc.monash.edu.au)

I think the start is like this, but I'm not removing the
below because it may refer to another bit and not the intro.

e---------------------------------------|
B---------------------------------------|
G-----------0---------------------------|
D-----3-2-----3-2-------3-0------0---0--|
A---2-----2-----------2--------0--------|
E-0-----------------0--------3-----1----|

------------------------------------------------------------------------------
From: butterwo@cs.tulane.edu (Blake Butterworth)

Since there's been alot of Metallica posts, here's my version of Harvester
of Sorrow from AJFA.  It should be pretty close.  You'll need to figure out
how many times each part should be played, and where they should be repeated.
The middle part and solo aren't included.  If I have time to figure them out,
I'll post them later.

Riff 1
e-----------------------------------------------------------|
B-----------------------------------------------------------|
G-----------4--3--------------------------------------------|
D--5--4-----4--3-----5--4-----------------------------------|
A--5--4-----2--1-----5--4-----------------------------------|
E--3--2--0--------0--3--2--0--------------------------------|
				    *repeat then palm mute later
e-----------------------------------------------------------|
B-----------------------------------------------------------|
G----------------0------------------------------------------|
D-----3--2----2-----3--2-------3--0-------0-2-----0---------|
A--2------------------------2-------------------------------|
E--------------------------------------3-------2-----0------|

Riff1 again
		    / = slide
e-----------------------------------------------------------|
B-----------------------------------------------------------|
G---------------------------4/-3----------------------------|
D--2--2-2--2--2-2--5/-4-----4/-3-----5/-4-------------------|
A--2--2-2--2--2-2--5/-4-----2/-1-----5/-4-------------------|
E--0--0-0--0--0-0--3/-2--0--------0--3/-2-------------------|

e-----------------------------------------------------------|
B-----------------------------------------------------------|
G---------------------------4/-3----------------------------|
D--3--3-3--3--3-3--5/-4-----4/-3-----5/-4-------------------|
A--3--3-3--3--3-3--5/-4-----2/-1-----5/-4-------------------|
E--1--1-1--1--1-1--3--2--0--------0--3/-2-------------------|

Riff 1 again

e-----------------------------------------------------------|
B-----------------------------------------------------------|
G-----------------------------------------------------------|
D-----------------------------------------------------------|
A-----------------------------------------------------------|
E--2--2-2/--5----2--2-2/--5----5/--0----2--2-2/--6----6/--0-|

e------------------------------------------------------------------|
B------------------------------------------------------------------|
G------------------------------3-----------------------7-----------|
D--2-2--4/-5--2--2--2--2-2--4--3--2--2--2------2-2--4--7--5--5--5--|
A--2-2--4/-5--2--2--2--2-2--4--1--2--2--2-[x3]-2-2--4--5--5--5--5--|
E--0-0--2/-3--0--0--0--0-0--2-----0--0--0------0-0--2-----3--3--3--|
              ^----------------------------------------------------|

						*this part is verse
e-------------------------------------------------------|
B-------------------------------------------------------|
G-------------------------------------------7-----------|
D--2-2--4/-5--2--2--2---------------2-2--4--7--5--5--5--|
A--2-2--4/-5--2--2--2---[repeat]----2-2--4--5--5--5--5--|
E--0-0--2/-3--0--0--0---------------0-0--2-----3--3--3--|
    ^---------------------------------------------------| sometimes I just bend
this chord to get the same effect
		  as the slide

---------------------------      MetallicA      ------------------------------
The Frayed Ends Of Sanity
-------------------------
                        THE FRAYED ENDS OF SANITY
                             By: METALLICA
                   From: ...AND JUSTICE FOR ALL (1988)

E-|------------------------------------------------------|
B-|------------------------------------------------------|
G-|------------------------------3-------(3)--3----------|
D-|---2------5-----2-----4----2--3--2----(3)--3/////2----|
A-|---2------5-----2-----4----2--1--2----(1)--1/////2----|
E-|---0------3-----0-----2----0-----0---------------0----|
                             OH  EE OH        EE    OH
   P.M.......|     P.M...|     PM    PM..|
E-|----------------------------------------------|
B-|----------------------------------------------|
G-|----------------------------------------------|
D-|--------------3-----------3-------------------|Repeat X3
A-|--------------1-----------1------4--------3\2-|
E-|--0--0--0--0------0----0------0--2--0--0--1\0-|
   Then
   PM........|     PM....|
E-|------------------------------------------------------|
B-|------------------------------------------------------|
G-|------------------------------------------------------|
D-|--------------3-----------3-----------3--3--------3---|
A-|--------------1-----------1-----------1--1--------1---|
E-|--0--0--0--0------0----0------------------------------|
   P.M.......|     P.M...|     PM    PM..|       PM......|  PM...|
E-|------------------------------------------------------------------------------------|
B-|------------------------------------------------------------------------------------|
G-|------------------------------------------------------------------------------------|
D-|--------------3-----------3-----------------------------3--------3-x-x-3-3--3-3---3-|
A-|--------------1-----------1------4--------3\2-----------1--------1-x-x-1-1--1-1---1-|
E-|--0--0--0--0------0----0------0--2--0--0--1\0--0--0--0----0---0---------------------|
   P.M.......|     P.M...|     PM    PM..|
E-|----------------------------------------------|
B-|----------------------------------------------|
G-|----------------------------------------------|
D-|--------------3-----------3-------------------|
A-|--------------1-----------1------4--------3---|
E-|--0--0--0--0------0----0------0--2--0--0--1---|

Verses Riff1
    P.M......|     P.M.|    P.M.|    P.M..|  P.M..|           BEND
E-|--------------------------------------------------------------------|
B-|--------------------------------------------------------------------|
G-|--------------------------------------------------------------------|
D-|--2----------2-----------------------------------------------/\-----|
A-|--2----------2---------7--------7--------7---------7--------/--\----|
E-|--0--0---0-------0--0--6--0--0--6--0--0--5-0---0---5--0--0-2----2---|
    NEVER HUNGER NEVER PROSPER I HAVE FALLEN PREY  TO  FAILURE_______
    P.M.......|  P.M...|   P.M   P.M..|      P.M.........|   P.M.|  P.M  P.M.|
E-|------------------------------------------------------------------------------|
B-|------------------------------------------------------------------------------|
G-|------------------------------------------------------------------------------|
D-|-------------3---------3--------------------------------3-------1-------------|
A-|-------------1---------1-----4--------3\2---------------1-------3----2-------3|
E-|-0--0--0--0-----0---0-----0--2--0--0--1-0---0--0--0--0-----0--0---0--4-0--0--1|

    P.M......|     P.M.|    P.M.|    P.M..|  P.M..|           BEND
E-|---------------------------------------------------------------------------|
B-|---------------------------------------------------------------------------|
G-|---------------------------------------------------------------------------|
D-|--2----------2-----------------------------------------------/\------------|
A-|--2----------2---------7--------7--------7---------7--------/--\-----------|
E-|--0--0---0-------0--0--6--0--0--6--0--0--5-0---0---5--0--0-2----2----------|
   STRUGGLE WITHIN TRIGGERED AGAIN NOW THE CANDLE BURNS AT BOTH ENDS
   P.M.......|     P.M...|     PM    PM..|
E-|----------------------------------------------|
B-|----------------------------------------------|
G-|----------------------------------------------|
D-|--------------3-----------3-------------------|
A-|--------------1-----------1------4--------3---|
E-|--0--0--0--0------0----0------0--2--0--0--1---|

                               P.M.......|   P.M..|   P.M   P.M........|
E-|---------------------------------------------------------------------------|
B-|---------------------------------------------------------------------------|
G-|----4-----3-----2----------------------------------------------------------|
D-|----4-----3-----2--------6---------------3--------3------------------------|
A-|----2-----1-----0--------6---------------1--------1-----4----------3-------|
E-|-------------------------4---0--0--0--0-----0--0-----0--2--0--0----1-------|
   TWISTING TURNING UNDER SCHIZOPHRENIA
                                  PM.........|   PM.....|    PM    PM...|
E-|----------------------------------------------------------------------------|
B-|----------------------------------------------------------------------------|
G-|---4-----3-----2------------------------------------------------------------|repeat x2
D-|---4-----3-----2-----6----------------------3----------3--------------------|
A-|---2-----1-----0-----6----------------------1----------1-------4--------3\2-|
E-|---------------------4-----------0--0--0--0------0---0------0--2--0--0--1\0-|
   FALLING DEEP INTO DEMENTIA

    PM          PM...|          PM...|       PM..|             PM..|
E-|---------------------------------------------------------------------------|
B-|---------------------------------------------------------------------------|
G-|---------------------------------------------------------------------------|
D-|---------------------------------------------------------------------------|
A-|------5/5--7--------5-/5---7--------5---5--------5--6--7--8-------5-/5---7-|
E-|--0---3/3--5--0--0--3-/3---5--0--0--3---3--0--0--3--4--5--6--0--0-3-/3---5-|

   PM...|        PM...|      PM....|
E-|-----------------------------------------------|
B-|-----------------------------------------------|
G-|-----------------------------------------------|
D-|-----------------------------------------------|
A-|-------5--5--2--------5--5--------5--6--7--8---|
E-|-0--0-/3--3--0--0--0-/3--3--0--0--3--4--5--6---|

    CHORUS                                 P.M
E-|---------------------------------------------------------------------------|
B-|---------------------------------------------------------------------------|
G-|---------------------------------------------------------------------------|
D-|--2----------------4-----------------5---6---7---8----2-----------------4--|
A-|--2----------------4-----------------5---6---7---8----2-----------------4--|
E-|--0----------------2-----------------3---4---5---6----0-----------------2--|
   OLD HAB  -  ITS   RE - AP  -  PEAR_                  FIGHT - ING  THE  FEAR
                    P.M
E-|-----------------------------------------------------------------------------|
B-|-----------------------------------------------------------------------------|
G-|-----------------------------------------------------------------------------|
D-|--------------5---6----7---8----2--------------5---------------4-------------|
A-|--------------5---6----7---8----2--------------5---------------4-------------|
E-|--------------3---4----5---6----0--------------3---------------2-------------|
    OF FEAR                      GROW -  ING_ CON-SPIR-A-CY___    EV'- RY ------|
              PM                                          PM..................
E-|----------------------------------------------------------------------------|
B-|----------------------------------------------------------------------------|
G-|--------------------------------------7-------------------------------5---6-|
D-|--------5---6--7--8----2--------------7--------------5---6---7---8----5---6-|
A-|--------5---6--7--8----2--------------5--------------5---6---7---8----3---4-|
E-|--------3---4--5--6----0-----------------------------3---4---5---6----------|
   ONES  AF - TER ME      FRAYED ENDS OF SAN-I -  TY  HEAR THEM CALL-ING
    PM...|        PM....|
E-|---------------------------------------------------------------------------|
B-|---------------------------------------------------------------------------|
G-|-7---8---------------------------------------------------------------------|
D-|-7---8------5---6---7---8--------------------------------------------------|
A-|-5---6------5---6---7---8--------------------------------------------------|
E-|------------3---4---5---6--------------------------------------------------|
            HEAR THEM CALL-ING
   PM......|   PM.....|   PM       PM....|     PM...|   PM...|
E-|---------------------------------------------------------------------------|
B-|---------------------------------------------------------------------------|
G-|---------------------------------------------------------------------------|X 2
D-|----------3----------3------------------------------3--------3x-3-3--3-3--3|
A-|----------1----------1-------4-----------3\2--------1--------1x-1-1--1-1--1|
E-|-0--0--0-----0----0------0---2---0---0---1-0-0-0-0-----0--0----------------|
   ME
    P.M......|     P.M.|    P.M.|    P.M..|  P.M..|           BEND
E-|--------------------------------------------------------------------|
B-|--------------------------------------------------------------------|
G-|--------------------------------------------------------------------|
D-|--2----------2-----------------------------------------------/\-----|
A-|--2----------2---------7--------7--------7---------7--------/--\----|
E-|--0--0---0-------0--0--6--0--0--6--0--0--5-0---0---5--0--0-2----2---|
    BIRTH OF TERROR DEATH OF MUCH MORE I'M THE SLAVE OF FEAR,MY CAPTOR
    P.M.......|  P.M...|   P.M   P.M..|      P.M.........|   P.M.|  P.M  P.M.|
E-|------------------------------------------------------------------------------|
B-|------------------------------------------------------------------------------|
G-|------------------------------------------------------------------------------|
D-|-------------3---------3--------------------------------3-------1-------------|
A-|-------------1---------1-----4--------3\2---------------1-------3----2-------3|
E-|-0--0--0--0-----0---0-----0--2--0--0--1-0---0--0--0--0-----0--0---0--4-0--0--1|

    P.M......|     P.M.|    P.M.|    P.M..|  P.M..|           BEND
E-|---------------------------------------------------------------------------|
B-|---------------------------------------------------------------------------|
G-|---------------------------------------------------------------------------|
D-|--2----------2-----------------------------------------------/\------------|
A-|--2----------2---------7--------7--------7---------7--------/--\-----------|
E-|--0--0---0-------0--0--6--0--0--6--0--0--5-0---0---5--0--0-2----2----------|
   NEVER WARNINGS SPREADING ITS WINGS AS I WAIT FOR THE HORROR SHE BRINGS
   P.M.......|     P.M...|     PM    PM..|
E-|----------------------------------------------|
B-|----------------------------------------------|
G-|----------------------------------------------|
D-|--------------3-----------3-------------------|
A-|--------------1-----------1------4--------3---|
E-|--0--0--0--0------0----0------0--2--0--0--1---|

                               P.M.......|   P.M..|   P.M   P.M........|
E-|---------------------------------------------------------------------------|
B-|---------------------------------------------------------------------------|
G-|----4-----3-----2----------------------------------------------------------|
D-|----4-----3-----2--------6---------------3--------3------------------------|
A-|----2-----1-----0--------6---------------1--------1-----4----------3-------|
E-|-------------------------4---0--0--0--0-----0--0-----0--2--0--0----1-------|
   LOSS OF INTEREST,QUESTION,WONDER
                                  PM.........|   PM.....|    PM    PM...|
E-|----------------------------------------------------------------------------|
B-|----------------------------------------------------------------------------|
G-|---4-----3-----2------------------------------------------------------------|repeat x2
D-|---4-----3-----2-----6----------------------3----------3--------------------|
A-|---2-----1-----0-----6----------------------1----------1-------4--------3\2-|
E-|---------------------4-----------0--0--0--0------0---0------0--2--0--0--1\0-|
  WAVES OF FEAR THE PULL ME UNDER

    PM          PM...|          PM...|       PM..|             PM..|
E-|---------------------------------------------------------------------------|
B-|---------------------------------------------------------------------------|
G-|---------------------------------------------------------------------------|
D-|---------------------------------------------------------------------------|
A-|------5/5--7--------5-/5---7--------5---5--------5--6--7--8-------5-/5---7-|
E-|--0---3/3--5--0--0--3-/3---5--0--0--3---3--0--0--3--4--5--6--0--0-3-/3---5-|

   PM...|        PM...|      PM....|
E-|-----------------------------------------------|
B-|-----------------------------------------------|
G-|-----------------------------------------------|
D-|-----------------------------------------------|
A-|-------5--5--2--------5--5--------5--6--7--8---|
E-|-0--0-/3--3--0--0--0-/3--3--0--0--3--4--5--6---|

    CHORUS                                 P.M
E-|---------------------------------------------------------------------------|
B-|---------------------------------------------------------------------------|
G-|---------------------------------------------------------------------------|
D-|--2----------------4-----------------5---6---7---8----2-----------------4--|
A-|--2----------------4-----------------5---6---7---8----2-----------------4--|
E-|--0----------------2-----------------3---4---5---6----0-----------------2--|
   OLD HAB  -  ITS   RE - AP  -  PEAR_                  FIGHT - ING  THE  FEAR
                    P.M
E-|-----------------------------------------------------------------------------|
B-|-----------------------------------------------------------------------------|
G-|-----------------------------------------------------------------------------|
D-|--------------5---6----7---8----2--------------5---------------4-------------|
A-|--------------5---6----7---8----2--------------5---------------4-------------|
E-|--------------3---4----5---6----0--------------3---------------2-------------|
    OF FEAR                      GROW -  ING_ CON-SPIR-A-CY___    EV'- RY ------|
              PM                                          PM..................
E-|----------------------------------------------------------------------------|
B-|----------------------------------------------------------------------------|
G-|--------------------------------------7-------------------------------5---6-|
D-|--------5---6--7--8----2--------------7--------------5---6---7---8----5---6-|
A-|--------5---6--7--8----2--------------5--------------5---6---7---8----3---4-|
E-|--------3---4--5--6----0-----------------------------3---4---5---6----------|
   ONES  AF - TER ME      FRAYED ENDS OF SAN-I -  TY  HEAR THEM CALL-ING
    PM...|        PM....|
E-|---------------------------------------------------------------------------|
B-|---------------------------------------------------------------------------|
G-|-7---8---------------------------------------------------------------------|
D-|-7---8------5---6---7---8--------------------------------------------------|
A-|-5---6------5---6---7---8--------------------------------------------------|
E-|------------3---4---5---6--------------------------------------------------|
            HEAR THEM CALL-ING
   PM......|   PM.....|   PM       PM....|     PM...|   PM...|
E-|---------------------------------------------------------------------------|
B-|---------------------------------------------------------------------------|
G-|---------------------------------------------------------------------------|X 2
D-|----------3----------3------------------------------3--------3x-3-3--3-3--3|
A-|----------1----------1-------4-----------3\2--------1--------1x-1-1--1-1--1|
E-|-0--0--0-----0----0------0---2---0---0---1-0-0-0-0-----0--0----------------|
   ME

           PM......|            PM.........|
E-|----------------------------------------------------|
B-|----------------------------------------------------|
G-|----------------------------------------------------|X 4
D-|-2-h4p-2--------------------------------------------|
A-|----------5---4-2---2-h-4-p-2--------------2--5-----|
E-|-------------------------------5---3--2--5----------|

                      PM......|          PM...........|
E-|-----------------------------------------------------------|
B-|-----------------------------------------------------------|
G-|-----------------------------------------------------------|
D-|------------4h6p4------------------------------------------|
A-|------4-------------7--6--4----4h6p4-----------------4---7-|
E-|---------------------------------------7--5---4---7--------|

           PM......|            PM.........|
E-|----------------------------------------------------|
B-|----------------------------------------------------|
G-|----------------------------------------------------|
D-|-2-h4p-2--------------------------------------------|
A-|----------5---4-2---2-h-4-p-2--------------2--5-----|
E-|-------------------------------5---3--2--5----------|

                                        PM......|         PM............|
E-|--------------|------------------------------------------------------------|
B-|--------------|------------------------------------------------------------|
G-|--------------|-------------2h4p2------------------------------------------|
D-|--------------|---0---------2h4p2-----4--2--0---0h2p0-------------------0h4|
A-|--------------|---2-------------------5--4--2---2h4p0---4---2---0---4---2h5|
E-|----2-----2---|-----------------------------------------5---3---2---5------|

                    PM.......|         PM.............|
E-|----------------------------------------------------------|
B-|----------------------------------------------------------|
G-|-----------4h6p4------------------------------------------|
D-|--2--------4h6p4---6--4--2----2h4p2-------------------2h6-|
A-|--4----------------7--6--4----4h6p4---6---4---2---6---4h7-|
E-|--------------------------------------7---5---4---7-------|

                  PM......|              PM......|                 PM......|
E-|---------------------------------------------------------------------------|
B-|---------------------------------------------------------------------------|
G-|-----5-h7p-5------------------5-h7p-5------------------6-h8p-6-------------|
D-|-7---5-h7p-5---7--5--3----7---5-h7p-5--7--5--3------8--6-h8p-6---8--6--4---|
A-|-5-------------8--7--5----5------------8--7--5------6------------9--8--6---|
E-|---------------------------------------------------------------------------|

                PM......|                                              PM.....
E-|----------------------|----------------------------------------------------|
B-|----------------------|---8---7-h8p-7---8---7-h8p-7---8-p-7----7-h8p-7-----|
G-|----6-h8p-6-----------|---9---7-h9p-7---9---7-h9p-7---9-p-7----7-h9p-7----9|
D-|-8--6-h8p-6---8--6--4-|---9---7-h9p-7---9---7-h9p-7---9-p-7----7-h9p-7---10|
A-|-6------------9--8--6-|--------------------------------------------------10|
E-|----------------------|----------------------------------------------------|

   PM....|           PM...............|
E-|---------------------------------------------------------------------------|
B-|---------------------------------------------------------------------------|
G-|---------4--h5p-4---------------------4--7----9----------------------------|
D-|-7--5----5--h7p-5---7--5--4---4--7----5--7----9----------------------------|
A-|-7--5----7--h9p-7---9--7--5---5--9----7--9---10----------------------------|
E-|-9--7--------------10--8--7---7--10----------------------------------------|

   PM..........|       PM......|        PM....|      PM...|    PM..|
E-|---------------------------------------------------------------------------|
B-|---------------------------------------------------------------------------|
G-|---------------------------------------------------------------------------|
D-|---------------------------------------------------------------------------|
A-|--------------7p5h7-----------7p5h7----------7p5h7-------------------------|
E-|-0---0-0-0-0---------0--0--0----------0-0-0---------0--0--7--0--0----------|

      PM...|       PM......|     PM......|       PM..|     PM
E-|-----------------------------------------------------------|
B-|-----------------------------------------------------------|
G-|-----------------------------------------------------------|
D-|-----------------------------------------------------------|
A-|-----------7p5h7---------7p5h7----------7p5h7--------6-----|
E-|-6--0-0-0--------0--0--0-------0--0--0---------7--7------6-|

        PM....|       PM.....|        PM.....|       PM......|         PM....|
E-|---------------------------------------------------------------------------|
B-|---------------------------------------------------------------------------|
G-|---------------------------------------------------------------------------|
D-|---------------------------------------------------------------------------|
A-|-5p0---------7p5h7-----------7p5h-7---------7p5h-7-------------------------|
E-|------0-0-0---------0--0--0----------0-0-0----------0-0--7--0-0--6--0-0-0--|

          PM...|      PM.....|                                            WB
E-|--------------------------------------------------|------------------------|
B-|--------------------------------------------------|----------------------//|
G-|--------------------------------------------------|--------------------5//-|
D-|--------------------------------------------------|--------------------7/--|
A-|-7p5h7--------7p5h7----------7p5h7--------6-------|---7-----------7p5------|
E-|-------0-0-0--------0--0--0---------7--7-----6--6-|------0--0--0-----------|

   LEAD GUITAR PLAYS SOLO, RHYTHM PLAYS THE RHYTHM (UNDERNEATH)
E-|-t14p10p7----t14p10p7---t14--(14)p10p7--t14p10p7-t14/15p10p7-t14/15p10p7---|
B-|---------------------------------------------------------------------------|
G-|---------------------------------------------------------------------------|
D-|---------------------------------------------------------------------------|
A-|---------------------------------------------------------------------------|
E-|---------------------------------------------------------------------------|


E-|-t14/15p10p7h(10)-t17p10p7-t14/15p10p7--t14t14p10p7-t14/15p10p7-t14-t14p10p|
B-|---------------------------------------------------------------------------|
G-|---------------------------------------------------------------------------|
D-|---------------------------------------------------------------------------|
A-|---------------------------------------------------------------------------|
E-|---------------------------------------------------------------------------|


E-|-7-t15p10p7-t14p10p7-t15p10p7-t14p10p7-t15p10p7-t14p10p7-t15p10p7----5-----|
B-|---------------------------------------------------------------------5-----|
G-|---------------------------------------------------------------------------|
D-|---------------------------------------------------------------------------|
A-|---------------------------------------------------------------------------|
E-|---------------------------------------------------------------------------|

                 B                        B       B
E-|---------------------------------------/------/\/\full/\/\-----------------|
B-|-h-2--(2)/---17/\/\/\full/\/\/\-----17/----17/---------------(17)--------17|
G-|---------------------------------------------------------------------------|
D-|---------------------------------------------------------------------------|
A-|---------------------------------------------------------------------------|
E-|---------------------------------------------------------------------------|

                                          B                             B
E-|-14---17p14-------14-------------------/-----------------------------/-----|
B-|--------------17------17p14--17p14--17/---14------------------------/------|
G-|----------------------------------------------16--14--16p14---14-16/-------|
D-|------------------------------------------------------------16-------------|
A-|---------------------------------------------------------------------------|
E-|---------------------------------------------------------------------------|

                             B                                 B
E-|-----------17p14----------/---------------------------------/--------------|
B-|-14-17p14--------17p14---/---14h17p14----------------------/--14-14h17p14--|
G-|-----------------------17-------------16---14-------14--16/----------------|
D-|-----------------------------------------------16--------------------------|
A-|---------------------------------------------------------------------------|
E-|---------------------------------------------------------------------------|

       B
E-|----/----------------------------------------------------------------------|
B-|---/--14-17p14----14-17p14----14-17p14----14h17p14----14h17p-14----14h1p14-|
G-|-17------------17----------17----------16----------16-----------16---------|
D-|---------------------------------------------------------------------------|
A-|---------------------------------------------------------------------------|
E-|---------------------------------------------------------------------------|


E-|---------------------------------------------------------------------------|
B-|-----17p14---14--x--x-x-14---14-(14)--16---14---------------16----14-------|
G-|-16----------14--x--x-x-14---14-(14)--16---14---------------16----14-------|
D-|-------------14--x--x-x-14---14-(14)--------------------14---------------14|
A-|---------------------------------------------------------------------------|
E-|---------------------------------------------------------------------------|


E-|---------------------------------------------------------------------------|
B-|-16--17p14h17p14h17p14h17p14h17p14-----------------------------------------|
G-|-16----------------------------------------12\11------11\9------9\7-----7\6|
D-|--------------------------------------14----------12--------11-------9-----|
A-|---------------------------------------------------------------------------|
E-|---------------------------------------------------------------------------|


E-|---------------------------------------------------------------------------|
B-|---------------------------------------------------------------------------|
G-|----6\4-----4\2-----2\0----------------------------------------------------|
D-|-7-------6-------4-------2---0--2/4----2-----4----5---7---(7)----(7)-----7-|
A-|---------------------------------------------------------------------------|
E-|---------------------------------------------------------------------------|

                BD             BD               BD                BD
E-|------------/\--------------/\---------------/\----------------/\----------|
B-|-----------/--\------------/--\-------------/--\--------------/--\---------|
G-|-6---7----7----(7)p5--7---7---(7)p5----7---7---(7)p5----7----7----(7)p5---7|
D-|---------------------------------------------------------------------------|
A-|---------------------------------------------------------------------------|
E-|---------------------------------------------------------------------------|

         BD
E-|------/\------------8--7--5---------/10-9-7---------/12-10-9--------/14-12-|
B-|-----/--\--------------------9--7--5----------10-9-7---------12-10-8-------|
G-|----7---(7)p5-(5)----------------------------------------------------------|
D-|---------------------------------------------------------------------------|
A-|---------------------------------------------------------------------------|
E-|---------------------------------------------------------------------------|


E-|-10---------/15-14-12---------/17-15-14--------------19-17-15---------/21--|
B-|-----14-12-9----------15-14-12----------17-15-14--------------19-17-15-----|
G-|-------------------------------------------------16------------------------|
D-|---------------------------------------------------------------------------|
A-|---------------------------------------------------------------------------|
E-|---------------------------------------------------------------------------|


E-|-19-17------------20p17----27-20p17-20p17----17-20p17-20p17----17-20p17-20p|
B-|-------21p19p(17)-------20----------------20----------------20-------------|
G-|---------------------------------------------------------------------------|
D-|---------------------------------------------------------------------------|
A-|---------------------------------------------------------------------------|
E-|---------------------------------------------------------------------------|

                                        BD\          BD\            B
E-|-17---17-20p17-20p17----17-20p17-20--20201717-202020-(20)p17-20--20--17-20-|
B-|----20---------------20----------------------------------------------------|
G-|---------------------------------------------------------------------------|
D-|---------------------------------------------------------------------------|
A-|---------------------------------------------------------------------------|
E-|---------------------------------------------------------------------------|

     B        B
E-|-20-17h20-20-17h2020-17h201720p17---17h20p17h20p17-17h2017h20p17----17h20p-|
B-|---------------------------------20------------------------------20--------|
G-|---------------------------------------------------------------------------|
D-|---------------------------------------------------------------------------|
A-|---------------------------------------------------------------------------|
E-|---------------------------------------------------------------------------|

                      END OF LEAD SOLO
           B       B        B       B
E-|-17--17-/-17-17-/-17--17-/17-17-/|
B-|-----20/-----20/------20/----20/-|
G-|---------------------------------|
D-|---------------------------------|
A-|---------------------------------|
E-|---------------------------------|

    RYHTHM PLAYED DURING SOLO
   PM.........................................................................
E-|---------------------------------------------------------------------------|
B-|---------------------------------------------------------------------------|
G-|---------------------------------------------------------------------------|
D-|---------------------------------------------------------------------------|
A-|---------------------------------------------------------------------------|
E-|-0----0--0--0------0--0----0---0--0--7--0--0--6---0--0---0---0--0--0--0--0-|

   PM......|                               PM........................|      PM
E-|---------------------------------------------------------------------------|
B-|---------------------------------------------------------------------------|
G-|---------------------------------------------------------------------------|
D-|--------------------------------------------------------------------7/-8---|
A-|-----------------------------------------------6--0---5---0---------7/-8---|
E-|-7--0--0----------------------------------6--0---------------6--0---5/-6--0|

         PM...........|   PM    PM...................|  PM.|
E-|---------------------------------------------------------------------------|
B-|---------------------------------------------------------------------------|
G-|---------------------------------------------------------------------------|
D-|---------------------9-----4-----------------------------------------------|
A-|---------------------9-----4-----------------------4---------3-------------|
E-|------0--0--0--0--0--7--0--2--2-2-2----2-2-2---2-2----2-2-------2-2-2--2-2-|


E-|---------------------------------------------------------------------------|
B-|---------------------------------------------------------------------------|
G-|---------------------------------------------------------------------------|
D-|-------------------------------------------------2-------------------------|
A-|----------4-------3-----------------------4------2-------------------------|
E-|-2---2--2---2--2-----2-2-2----2-2-2---2-2---2-2--0--0-0-0----0-0-0---0-0-7-|

                                                                            PM
E-|---------------------------------------------------------------------------|
B-|---------------------------------------------------------------------------|
G-|---------------------------------------------------------------------------|
D-|---------------------------------------------------------------------------|
A-|---------------------------------------------------------------------------|
E-|-0-0---6---0-0-0-----0-0-0--0-0-7--0-0---6---0-0-0---0-0-0--0-0-7--0-0---6-|

     PM........................|                                 PM...........
E-|---------------------------------------------------------------------------|
B-|---------------------------------------------------------------------------|
G-|---------------------------------------------------------------------------|
D-|------------------------------8---------------------9------4---------------|
A-|-------6---0---5---0----------8---------------------9------4---------------|
E-|---0-------------------6---0--6---0---0-0-0---0--0--7--0---2---2-2-2--2-2-2|

    PM..|
E-|---------------------------------------------------------------------------|
B-|---------------------------------------------------------------------------|
G-|---------------------------------------------------------------------------|
D-|---------------------------------------------------------------------------|
A-|-------4-------3----------------------4------------------------------------|
E-|--2-2-----2-2-----2-2-2---2-2-2---2-2----2-2-------------------------------|


E-|---------------------------------------------------------------------------|
B-|---------------------------------------------------------------------------|
G-|---------------------------------------------------------------------------|
D-|-2-------------------------------------------------------------------------|
A-|-2-------------------------------------------------------------------------|
E-|-0---0-0-0-----0-0-0---0-0-7---0-0--6----0-0-0---0-0-0--0-0-7--0-0---------|

            PM....................|
E-|---------------------------------------------------------------------------|
B-|---------------------------------------------------------------------------|
G-|---------------------------------------------------------------------------|
D-|------4--------------------------------------------------------------------|
A-|------4-------------------------4-------3---------------------4------------|
E-|------2---2-2-2----2-2-2----2-2-----2-2----2-2-2---2-2-2--2-2----2--2------|

                  PM...................|   PM....|     PM...................|
E-|---------------------------------------------------------------------------|
B-|---------------------------------------------------------------------------|
G-|---------------------------------------------------------------------------|
D-|------------2--------------------------------------------------------------|
A-|------------0---0-0-0----0-0-0---0-0--7--0--0----6---0-0-0---0-0-0---0-0--7|
E-|------------0--------------------------------------------------------------|

   PM                               PM.................................|
E-|---------------------------------------------------------------------------|
B-|---------------------------------------------------------------------------|
G-|---------------------------------------------------------------------------|
D-|------------------------------------------------------------------------8--|
A-|-0--0------------------------------6---0-------5------5-----6p-----0----8--|
E-|-------------------------------------------4------3---------------------6--|

         PM...............|   PM..|      PM....................|  PM..|     PM
E-|---------------------------------------------------------------------------|
B-|---------------------------------------------------------------------------|
G-|---------------------------------------------------------------------------|
D-|---------------------------------------------------------------------------|
A-|-------0---0-0-0----0-0--7--0-0---6----0-0-0----0-0-0---0-0--7--0-0--6---0-|
E-|---------------------------------------------------------------------------|

   PM...............|  PM                                    PM...............
E-|---------------------------------------------------------------------------|
B-|---------------------------------------------------------------------------|
G-|---------------------------------------------------------------------------|
D-|---------------------------------------------------------------------------|
A-|-0-0--0-0-0--0-0--7--0-0-----------------------------------6---0------5---5|
E-|------------------------------------------------------------------4----3---|

                     END OF RHYTHM
   PM......|       PM......|
E-|----------------------------|
B-|----------------------------|
G-|-----------9-11-------------|
D-|-----------9-11----------2--|
A-|-6p---0----7--9----------2--|
E-|-----------------2-2-2-2-0--|

        PM....|   PM    PM....|   PM         PM...........|
E-|----------------------------------------------------------|
B-|----------------------------------------------------------|
G-|--*------------------------------------------------------*|X 3
D-|--*5----------7-----9---------5------7---9---------------*|
A-|---7----------5-----7---------7------5---7----------------|
E-|------0--0------0-----0---0-----0----------0---0---0--0---|

     PM....|   PM   PM....|                             PM....|         PM....
E-|---------------------------------------------------------------------------|
B-|---------------------------------------------------------------------------|
G-|--------------------------------------4---4--------------------------------|
D-|-5--------7-----9--------5------7/9---4---4----2h4p2-----------------------|
A-|-7--------5-----7--------7------5/7---2---2-----------5-4-2---2h-4p2-------|
E-|----0--0-----0-----0--0------0----------------------------------------5-3--|

   PM...|                            PM..........|                        PM
E-|---------------------------------------------------------------------------|
B-|---------------------------------------------------------------------------|
G-|--------------------------------------------------------------7h-9p-7------|
D-|--------------2h4p2-------------------------------------------7h-9p-7---9--|
A-|------2h5-----------5-4-2---2h4p2---------------2h-5-------------------10--|
E-|-2--5-------------------------------5--3--2--5-----------------------------|

    PM....|
E-|---------------------------------------------------------------------------|
B-|---------------------------------------------------------------------------|
G-|---------------------------------------------------------------------------|
D-|--7---5----5h7p5----------------------5h--9--------------------------------|
A-|--9---7----7h9p7----9---7---5----9----7h-10--------------------------------|
E-|-------------------10---8---7---10-----------------------------------------|

       PM....|   PM    PM....|  PM       PM..........|
E-|---------------------------------------------------|
B-|---------------------------------------------------|
G-|-*------------------------------------------------*|
D-|-*-5--------7-----9--------5-----7--7-------------*|
A-|---7--------5-----7--------7-----5--9--------------|
E-|------0--0-----0-----0--0-----0--------0--0--0--0--|

         PM                        PM......|         PM.........|
E-|----------------------------------------------------------------------------|
B-|----------------------------------------------------------------------------|
G-|-----------------9----9----2h4p2--------------------------------------2h4p2-|
D-|----5------7/9---9----9----------5--4--2---2h-4p2--------------2---5--------|
A-|----7------5/7---7----7----------------------------5--3--2--5---------------|
E-|-------0--------------------------------------------------------------------|

     PM......|          PM.........|                     PM.........|
E-|---------------------------------------------------------------------------|
B-|---------------------------------------------------------------------------|
G-|--------------------------------------------------2h4p2--------------------|
D-|---5--4--2-----2h4p2-------------2--h5------------2h4p2---4--2--0---0-h2p0-|
A-|----------------------5--3--2--5--------------------------5--4--2---2-h4p2-|
E-|---------------------------------------------------------------------------|

    PM.....................|                  PM......|
E-|---------------------------------------------------------------------------|
B-|---------------------------------------------------------------------------|
G-|--------------------------4----4----2h4p2----------------------------------|
D-|------------------0---4---4----4----2h4p2---4--2--0----0h2p0--------------0|
A-|---4---2---0---4--2---5---2----2------------5--4--2----2h4p2---4--2--0--4--|
E-|---5---3---2---5-----------------------------------------------5--3--2--2-1|

                                                       PM......|  PM...|   PM
E-|------------------------------------------------|--------------------------|
B-|------------------------------------------------|--------------------------|
G-|----4---4---3---3----------------3--3---------3-|--------------------------|
D-|-4--4---4---3---3----------------3--3---------3-|------------3-------3-----|
A-|----2---2---1---1----------------1--1---------1-|------------1-------1----4|
E-|-0----------------------------------------------|----0-0-0-0----0--0----0-2|

   PM...|     PM...|  PM...|  PM PM...|       PM....|   PM..|
E-|---------------------------------------------------------------------------|
B-|---------------------------------------------------------------------------|
G-|----------------------------------------r----------------------------------|
D-|-----------------3-------3--------------e----------3--------3-x-x-3-3-3-3-3|
A-|-------3\2-------1-------1----4-------3\s\2--------1--------1-x-x-1-1-1-1-1|
E-|-0--0--1-0-0-0-0----0--0----0-2-0-0---1\t\0-0-0-0-----0--0-----------------|
    P.M......|     P.M.|    P.M.|    P.M..|  P.M..|           BEND
E-|--------------------------------------------------------------------|
B-|--------------------------------------------------------------------|
G-|--------------------------------------------------------------------|
D-|--2----------2-----------------------------------------------/\-----|
A-|--2----------2---------7--------7--------7---------7--------/--\----|
E-|--0--0---0-------0--0--6--0--0--6--0--0--5-0---0---5--0--0-2----2---|
     INTO RUIN I AM SINKING    HOSTAGE  OF  THIS   NAMELESS   FEELING
    P.M.......|  P.M...|   P.M   P.M..|      P.M.........|   P.M.|  P.M  P.M.|
E-|------------------------------------------------------------------------------|
B-|------------------------------------------------------------------------------|
G-|------------------------------------------------------------------------------|
D-|-------------3---------3--------------------------------3-------1-------------|
A-|-------------1---------1-----4--------3\2---------------1-------3----2-------3|
E-|-0--0--0--0-----0---0-----0--2--0--0--1-0---0--0--0--0-----0--0---0--4-0--0--1|

    P.M......|     P.M.|    P.M.|    P.M..|  P.M..|           BEND
E-|---------------------------------------------------------------------------|
B-|---------------------------------------------------------------------------|
G-|---------------------------------------------------------------------------|
D-|--2----------2-----------------------------------------------/\------------|
A-|--2----------2---------7--------7--------7---------7--------/--\-----------|
E-|--0--0---0-------0--0--6--0--0--6--0--0--5-0---0---5--0--0-2----2----------|
     HELL IS SET FREE, FLOODED I'LL BE FELL THE UNDERTOW INSIDE ME
   P.M.......|     P.M...|     PM    PM..|
E-|----------------------------------------------|
B-|----------------------------------------------|
G-|----------------------------------------------|
D-|--------------3-----------3-------------------|
A-|--------------1-----------1------4--------3---|
E-|--0--0--0--0------0----0------0--2--0--0--1---|

                               P.M.......|   P.M..|   P.M   P.M........|
E-|---------------------------------------------------------------------------|
B-|---------------------------------------------------------------------------|
G-|----4-----3-----2----------------------------------------------------------|
D-|----4-----3-----2--------6---------------3--------3------------------------|
A-|----2-----1-----0--------6---------------1--------1-----4----------3-------|
E-|-------------------------4---0--0--0--0-----0--0-----0--2--0--0----1-------|
   HEIGHT,HELL,TIME,HASTE,TERROR,TENSION
                                  PM.........|   PM.....|    PM    PM...|
E-|----------------------------------------------------------------------------|
B-|----------------------------------------------------------------------------|
G-|---4-----3-----2------------------------------------------------------------|repeat x2
D-|---4-----3-----2-----6----------------------3----------3--------------------|
A-|---2-----1-----0-----6----------------------1----------1-------4--------3\2-|
E-|---------------------4-----------0--0--0--0------0---0------0--2--0--0--1\0-|
  LIFE,DEATH,WANT,WASTE,MASS DEPRESION

    PM          PM...|          PM...|       PM..|             PM..|
E-|---------------------------------------------------------------------------|
B-|---------------------------------------------------------------------------|
G-|---------------------------------------------------------------------------|
D-|---------------------------------------------------------------------------|
A-|------5/5--7--------5-/5---7--------5---5--------5--6--7--8-------5-/5---7-|
E-|--0---3/3--5--0--0--3-/3---5--0--0--3---3--0--0--3--4--5--6--0--0-3-/3---5-|

   PM...|        PM...|      PM....|
E-|-----------------------------------------------|
B-|-----------------------------------------------|
G-|-----------------------------------------------|
D-|-----------------------------------------------|
A-|-------5--5--2--------5--5--------5--6--7--8---|
E-|-0--0-/3--3--0--0--0-/3--3--0--0--3--4--5--6---|

    CHORUS                                 P.M
E-|---------------------------------------------------------------------------|
B-|---------------------------------------------------------------------------|
G-|---------------------------------------------------------------------------|
D-|--2----------------4-----------------5---6---7---8----2-----------------4--|
A-|--2----------------4-----------------5---6---7---8----2-----------------4--|
E-|--0----------------2-----------------3---4---5---6----0-----------------2--|
   OLD HAB  -  ITS   RE - AP  -  PEAR_                  FIGHT - ING  THE  FEAR
                    P.M
E-|---------------------------------------------------------------------------|
B-|---------------------------------------------------------------------------|
G-|---------------------------------------------------------------------------|
D-|--------------5---6----7---8----2--------------5---------------4-----------|
A-|--------------5---6----7---8----2--------------5---------------4-----------|
E-|--------------3---4----5---6----0--------------3---------------2-----------|
    OF FEAR                      GROW -  ING_ CON-SPIR-A-CY___    MY -SELF
              PM                                          PM..................
E-|----------------------------------------------------------------------------|
B-|----------------------------------------------------------------------------|
G-|--------------------------------------7-------------------------------5---6-|
D-|--------5---6--7--8----2--------------7--------------5---6---7---8----5---6-|
A-|--------5---6--7--8----2--------------5--------------5---6---7---8----3---4-|
E-|--------3---4--5--6----0-----------------------------3---4---5---6----------|
   IS    AF - TER ME      FRAYED ENDS OF SAN-I -  TY  HEAR THEM CALL-ING
    PM...|        PM....|
E-|---------------------------------------------------------------------------|
B-|---------------------------------------------------------------------------|
G-|-7---8---------------------------------------------------------------------|
D-|-7---8------5---6---7---8--------------------------------------------------|
A-|-5---6------5---6---7---8--------------------------------------------------|
E-|------------3---4---5---6--------------------------------------------------|
            HEAR THEM CALL-ING
   PM......|   PM.....|   PM       PM....|     PM...|   PM...|
E-|---------------------------------------------------------------------------|
B-|---------------------------------------------------------------------------|
G-|---------------------------------------------------------------------------|X 2
D-|----------3----------3------------------------------3--------3x-3-3--3-3--3|
A-|----------1----------1-------4-----------3\2--------1--------1x-1-1--1-1--1|
E-|-0--0--0-----0----0------0---2---0---0---1-0-0-0-0-----0--0----------------|
   ME

    CODA                                                                 PM...
E-|---------------------------------------------------------------------------|
B-|---------------------------------------------------------------------------|
G-|--------------7-------7-7--------------------------------7-----------------|
D-|-2---2-2------7-------7-7----5---4---7---8----2----------7----------5-6-7-8|
A-|-2---2-2------5-------5-5----5---6---7---8----2----------5----------5-6-7-8|
E-|-0---0-0---------------------3---6---5---6----0---------------------3-4-5-6|
   FRAYED ENDS OF SANITY_____ HEAR THEM CALLING,FRAYED ENDS OF SANITY,HEAR THEM CALLING
   PM......|   PM.|    PM.........|    PM....|       PM.........|    PM......|
E-|---------------------------------------------------------------------------|
B-|---------------------------------------------------------------------------|
G-|-5-6-7-8-------------------------------------------------------------------|
D-|-5-6-7-8--5-6-7-8-----------------3---------3------------------------------|
A-|-3-4-5-6--5-6-7-8-----------------1---------1---------4--------3\2---------|
E-|----------3-4-5-6----0--0--0--0-------0--0---------0--2--0--0--1\0--0--0--0|
            HEAR THEM
            CALLING ME
       PM...|      PM.........|    PM.....|   PM....|    PM......|    PM....|
E-|---------------------------------------------------------------------------|
B-|---------------------------------------------------------------------------|
G-|---------------------------------------------------------------------------|
D-|--3---------3----------------------------3---------3----------------------3|
A-|--1---------1-------4--------3\2---------1---------1-----4------3\2-------1|
E-|-----0--0--------0--2--0--0--1\0--0-0-0-----0---0------0-2-0-0--1\0-0-0-0--|
    PM....|                    PM...|    PM......|    PM......|      PM.....|
E-|---------------------------------------------------------------------------|
B-|---------------------------------------------------------------------------|
G-|---------------------------------------------------------------------------|
D-|---------3--X-X-X-3-X-3-X-3--------3------------3-------------------------3|
A-|---------1--X-X-X-1-X-1-X-1--------1------------1------------3\2----------1|
E-|--0---0-----X-X-X---X---X----0--0-------0--2P0------0-2-0-0--1\0---0-0-0---|

     PM.....|   PM.......|      PM......|   PM....|      PM.........|
E-|---------------------------------------------------------------------------|
B-|---------------------------------------------------------------------------|
G-|---------------------------------------3--------3--------------------------|
D-|-----------3---------------------------3--------3--------------------------|
A-|-----------1-----4------3\2------------1--------1---------4--------3\2-----|
E-|----0---0------0-2-0-0--1\0---0--0--0------0--0--------0--2--0--0--1\0-----|

   PM.....................|
E-|-------------------------------|
B-|-------------------------------|
G-|-------------------------------|
D-|-------------------------------|
A-|-2-2-2-2-2-2-2-2-2-2-2-2-0-4-2-|
E-|-0-0-0-0-0-0-0-0-0-0-0-0---2-0-|

        PM...| PM  PM...| PM      PM.......|
E-|------------------------------------------|
B-|------------------------------------------|
G-|-*---------------------------------------*|X 3
D-|-*-5-------7---9------5-----7-9----------*|
A-|---7-------5---7------7-----5-7-----------|
E-|------0--0---0---0--0----0-------0-0-0-0--|

      PM....|   PM   PM      PM      PM          PM...|  PM  PM....|  PM
E-|---------------------------------------------------------------------------|
B-|---------------------------------------------------------------------------|
G-|-----------7----9------------7--9-----------7---------------------7---7---9|
D-|--5--------7----9--------5---7--9-----------5-------7----9--------5---7---9|
A-|--7--------5----7--------7---5--7-----------7-------5----7--------7---5---7|
E-|-----0--0-----0----0--0----0-------0--0--0-----0--0----0----0--0----0-----0|


E-|------------------|    B=BEND                  /     /\--|
B-|---------------------------------------------------------|   WB=WHAMMT BAR BEND UP /OR / \=BEND
G-|------------9-----|    H=HAMER ON           -------------|     /    \
D-|------------9--------------------------------------------|    P=PULL OFF
A-|------------7-----|    T=TAP-----------------------------|                /\/\=TREMELO PICKING
E-|------------0-----|    /=SLIDE---------------------------|              X=MUFFLE STRINGS
                                               BD=BEND UP THEN DOWN TO A
                                                  NOTE

---------------------------      MetallicA      ------------------------------
"To Live is to Die"   by: Metallica    (transcribed by: Michael Alford)
====================================

I will first give the following "Rhythm Figures", then list the order in
which they come.

Rhy. Fig. 1*
                                                              H P       **harm
-7----(7-------------------(7-----10-|-10-----10---------------------0-0--12-|
-7----)7--7-----------7----)7-----8--|-10---------------7-8-7^8^7----0-0--0--|
-7--7-(7-----7-----7-------(7--------|-11--------11-----7-7-7-----9--9-11-9--|
-9--9-----9----------------)9--------|-12--12--------------------------------|
-9-----------------------------------|-12------------12----------------------|
-7--------------7--------7-----7-----|-10------------------------------------|
*2 gtrs. arr. for 1                                 **harm. on 1st string only

   sl.                sl.                                  H P
-----------------7--7--/12-|--12-----12----------8--7--10-7^10^7--|
-----------8--8------------|--12---------12--12--0--5--0-------7--|
-----------9--9--7--7--/9--|--12---------9---9---0-----0----------|
---------------------------|--14--14-----9------------------------|
----/9--7------------------|--14---------10-----------------------|
--0------------------------|--0---0-------------------------------|
                                                  (end Rhy. Fig. 1)

Rhy. Fig. 2

------------------|----------------|------------------|-----------------|
-2--2\--x-x-------|-3--3--x-x--3\2-|-2--2\--x-x-------|-5--5---5\3--3\2-|
-3--3\--x-x-------|-4--4--x-x--4\3-|-3--3\--x-x-------|-6--6-x-6\4--4\3-|
-4--4\--x-x--2--4-|-5--5--x-x--5\4-|-4--4\--x-x--2--4-|-7--7-x-7\5--5\4-|
-4--4\--x-x--2--4-|-5--5--x-x--5\4-|-4--4\--x-x--2--4-|-7--7---7\5--5\4-|
-2--2\-------0--2-|-3--3-------3\2-|-2--2\-------0--2-|-5--5---5\3--3\2-|
                                                        (end Rhy. Fig. 2)

Rhy. Fig. 3

---------------------------|-----|---------------------|
---------------------------|-----|---------------------|
---------------------------|--%--|---------------------|
---------------------------|-----|---------------------|
--4-4-4-5-5-5-4-4-4-7-7-7--|-----|--4-5-4-7-4-5-4-7----|
--2-2-2-3-3-3-2-2-2-5-5-5--|-----|--2-3-2-5-2-3-2-5----|
 pm----------------------------------------------------|         pm  pm  pm  pm

-------------------------------------|
-------------------------------------|
-------------------------------------|
-------------------------------------|
-------------------------------------|
--2-3-2-5-2-3-2-5-2-3-2-5-2^3-2^3----|
 pm----------------------------------|
                   (end Rhy. Fig. 3)


Rhy. Fig. 4

------------------|------------------|------------------|---------|
------------------|------------------|------------------|---------|
--11\-6-----4--6--|--7\--4-----4--6--|--6\--3-----3--3--|--2------|
------------------|------------------|------------------|---------|
--9\--4-----2--4--|--5\--2-----2--4--|--4\--1-----1--1--|--0------|
------------------|------------------|------------------|---------|
                                                  (end Rhy. Fig. 4)


Rhy. Fig. 5

-----------------------|--------|--------------------|
-----------------------|--------|--------------------|
-----------------------|-----2--|--------------------|
--------2-----5--4--2--|-----2--|-----x--x--6--4--4--|
--4--4--0--4--3--2--0--|--4--0--|--4--x--x--4--3--2--|
--2--2-----2-----------|--2-----|--2--x--x-----------|
 pm---|   pm             pm       pm

-----------------------|-------------|--------------------|
-----------------------|-------------|--------------------|
-----------------------|----------2--|--------------------|
--------2-----5--4--2--|----x-x-x-2--|-----x--x--6--4--4--|
--4--4--0--4--3--2--0--|--4-x-x-x-0--|--4--x--x--4--3--2--|
--2--2-----2-----------|--2-x-x-x----|--2--x--x-----------|
 pm---|   pm             pm            pm


Rhy. Fig. 6
   full   ~~~~~~~  full  ~~   rake  full ~~~~   ~~~       ~~~~ H P sl. H P
---/\-------|-------/\-------|-------/\-----------------|---------------------|
-5'  `--2---|-----6'  `--3---|-x/--5'  `(5)--2----------|---------------------|
------------|----------------|------------------------2-|-2---2^4^2\1-1^2^1---|
----------4-|-(4)----------5-|------------------4--4----|-------------------4-|
------------|----------------|--------------------------|---------------------|
------------|----------------|--------------------------|---------------------|
                                                              (end Rhy. Fig.6)


Rhy. Fig. 7

   Am     E     G     E     Em    E     F  F  G     Am    C     G  D  C
    1  1  1     1  1  1     1  1  1     1  1  1     1  1  1     1  1  1
    2  8  8     2  8  8     2  8  8     4. 8  4     2  8  8     2  8  8
| -----------|--3--3-----|--0--0-----|--1--------|-----------|--3--------|
| --5--5-----|--3--3-----|--0--0-----|--1--------|--5--5-----|--3--------|
|:--5--5-----|--4--4-----|--0--0-----|--2--------|--5--5-----|--4--------|
| --7--7-----|--5--5-----|--2--2-----|--3--------|--7--7-----|--5--------|
| --7--7-----|--5--5-----|--2--2-----|--3--------|--7--7-----|--5--5--3--|
| --5--5--0--|--3--3--0--|--0--0--0--|--1--1--3--|--5--5--8--|--4--------|
         pm          pm          pm       pm             pm       pm---|

                1.            || 2.
  Em       D     G                G
  1  1  1  1     1  1  1  1       1  1  R
  4. 8  8  8     4. 16 16 4       2  8  8
                                  ~~~
--0--0--0-----|--3--3--3--3-- ||--3--3-----|
--0--0--0-----|--3--3--3--3-- ||--3--3-----|
--0--0--0-----|--4--4--4--4--:||--4--4-----|
--2--2--2-----|--5--5--5--5-- ||--5--5-----|
--2--2--2--5--|--5--5--5--5-- ||--5--5-----|
--0--0--0-----|--3--3--3--3-- ||--3--3-----|
                           (end Rhy. Fig. 7)


Rhy. Fig. 8
  Am                    G                 Em                Dm/F
---------------------|-----------------|-----------------|-------------|
--1--------0^1^0-----|--0--------------|-----------------|-------------|
-----2------------2--|-----2-----0-----|--0--------0-----|--0^2--------|
--------2------------|-----------------|-----2-----------|-------0-----|
--0------------------|-----------------|--------2--------|----------0--|
---------------------|--3-----3-----3--|--0-----------0--|--1----------|

  Am                G                 Em                G
-----------------|-----------------|-----------------|-----------------|
--1--------3-----|--3-----0--------|--------------0--|-(0)-------3-----|
-----2-----------|-----------0-----|--0--------0-----|--0--------------|
--------2--------|-----------------|-----2-----------|-----0-----------|
--0--------------|-----------------|--------2-----2--|--------2-----0--|
--------------0--|--3--3--------0--|--0--------------|--3--------------|
                                                       (end Rhy. Fig. 8)


Rhy. Fig. 9

  1  1     1  1
  4  2     4  4
-----------------|
--2--2-----2--2--|
--3--3-----3--3--|
--4--4-----4--4--|
--4--4-----4--4--|
--2--2-----2--2--|

Rhy. Fig. 1 (3-1/2 times)
Rhy. Fig. 2 (3 times)
Rhy. Fig. 3 (once)
Rhy. Fig, 2 (2 times)
Rhy. Fig. 3 (once)

Rhy. Fig.'s 2 & 4 (simultaneously, 2 times each)
Rhy. Fig. 5 (once)
Rhy. Fig.'s 2 & 6 (simultaneously, 2 times each)
Rhy. Fig. 3 (once)

Rhy. Fig. 2 (2 times)  }
Rhy. Fig. 3 (once)     }-1st solo
Rhy. Fig. 2 (2 times)  }


Then play:
   full     ~~~~   full     ~~~~   full   P   ~~~~   full   P    H P  P
                                                      /\
----/\---------|----/\---------|----/\-----------|--3'  `(3)^0--------|----|
--5'  `--2-----|--6'  `--3-----|--3'  `(3)^0-----|--------------------|----|
---------------|---------------|-----------------|--------------2^4^2^|^0--|
------------4--|------------5--|--------------2--|--------------------|----|
---------------|---------------|-----------------|--------------------|----|
---------------|---------------|-----------------|--------------------|----|


w/ Rhy. Fig. 7
   H ~~~  H    H  P ~~~~~          sl.~~~~~          ~~~~~~~~
------------------|-------------|-----------------|----------|
------------------|-------------|-----------------|----------|
--4^5----4^5--4^5^|^4-----------|-----------------|----------|
------------------|-------7--5--|--7\5-----5-5-5--|--7-------|
------------------|-------------|-----------------|----------|
------------------|-------------|-----------------|----------|


   H   ~~~~~          ~~~~~
-------------------|---------------|------------------|-----|
-------------------|---------------|------------------|-----|
--4^5--5-----5--7--|--7------4-----|---------------4--|--%--|
-------------------|------------5--|--5-----5-5-5-----|-----|
-------------------|---------------|------------------|-----|
-------------------|---------------|------------------|-----|


   H      H    H  P ~~~~~          ~~~~~           ~~~~~~~~
------------------|-------------|---------------|----------|
--3^5----3^5--3^5^|^3-----------|---------------|----------|
--4^5----4^5--4^5^|^4-----5--4--|--4-------4-4--|--5-------|
------------------|-------7--5--|--5-------5-5--|--7-------|
------------------|-------------|---------------|----------|
------------------|-------------|---------------|----------|


   H            ~~~~~                            ~~~~~~
----------3--|--3-----------|-----------------|----------|
--3^5--5--5--|--5-----3-----|--------------5--|--3-------|
--4^5--5-----|--------4--4--|--4-----4-4-4-4--|--4-------|
-------------|-----------5--|--5-----5-5-5----|--5-------|
-------------|--------------|-----------------|----------|
-------------|--------------|-----------------|----------|


play Rhy. Fig. 8 alone (once), then


w/ Rhy. Fig. 8(2 times)

                                 1.       || 2.       || 3.       || 4.
    ~~~~~     ~~~~~     ~~~~~     ~~~~~       ~~~~~       ~~~~~       ~~~~~
| ---------|---------|---------|--------- ||--------- ||--------- ||---------|
| ---------|---------|---------|--------- ||--------- ||--------- ||---------|
|:--5------|--7------|---------|---------:||--4------:||---------:||--4------|
| ---------|--5------|--5------|--7------ ||--------- ||--5------ ||---------|
| --7------|---------|---------|--------- ||--5------ ||--------- ||--5------|
| ---------|---------|--7------|--8------ ||--------- ||--7------ ||---------|

w/Rhy. Fig. 8 (2 times)
   H~~~~    sl.      H P       H                            P      sl.~~~ H
-----------------|-----------------|--------------------|---------------------|
-------------^---|-----------------|--------------------|---------------------|
--7^9----9--7\5--|--5^7^4--2--0^2--|--4--5--5--4--0--5--|--5^4----------------|
-----------------|-----------------|--------------------|-------5--5/7---5^7--|
-----------------|-----------------|--------------------|---------------------|
-----------------|-----------------|--------------------|---------------------|

  sl.   sl.   sl.    H     ~~~       H  P    sl. sl.    H P    ~~~  H P
-------------------------|-----------------|-----------------|------------|
---^-----^---------------|-----------------|--^---^----------|------------|
--4/5-5-5/7-7-7/9-9-9^10-|-9---9-10-9^10^9-|-7\5-5\4---4^5^4-|------------|
-------------------------|-----------------|---------5-------|-5---5^7^5--|
-------------------------|-----------------|-----------------|------------|
-------------------------|-----------------|-----------------|------------|

  H~~~        H P        H P            sl.   ~~~     full      1/2     sl.
----------------------|---------------------|--------------|----------------|
----------------------|------------------^--|----------/\--|----------------|
-------------4^5^4----|-4^5^4--4--5--7--7/9-|-7---9--9'  `-|-7---/\------^--|
-5^7---7--7---------5-|---------------------|--------------|---9'  `-7--5/9-|
----------------------|---------------------|--------------|----------------|
----------------------|---------------------|--------------|----------------|
       pm-|

   H~~~~           H  P           H     ~~~~   H  P      H  P
------------------------------|-------------------------------------|
-----------------12^13^12-----|-12^13--12----12^15^12--12^13^12-----|
-12^14---14--14------------12-|----------------------------------12-|
------------------------------|-------------------------------------|
------------------------------|-------------------------------------|
------------------------------|-------------------------------------|

   ~~~~       P                            full
----------------------|--------------------------|
------------13^12-----|------15--13--12-----/\---|
--12----12--------12--|--12--------------14'  `--|
----------------------|--------------------------|
----------------------|--------------------------|
----------------------|--------------------------|


w/ Rhy. Fig. 7(1st 1/2 only, 2 times)

         H  P                          ~~~~     sl.~~~          ~~~~
------------|----------|------------|--------|---------------|------------|
------------|----------|------------|--------|---^-----------|------------|
--5--5--4^5^|^4--------|------------|--------|--4/5----5--7--|--7---4-----|
------------|----7--5--|--5----5-5--|--7-----|---------------|---------5--|
------------|----------|------------|--------|---------------|------------|
------------|----------|------------|--------|---------------|------------|

                      H~~~~  H    H  P ~~~~          ~~~~         ~~~~~
--------------|---|------------------|------------|------------|---------|
--------------|---|--3^5----3^5--3^5^|^3----------|------------|---------|
------------4-|-%-|--4^5----4^5--4^5^|^4----5--4--|--4----4-4--|--5------|
--5---5-5-5---|---|------------------|------7--5--|--5----5-5--|--7------|
--------------|---|------------------|------------|------------|---------|
--------------|---|------------------|------------|------------|---------|

   H~~~~                       ~~~~             ~~~~
------------3--|--3---------|----------------|----------------|
--3^5----5--3--|--3--3------|-------------5--|-------------3--|
--4^5----5-----|-----4---4--|--4----4-4-4-4--|--4----4-4-4-4--|
---------------|---------5--|--5----5-5-5----|--5----5-5-5----|
---------------|------------|----------------|----------------|
---------------|------------|----------------|----------------|


In the folloing, one guitar plays the chords listed above the tab, while
another plays the tab.

      60str.0 3
   A5       E G
|:  1     1 1 1        %        1     1 1 1   1   1 1 1 1        %      :|
    4.    8 8 8                 4.    8 8 8   4   8 8 8 8
| --------------|-------------|-3-------3---|-------------|--^---------- |
|.--------------|-5------5----|-5--5--5-5-5-|-3---3-3-3-5-|-5/6--6-6-8--.|
|.--5-----------|-5--5---5----|----5--5---5-|-4---4-4-4-5-|-5/7--7-7-9--.|
| --7--7----7---|----7--------|-------------|-5---5-5-----|------------- |
| -----7----7---|-------------|-------------|-------------|------------- |
| --------------|-------------|-------------|-------------|------------- |

      6str. 5str.                  6str.
         2  0                       2 4
 B5      F# A              B5      F# G#  A
  1 1   1 1 1               1   1 1 1 1   1   1 1 1 1     1 1 1 1 1 1
  8 4   8 8 8      %        4   8 8 8 8   4   8 8 8 8     8 8 8 8 8 8
    ~~~           ~~~               pm-|  ~~~~~         sl.~~~~
--------------|-----------|-5-------5---|-------------|--^-------------|
--------------|-7------7--|-7-7---7-7-7-|-5-----5-5-7-|-7/8-----8-8-10-|
--7-------7---|-7-7--7-7--|---7---7---7-|-6-----6-6-7-|-7/9-----9-9-11-|
--9-9---9-9---|---9--9----|-------------|-------------|----------------|
----9---9-----|-----------|-------------|-------------|----------------|
--------------|-----------|-------------|-------------|----------------|

 B5
  1 1   1 1 1       %         1     1 1 1        %              %
  8 4   8 8 8                 4.    8 8 8
--------------|------------|--------------|--------------|--------------|
--------------|-7------7---|--------------|--------------|--7-------7---|
--7-------7---|-7-7--7-7-7-|--7-------7---|--7-------7---|--7-7---7-7-7-|
--9-9---9-9-9-|---9--9---9-|--9-9---9-9-9-|--9-9---9-9-9-|--9-9---9-9-9-|
----9---9---9-|------------|----9---9---9-|----9---9---9-|----9---9---9-|
--------------|------------|--------------|--------------|--------------|

 B5            F#5^^^^^^^^^^^^^^^^^^^^^^^^^^^^^^^^^^^^^^^^^^^^^^^^^^^
  1     1 1 1   1                     1         1           sl.     1
  4.    8 8 8   2.             sl.    2.        2.           ^      2.
--7-------7---|---------------------|--------|--9--9--9-----9/10-|--(9)---|
--7-7---7-7-7-|-----------------^---|-11-----|--11-11-11---11/12-|--(10)--|
--7-7---7-7-7-|-11---11-11-11-11/12-|-11-----|-------------------|--------|
--9-9---9-9-9-|-11---11-11-11-11/12-|-11-----|-(11)--------------|--(11)--|
----9---9---9-|-9----9--9--9-----9--|-9------|-(9)---------------|--(9)---|
--------------|---------------------|--------|-------------------|--------|

Now, finally, the spoken part comes in. Play Rhy. Fig. 2 twice during this
part.

Spoken part:
When a man lies, he murders some part of the world.
These are the pale deaths which men miscall their lives.
All this I cannot bear to witness any longer.
Cannot the kingdom of salvation take me home?

F#5                G5                 F#5             A5   sl.G5   sl.F#5
 1   1  1   1   1                                      1    1 1     1 1
 4   4  4   8   8  sim.                                2    8\8     8\8
  full               full               ful  ~~              H P sl. H P
---/\-------------|---/\-------------|---/\-----------|---------------------|
-5'  `2-----------|-6'  `3-----------|-5'  `(5)-2-----|---------------------|
------------------|------------------|--------------2-|-2---2^4^2\1 1^2^1---|
--------4-4-4^2---|--------5 5^4^2---|------------4---|-------------------4-|
----------------4-|----------------4-|----------------|---------------------|
------------------|------------------|----------------|---------------------|

   F#5            G
    1       1     1         1     1        R  1
    2       4     2         4     4.       8  4   w/Rhy. Fig. 2(2 times)
   full     ~~~~   full     ~~~~   full   P   ~~~~
----/\---------|----/\---------|----/\-----------|---------|------------|
--5'  `--2-----|--6'  `--3-----|--3'  `(3)^0-----|---------|------------|
---------------|---------------|-----------------|---------|----REST----|
------------4--|------------5--|--------------2--|--4------|-----7------|
---------------|---------------|-----------------|-----7\--|--MEASURES--|
---------------|---------------|-----------------|---------|------------|


Rhy. Fig. 9(3 times)
Rhy. Fig. 9(4 times, fading out) & Rhy. Fig. 1(once, fading in)
Rhy. Fig. 1(1-1/2 times)
Segue to "Dyer's Eve"

---------------------------      MetallicA      ------------------------------
Dyers Eve
-------------------------

This is how i think it goes sounds right it's abit confussing.

    PM.............|
E-|---------------------------------------------------------------------------|
B-|---------------------------------------------------------------------------|
G-|---------------------------------------------------------------------------|
D-|------------------2---3-----2---5-----2---3------2---2--3-----2---3-----2--|
A-|-2-3-2-3-2-3-2-3--2---3-----2---5-----2---3------2---2--3-----2---3-----2--|
E-|------------------0---1-----0---3-----0---1------0---0--1-----0---1-----0--|

                        PM........|
E-|----------------------------------|
B-|----------------------------------|
G-|----------------------------------|
D-|--5-----2----3----2---------------|
A-|--5-----2----3----2---------------|
E-|--3-----0----1----0--0--1--0--1---|

             PM..|   PM...|   PM...|       PM...|    PM....|     PM...........|
E-|---------------------------------------------------------------------------|
B-|---------------------------------------------------------------------------|
G-|---------------------------------------------------------------------------|
D-|------2---------3--------2--------5---2---------3----------2---------------|
A-|------2---------3--------2--------5---2---------3----------2---------------|
E-|------0---0--0--1--0--0--0--0--0--3---0---0--0--1---0--0---0----0---1--0--1|


E-|--------|------------------------------------------------------------------|
B-|--------|------------------------------------------------------------------|
G-|--------|------------------------------------------------------------------|
D-|-2---(2)|4--------------3\4-4-4-------------------5\4-4-4------------------|
A-|-2---(2)|2--2-3-2-3-2-3-5\2-0-2---2-3-2-3-2-3-2-3-3\2-0-2---2-3-2-3-2-3-2-3|
E-|-0---(0)|------------------------------------------------------------------|


E-|---------------------------------------------------------------------------|
B-|---------------------------------------------------------------------------|
G-|---------------------------------------------------------------------------|
D-|---5\4--4---4-----------------------------5----4-----------4---------------|
A-|---3\2--0---2---2-3-2-3-2-3-2-3-3---2----------------------2--2-3-2-3-2-3--|
E-|---------------------------------------------------------------------------|


E-|---------------------------------------------------------------------------|
B-|---------------------------------------------------------------------------|
G-|---------------------------------------------------------------------------|
D-|-5\4---4----4--------------------3\2-----4----2------------------3\2----4--|
A-|-3\2---0----2----2-3-2-3-2-3-2-3-5\4-----0----4-----2-3-2-3-2-3--5\4----0--|
E-|---------------------------------------------------------------------------|


E-|---------------------------------|
B-|---------------------------------|
G-|---------------------------------|
D-|--4-------------------------5--4-|
A-|--2----2-3-2-3-2-3-2-3-3-2-------|
E-|---------------------------------|


E-|---------------------------------------------------------------------------|
B-|---------------------------------------------------------------------------|
G-|---------------------------------------------------------------------------|
D-|----------------------------------------------4----------------------------|
A-|-2-----3-3-2---3-3-2-------5-5-2------5-5-2---2--2-3-2-3-2-3-0--2---0----2-|
E-|-0-----5-5-0---5-5-0-------3-3-0------3-3-0--------------------------------|


E-|---------------------------------------------------------------------------|
B-|---------------------------------------------------------------------------|
G-|---------------------------------------7---------5-------------------------|
D-|--5----5--5--4--4--------2---------2---7---------5--------4----------------|
A-|--3----3--3--2--2--------2---------2---5---------3--------2--2-3-2-3-2-3-0-|
E-|------------------3p2p0--0--3p2p0--0------3p2p0-----3p2p0------------------|


E-|---------------------------------------------------------------------------|
B-|---------------------------------------------------------------------------|
G-|----------------------------------------9--9---7----5----------------------|
D-|-----------------5---5--5--4--4---------9--9---7----5---4------------------|
A-|---2----0----2---3---3--3--2--2---------7--7---5----3---2-2-3-2-3-2-3-0-2-0|
E-|---------------------------------3p2p0--0--0-------------------------------|


E-|---------------------------------------------------------------------------|
B-|---------------------------------------------------------------------------|
G-|---------------------------------------------------------------------------|
D-|-----5---------------------------------------------------------------------|
A-|-2---3---3-3-3-3-3p2p0-2p0-------------------------------------------------|
E-|---------------------------3-----------------------------------------------|

                verses
E-|---------------------------------------------------------------------------|
B-|---------------------------------------------------------------------------|
G-|--------------------------------------------------------------------------5|
D-|---4-----------------------5--------7---------------------2---------4--4--5|
A-|---4-----------------------5--------7---------------------2---------4--4--3|
E-|---2-----------------------3--------5---------------------0---------2--2---|
    Dear  Mother,Dear Father         What is  this  hell you    have put me
                                                                      through
E-|---------------------------------------------------------------------------|
B-|---------------------------------------------------------------------------|
G-|-------------------------------------------------------------------------5-|
D-|-4--------------------------5-------2--------------------7---------2--2--5-|
A-|-4--------------------------5-------2--------------------7---------2--2--3-|
E-|-2--------------------------3-------0--------------------5---------0--0----|
    Believer,  de ciever               Day in,Day   out,  live  my  life  for you

E-|---------------------------------------------------------------------------|
B-|---------------------------------------------------------------------------|
G-|----------------------------------7----------------------------------------|
D-|-4--------------------------------7------------7-----------------------5---|
A-|-4--------------------------------5------------7-----------------------5---|
E-|-2---------------------------------------------5-----------------------3---|
    pushed  onto   me whats wrong    or  right hidden   from  this thing

E-|--------------------------------------|
B-|--------------------------------------|
G-|----------------------5---4--5-5------|
D-|----------------------5---4--5-5------|
A-|----------------------3---2--3-3------|
E-|--------------------------------------|
  that  they    call  life

E-|---------------------------------------------------------------------------|
B-|---------------------------------------------------------------------------|
G-|---------------------------------------------------------------------------|
D-|-4-------------5\4-4-4-------------------5\4---4--4--------------------5\4-|
A-|-2-2-3-2-3-2-3-3\2-0-2---2-3-2-3-2-3-2-3-3\2---0--2----2-3-2-3-2-3-2-3-3\2-|
E-|---------------------------------------------------------------------------|


E-|---------------------------------------------------------------------------|
B-|---------------------------------------------------------------------------|
G-|---------------------------------------------------------------------------|
D-|-4--4------------------------------5----4--------------------5\4--4---4----|
A-|-0--2----2-3-2-3-2-3-2-3--3----2-------------2-3-2-3-2-3-2-3-3\2--0---2----|
E-|---------------------------------------------------------------------------|


E-|---------------------------------------------------------------------------|
B-|---------------------------------------------------------------------------|
G-|---------------------------------------------------------------------------|
D-|-----------------5\4-------4-----4----------------5\4-------4--4-----------|
A-|-2-3-2-3-2-3-2-3-3\2-------0-----2----2-3-2-3-2-3-3\2-------0--2----2-3-2-3|
E-|---------------------------------------------------------------------------|


E-|---------------------------------------------------------------------------|
B-|---------------------------------------------------------------------------|
G-|---------------------------------------------------------------------------|
D-|----------------5-----4--------4---------------------------5--------------7|
A-|-2-3-2-3-3-2-------------------4---------------------------5--------------7|
E-|-------------------------------2---------------------------3--------------5|
                               Dear mother, Dear father                  every

E-|---------------------------------------------------------------------------|
B-|---------------------------------------------------------------------------|
G-|------------------------4---4----5-----------------------------------------|
D-|-------------2----------4---4----5------4----------------5-------------2---|
A-|-------------2----------2---2----3------4----------------5-------------2---|
E-|-------------0--------------------------2----------------3-------------0---|
    thought i'd think you'd dissaprove    curator,dictator             always

E-|-----------------------------|
B-|-----------------------------|
G-|-----------------------------|
D-|--------7-----4-4----5-------|
A-|--------7-----4-4----5-------|
E-|--------5-----2-2----3-------|
    censoring mt every move       (all the five power chords,E5,A5.etc)
The Verses Follow timing pattern above the rest of the verse are:
 F#                  D
CHILDREN ARE SEEN BUT NOT HEARD
A                    G
TEAR OUT EVERY THING INSPIRED

(THEN THE RIFFS BEFORE VERSUS)
E,E,E,E,E,E,E,E,E,E,    C
BARRED REALITY          LIVING BLINDLY

(THEN VERSE RIFFS)

(THEN SECOND VERSE RIFFS)

THEN
                      (MUTE ALL OPEN E'S.)
E-|----------------------------------------------------------------------------|
B-|----------------------------------------------------------------------------|
G-|--------------------5\4---4---4------------------------5\4---4---4----------|X6
D-|--------------------3\2---0---2------------------------3\2---0---2----------|
A-|----------------------------------------------------------------------------|
E-|--0---0-0-0----0-0-----------------0----0-0-0-----0-0-----------------------|

E-|---------------|
B-|---------------|
G-|---------------|
D-|----3-------3--|
A-|----3-------3--|
E-|----1-------1--|

THAT IS PLAYED WITH THE VERSES AT THE END.
comments
print report bad tab
2 comments total.
0 reply
nedthehead wrote on August 12 2006, 10:00 pm

This tab is missing way too many parts!

0 reply
psyco223 wrote on August 26 2006, 10:15 pm

this tab is not good....at all

I want to post or [tab]
guest
You may want to rate the tab now too:
select rating
Please do not post tabs as comments. Select "correction" instead!