Oops, an error
Loading. Please wait.

And Justice For All Tab

ver3
ver3

Album

Solo

Whole song

More versions @911Tabs.com
142,698 views 108 this week
6 commentsread comments
1 2 3 4 5
accurate
x 20
Autoscroll
+/-
esc
set tempo
stop
WARNING: You are trying to view
                                    content from Ultimate-Guitar.com
                                    in an unauthorized application,
                                    which is prohibited.

                                    Please use an official Ultimate
                                    Guitar Tabs application for iPhone,
                                    iPad or Android to access legitimate
                                    chords, guitar, bass, and drum tabs
                                    from Ultimate-Guitar.com database.

                                    Type "ultimate guitar tabs" in Apple
                                    App Store's or Android Market's
                                    search to find the application.
AND JUSTICE FOR ALL
1.Blackened
2.And Justice For All
3.Eye Of The Beholder
4.One
5.The Shortest Straw
6.Harvester Of Sorrow
7.The Frayed Ends Of Sanity
8.To Live Is To Die
9.Dyers Eve

2.And Justice For All

Intro: (clean)
|----------------------------------------------|
|----------------------------------------------|
|.---------------------------------------------|
|.-6-7-9---7-6h7p6-4-5-5-4-7-4-2-3-5---3-2h3p2-|
|--7-----7---------5-----5---5-3-----3---------|
|--0-------------------------------------------|

                        (x 5)
|----------------------------|
|----------------------------| 3rd and 4th times
|-----------------------2---.|     play this with distortion
|-0-2-2-0-2-0-0-2-2-0-2---3-.| I can't remember how Gtr. 2 goes
|-2-----2---2-1-----1-----1--| 5th time play all distorted
|----------------------------|

 Riff 1:
|------------------------------|--------------------------|
|-.----------------------------|--------------------------|
|-3----.-.----.-.-.----.-.-.-.-|-5-3-2---3-2-----2--------|
|-3----8-7----8-7-6----8-7-6-5-|-5-3-2-5-3-2-5-3-2-5-3-2--|
|-1----8-7----8-7-6----8-7-6-5-|-------5-----5-3---5-3-2--|
|------6-5----6-5-4----6-5-4-3-|--------------------------|

|---------------------------------|
|---------------------------------|
|--2------------------------------|
|--2--5--3--2----5-3-2---2--------|
|-----5--3--2----5-3-2-5-2-5-3-2--|
|----------------------5---5-3-2--|

 Riff 2                                                         (x 4)
|--------------------------------|-----------------------------------|
|--------------------------------|-----------------------------------|
|--------------------------------|.---------------------------------.|
|-2------------------------(2)---|.-(2)-------------------------(2)-.|
|-2------------------------(2)---|--(2)-------------------------(2)--|
|-0------------------------(0)---|--(0)-------------------------(0)--|

 Riff 3: (x 4)
|------------------------------------------------|
|------------------------------------------------|
|-.-.----.-.------------------.-.----------------|
|-8-8-7--8-8-7---------------8-8-7---------------|
|-8-8-7--8-8-7----5h7-7-5----8-8-7----5h7-7-5----|
|-6-6-5--6-6-5--0---------7--6-6-5--0---------7--|

 Riff 4:
|-------------------------|-----------|-----------|-----------|
|-------------------------|-----------|-----------|-----------|
|-.-.----.-.--------------|-2---------|-----------|-2---------|
|-8-8-7--8-8-7--2---------|-2---------|-2---------|-2---------|
|-8-8-7--8-8-7--2---------|-0---------|-2---------|-0---------|
|-6-6-5--6-6-5--0---------|-----------|-0---------|-----------|

Riff 3 (x 2)

 Riff 5:
|-------------------------------------------------|
|-------------------------------------------------|
|-.-.----.-.------.----.--------------.----.------|
|-8-8-7--5-5-4----2--x-2-2-------3----2--x-2--2---|
|-8-8-7--5-5-4--.-2--x-2-2---.-.-3--.-2--x-2--2---|
|-6-6-5--3-3-2--0-0--x-0-0---0-0-1--0-0--x-0--0---|

|---------------------------------------------------------------|
|---------------------------------------------------------------|
|-.-.----.-.------.----.--------------.----.------.-.----.-.----|
|-8-8-7--8-8-7----2--x-2-2-------3----2--x-2--2---8-8-7--8-8-8\-|
|-8-8-7--8-8-7--.-2--x-2-2---.-.-3--.-2--x-2--2---8-8-7--8-8-8\-|
|-6-6-5--6-6-5--0-0--x-0-0---0-0-1--0-0--x-0--0---6-6-5--6-6-6\-|

Verse 1
=======
 Riff 6: (x 4)
|-------------------------------------------------|
|-------------------------------------------------|
|--------.-------------------.------.-.----.-.----|
|---2--x-2-2-------3----2--x-2--2---8-8-7--8-8-7--|
|-.-2--x-2-2---.-.-3--.-2--x-2--2---8-8-7--8-8-7--|
|-0-0--x-0-0---0-0-1--0-0--x-0--0---6-6-5--6-6-5--|

 Fill 1: ??
|-----------------------------|
|-----------------------------|
|-----------------------------|
|-----------------------------|
|-----------------------------|
|-----------------------------|

 Riff 7:                  (x 3)
|-------------------------------|------------------------------------|
|-------------------------------|------------------------------------|
|.-----------------------------.|--------------0h5h7-----------------|
|.-3-------------4\3---4/5-4/5-.|-3-----------------0h5h7------------|
|--3-------------4\3---4/5-4/5--|-3----------------------0h5h7-0h2h3-|
|--1-1-1-1-1-1-1-2\1-0-2/3-2/3--|-1-1-1-1-1-1-1----------------------|

                          (x 3)
|-------------------------------|------------------------------------|
|-------------------------------|------------------------------------|
|.-----------------------------.|--------------0h5h7-----------------|
|.-3-------------4\3---4/5-4/5-.|-3-----------------0h5h7------------|
|--3-------------4\3---4/5-4/5--|-3----------------------0h5h7-0h2h3-|
|--1-1-1-1-1-1-1-2\1-0-2/3-2/3--|-1-1-1-1-1-1-1----------------------|

|-------------------------------------------------------|
|-------------------------------------------------------|
|-0h5h7-------------------------------------------------|
|------0h5h7------------4-2--------------4\3---4/5-4/5--|
|-----------0h5h7-0h2h3-4-2--------------4\3---4/5-4/5--|
|-----------------------2-0--0-0-0-0-0-0-2\1-0-2/3-2/3--|

Chorus
======
 Riff 8:
|-------------------------------------------------|
|-------------------------------------------------|
|--2----4----5------------------------------------|
|--2----4----5----4-2--------------4\3---4/5-4/5--|
|--0----2----3----4-2--------------4\3---4/5-4/5--|
|-----------------2-0--0-0-0-0-0-0-2\1-0-2/3-2/3--|

|------------------------------------------|-------------------------|
|------------------------------------------|-------------------------|
|-2----4-----------------------------------|-2----4----0----5--------|
|-2----4----4-2--------------4\3---4/5-4/5-|-2----4----0----5----2---|
|-0----2----4-2--------------4\3---4/5-4/5-|-0----2---------3----2---|
|-----------2-0--0-0-0-0-0-0-2\1-0-2/3-2/3-|-----------3---------0---|

Riff 3 (x 2)
Riff 5
Verse
Chorus

Riff 3 (x 2)
Riff 1
Riff 2

Solo
====
Riff 7
Riff 6 (x ?)

Fill 2: ??
|------------------------------------------|
|------------------------------------------|
|------------------------------------------|
|------------------------------------------|
|------------------------------------------|
|------------------------------------------|

Riff 6 (x 3)
|--------------------------------------------------------------------|
|--------------------------------------------------------------------|
|--------------------------------------------------------------------|
|-8-8-7--8-8-7--7-7-6--7-7-6--6-6-5--6-6-5--5-5-4--5-5-4--3-4-4-4-4--|
|-8-8-7--8-8-7--7-7-6--7-7-6--6-6-5--6-6-5--5-5-4--5-5-4--3-4-4-4-4--|
|-6-6-5--6-6-5--5-5-4--5-5-4--4-4-3--4-4-3--3-3-2--3-3-2--1-2-2-2-2--|

Intro (x 5) w/distortion
                                                                (x 3)
|--------------------------------------------------|-----------------|
|--------------------------------------------------|-----------------|
|------.-.---.-----.-.---.-----.-.---.-----.-.---.-|.-----.-.---.---.|
|--6---6-6-6-6-4---4-4-4-4-2---2-2-2-2-0---0-0-0-0-|.-0---0-0-0-0---.|
|--7---7-7-7-7-5---5-5-5-5-3---3-3-3-3-2---2-2-2-2-|--1---1-1-1-1----|
|--------------------------------------------------|-----------------|

                                            (x 2)
|--------------------|---------------------------|
|--------------------|---------------------------|
|--------------------|.-------------------------.|
|--2------------(2)--|.-(2)-----------------(2)-.|
|--2------------(2)--|--(2)-----------------(2)--|
|--0------------(0)--|--(0)-----------------(0)--|

Riff 3 (x 2)

 Fill 3:
|--------------|
|--------------|
|-.-.----.-.---|
|-8-8-7--2-2-3-|
|-8-8-7--2-2-3-|
|-6-6-5--0-0-1-|

Verse
Chorus
Riff 4 (repeat last bar)
Riff 8 (last bar only)
Riff 4

|---------|---------|---------|---------|---------|
|---------|---------|---------|---------|---------|
|-7-------|-5-------|---------|---------|-.-.-.---|
|-7-------|-5-------|-7-------|-5-------|-5-4-2---|
|-5-------|-3-------|-7-------|-5-------|-5-4-2---|
|---------|---------|-5-------|-3-------|-3-2-0---|

|---------|---------|---------|---------|
|---------|---------|---------|---------|
|---------|-5-------|---------|-.-.-.---|
|-5-------|-5-------|-7-------|-5-4-2---|
|-5-------|-3-------|-7-------|-5-4-2---|
|-3-------|---------|-5-------|-3-2-0---|

|---------|---------|---------|---------|
|---------|---------|---------|---------|
|---------|-.-.-.---|---------|-.-.-.---|
|-5-------|-5-4-2---|---------|-5-4-2---|
|-5-------|-5-4-2---|---------|-5-4-2---|
|-3-------|-3-2-0---|---------|-3-2-0---|
--

Here's the interlude to ...And Justice For All, tabbed out by
measures..it's mostly in 4/4 time, but the bars w/a "**" on the low E are
in 2/4. Obviously, i didn't include note values, but this is all pretty
straightforward. 

e-------------------------|---------|--------|------------------|
B-------------------------|-------8-|-7------|------------------|
G-------------------0h5h7-|-----9---|---9--7-|-5-4-4-4-5p4------|
D-------------0h5h7-------|--/9-----|--------|-------------7----|
A-0h2h3-0h5h7-------------|---------|--------|------------------|
E-------------------------|---------|--------|------------------|

e--------------------|--------|--------|------------------|-----|
B--------------------|------8-|-7------|------------------|-----|
G-4------------------|----9---|---9--7-|-5--4-4--4--5p4p0-|-----|
D---7-5--3-3h5p3\2~~-|-/9-----|--------|------------------|-----|
A--------------------|--------|--------|------------------|-----|
E--------------------|--------|--------|------------------|-----|

e-------------|--------|------------|-----------|---------------|
B-------------|------8-|-7--5h7p5\3-|------8h10-|-8-7h8p7\5-----|
G-------------|----9---|------------|----9------|---------------|
D-2/3--rest---|-/9-----|------------|-/9--------|---------------|
A-------------|--------|------------|-----------|---------------|
E-------------|--------|------------|-----------|---------------|

e-----------|---------------------------|-----------------------|
B------/12--|-12p10p8-12p10p8-12p10p8\7-|---(this isn't a rest,
G----9------|---------------------------|-----i couldn't fit ---|
D-/9--------|---------------------------|-----the next measure)-|
A-----------|---------------------------|-----------------------|
E-----------|---------------------------|-----------------------|

e------------------------------|--------------------------------|
B------------------------------|--------------------------------|
G-11p9p7-11p9p7-11p9p7\5-9p7p5-|--0h5h7-------------------------|
D------------------------------|--------0h5h7-------------------|
A------------------------------|--------------0h5h7--0h2h3------|
E------------------------------|------------------------play 2x-|

e---------------|----------------------|-------14-------17fb----|
B---------------|-17----14-------------|----------14------------|
G-5-5--4--5-5-4-|-16fb--14-----14-16fb-|-(16)------------------|
D-5-5--4--5-5-4-|-----------16---------|------------------------|
A-3-3--2--3-3-2-|----------------------|------------------------|
E---------------|----------------------|-**---------------------|
  pm--    pm-

e-(17)r-17-14-17p14-17p14----19p14-|-20p14-20p14----19p14-19p14-17-|
B-------------------------17-------|-------------17----------------|
G----------------------------------|-------------------------------|
D----------------------------------|-------------------------------|
A----------------------------------|-------------------------------|
E----------------------------------|-**----------------------------|

e-17p14-17p14----14-14----------|-------------------------------|
B-------------17----17fb--------|---16hb----16hb----------------|
G----------------------------14-|---16fb----16fb----------------|
D-------------------------16----|-------------------------------|
A-------------------------------|-------------------------------|
E-------------------------------|-**----------------------------|

e--------------------------|----------vib w/bar-----------------|
B-16hbr--14h16-14----16-14-|----14-17~~~~~~~~~~-----------------|
G-16fbr--14----14----16-14-|----14-16fb-------------------------|
D-----------------16-------|-16---------------------------------|
A--------------------------|------------------------------------|
E--------------------------|------------------------------------|

e-----------------------------17p14-----------------------------|
B-14---14-17p14------14-17p14-------17-14------14---------------|
G-16fb----------16fb----------------------16fb------------------|
D---------------------------------------------------------------|
A---------------------------------------------------------------| 
E-(w/wah as filter)---------------------------------------------|

e----------------|---------------------------|------------------|
B-17p14----------|-------14h17-15fbrp14-17fbr|p14h17---17fbrp14h|
G-------16-14----|-14-16---------------------|------------------|
D-------------16-|---------------------------|------------------|
A----------------|---------------------------|------------------|
E-**-------------|---------------------------|-**---------------|

e------------17fb-17hb-|-(17)~~---------|-----------------------|
B17-17fbrp14-----------|-------x--------|-------holdbend________|
G----------------------|------16p14h16--|-16-16fb-16-16-16-16-16|
D----------------------|----------------|-----------------------|
A----------------------|----------------|-----------------------|
E----------------------|-**-------------|-----------------------|

e----------------|-22p19p0-0-0-21p17p0-0-0-18p15p0-0-0-17p14p0-0-0-|
B__------17fb~~~-|-------------------------------------------------|
G16rp14----------|-------------------------------------------------|
D----------------|-------------------------------------------------|
A----------------|-------------------------------------------------|
E----------------|-------------play 2 times------------------------|

e-19p0-17p0-15p0-14p0-17p0-15p0-14p0-12p0-----------------------|
B---------------------------------------------------------------|
G---------------------------------------------------------------|
D---------------------------------------------------------------|
A---------------------------------------------------------------|
E---------------------------------------------------------------|
                                                    harm. 
e-15p0-14p0-12p0-10p0-10p8p7--------10p8p7--------|-*-----------|
B----------------------------10p8p7--------10p8p0-|-5\----------|
G-------------------------------------------------|-5\----------|
D-------------------------------------------------|-trem dive---|
A-------------------------------------------------|-------------|
E-------------------------------------------------|-------------|

3.Eye Of The Beholder

Repeat & fade from pp-ff                    14x 
||-------------------------------------------------||--||---------------------- 
||-------------------------------------------------||--||---------------------- 
||*-----------------------------------------------*||--||*--------------------- 
||*--------------------------------------------9--*||--||*--------------------- 
||---------------------------------------------7---||--||---------------------- 
||---0--0--0--0--0--0--0--0--0-----0-----0--0--0---||--||---0--0--0--0--0------ 
 
                                                                       4x 
------------------------------|------------------------------------------------ 
------------------------------|------------------------------------------------ 
------------------------------|------------------------------------------------ 
------------------------------|------------------------------------------------ 
------------------------------|------------------------------------------------ 
0--0--0--3-----3-----3--3--3--|--2--2--2--2--2--2--2--2--2-----2-----2--2------ 
 
 
----||--||-------------------------------------------||--||-------------------- 
----||--||-------------------------------------------||--||-------------------- 
---*||--||*-----------------------------------------*||--||*------------------- 
---*||--||*-----------------------------------------*||--||*------------------- 
----||--||-------------------------------------------||--||-------------------- 
2---||--||---0--0--0-----0--0--0-----0--0--0--0--0---||--||---0--0--0-----0---- 
 
 
----------------------||----------------------------------------|--||---------- 
----------------------||----------------------------------------|--||---------- 
---------------------*||----------------------------------------|--||*--------- 
---------9--9--9--8--*||--------------------8h9p8---------------|--||*--------- 
---------7--7--7--7---||------------------------------7h8p7-----|--||---------- 
---0------------------||--0--0--0-----0--0---------0---------0--|--||---0------ 
 
 
-------------------------------||---------------------------------------------- 
-------------------------------||---------------------------------------------- 
------------------------------*||---------------------------------------------- 
------------------9--9--9--8--*||-----------------------8h9p8------------------ 
------------------7--7--7--7---||---------------------------------7h8p7-------- 
0--0-----0--0------------------||--0--0--0-----0--0------------0---------0----- 
 
                                            Rhy. Fig. 1 
|----------------------|-----------||--||-------------------------------------- 
|----------------------|-----------||--||-------------------------------------- 
|----------------------|-----------||--||*------------------------------------- 
|----------------------|--2-----2--||--||*------------------------------------- 
|----------------------|--2-----2--||--||-------------------------------------- 
|--6h7p6--0--2h3p2--0--|--0-----0--||--||----0--0--0--0--0--0--0--0--3--------- 
 
 
---------------|------------------------------------------------||------------- 
---------------|------------------------------------------------||------------- 
---------------|-----------------------------------------------*||------------- 
------------5--|--------------------------------------------4--*||------------- 
------------5--|--------------------------------------------4---||------------- 
3-----3--3--3--|--2--2--2--2--2--2--2--2--2-----2-----2--2--2---||--0--0--0---- 
 
 
------------------------------------|------------------------------------------ 
------------------------------------|------------------------------------------ 
------------------------------------|------------------------------------------ 
------------------------------------|------------------------------------------ 
---------------------------------7--|------------------------------------------ 
0--0--0--0--0--0-----0-----0--0--0--|--0--0--0--0--0--0--0--0--0-----0--------- 
 
                   Rhy. Fig. 2 
---------||-----|-------------------------|------------------------|----------- 
---------||-----|-------------------------|------------------------|----------- 
---------||-----|------9--9--10--7--7--8--|-----9--9--10--7--7--8--|-----9----- 
---------||--4--|------9--9--10--7--7--8--|-----9--9--10--7--7--8--|-----9----- 
------7--||--4--|------7--7--8---5--5--6--|-----7--7--8---5--5--6--|-----7----- 
0--0--0--||--2--|---0---------------------|--0---------------------|--0--7----- 
 
 
----------------|------------------------|------------------------|------------ 
----------------|------------------------|------------------------|------------ 
9--10--7--7--8--|-----9--9--10--7--7--8--|-----9--9--10--7--7--8--|------------ 
9--10--7--7--8--|-----9--9--10--7--7--8--|-----9--9--10--7--7--8--|--9--------- 
7--8---5--5--6--|-----7--7--8---5--5--6--|-----7--7--8---5--5--6--|--7--------- 
7--8---5--5--6--|--0--7--7--8---5--5--6--|--0--7--7--8---5--5--6--|--0--------- 
 
 
------------------|--------------------|-----------------------|--------------- 
------------------|--------------------|-----------------------|--------------- 
------------------|--------------------|-----------------------|--------------- 
---------------9--|--5--------------2--|-----------------------|--------------- 
---------------7--|--5--------------2--|-----------------------|--------------- 
0-----0-----0--0--|--3-----0--0--0--0--|--6--6--6-----3--3--3--|--5--5--5------ 
 
 
------------------------------------|--------------||--||---------------------- 
------------------------------------|--------------||--||---------------------- 
------------------------------------|--------------||--||*--------------------- 
------------------------------------|--4-----5--4--||--||*--------------------- 
------------------------------------|--4-----5--4--||--||---------------------- 
---3--3--3-----2--2--2-----3--3--3--|--2-----3--2--||--||---0--0--0--0--0------ 
 
 
------------|-----------------------------|-----------------------------|------ 
------------|-----------------------------|-----------------------------|------ 
------------|-----------------------------|-----------------------------|------ 
9--9--9--8--|-----------------9--9--9--8--|-----------------9--9--9--8--|------ 
7--7--7--7--|-----------------7--7--7--7--|-----------------7--7--7--7--|------ 
------------|--0--0--0--0--0--------------|--0--0--0--0--0--------------|------ 
 
 
-----------------------------------------------------------||------------------ 
-----------------------------------------------------------||------------------ 
----------------------------------------------------------*||------------------ 
---------------8h9p8-----------------------------------2--*||------------------ 
-------------------------7h8p7-------------------------2---||------------------ 
0--0--0--0--0---------0---------0--6h7p6--0--2h3p2--0--0---||------------------ 
 
 
Go back and play next verse here. 
-------------------------------||--||--------------------------||-------------- 
-------------------------------||--||--------------------------||-------------- 
-------------------------------||--||*-----9--9--10--7--7--8--*||-------------- 
-------------------------------||--||*-----9--9--10--7--7--8--*||--9----------- 
-------------------------------||--||------7--7--8---5--5--6---||--7----------- 
-------------------------------||--||---0--7--7--8---5--5--6---||--0-----0----- 
 
 
---------||------------------------|------------------------|------------------ 
---------||------------------------|------------------------|------------------ 
---------||-----9--9--10--7--7--8--|-----9--9--10--7--7--8--|------------------ 
------9--||-----7--7--10--7--7--8--|-----9--9--10--7--7--8--|--9--------------- 
------7--||-----7--7--8---5--5--6--|-----7--7--8---5--5--6--|--7--------------- 
0--0--0--||--0---------------------|--0---------------------|--0-----0--0------ 
 
 
------|-----|-----------------------------------|-----||----------------------- 
------|-----|-----------------------------------|-----||----------------------- 
------|-----|-----------------------------------|-----||----------------------- 
---9--|--2--|--5--------------------------------|--2--||----------------------- 
---7--|--2--|--5--2--2--2--2--2--2--2--2--2--2--|--2--||----------------------- 
0--0--|--0--|--3--0--0--0--0--0--0--0--0--0--0--|--0--||-----------------------

4.One

intro 

 
   Bm             Gmaj7(no3rd)   Bm             Gmaj7(no3rd)
|--------------|--------------|--------------|-------------------|
|--------------|--------------|--------------|-------------------|
|--------------|--------------|--------------|----------------0--|
|-----4-----0--|-----4-----0--|-----4-----0--|-----4-----0-------|
|--2-----2-----|--------------|--2-----2-----|-------------------|
|--------------|--3-----3-----|--------------|--3-----3----------|
 
		 D/A            Gmaj7(no3rd)
|--------------|--------------|--------------|-------------------|
|--------------|--------------|--------------|-------------------|
|-(0)----------|--------------|--------------|-------------------|
|-----4-----0--|-----4-----0--|-----4-----0--|-------------------|
|--2-----2-----|--0-----0-----|--------------|-----2-----2-------|
|--------------|--------------|--3-----3-----|--0-----2----------|
 
   Bm              Gmaj7(no3rd)  Bm
|--------------|--------------|--------------|-------------------|
|--------------|--------------|--------------|-------------------|
|*-------------|--------------|--------------|--------------0----|
|*----4-----0--|-----4-----0--|-----4-----0--|-----4-----0-------|
|--2-----2-----|--------------|--2-----2-----|-------------------|
|--------------|--3-----3-----|--------------|--3-----3----------|
 
		  D/A            Gmaj7(no3rd) [1. N.C           ]
|--------------|--------------|--------------|-------------------|
|--------------|--------------|--------------|-------------------|
|--------------|--------------|--------------|------------------*|
|-----4-----0--|-----4-----0--|-----4-----0--|------------------*|
|--2-----2-----|--0-----0-----|--------------|-----2-----2-------|
|--------------|--------------|--3-----3-----|--0-----2----------|
 
 [2. N.C                    ] Bm                     Gmaj7(no3rd)
|---------------------------|----------------------|-----------------------|
|---------------------------|----------------------|-----------------------|
|---------------------------|----------------------|-----------------------|
|---------------------------|-----4-----0--0--4----|-----4-----0--4--4--0--|
|-----2-----2-----2--2h4--2-|--2-----2-----------0-|-----------------------|
|--0-----2-----0------------|----------------------|--3-----3--------------|
 
   Bm                     Gamj7                   Bm
|-----------------------|-----------------------|-----------------------|
|-----------------------|-----------------------|-----------------------|
|-----------------------|-----------------------|-----------------------|
|-----4-----0--0--4-----|-----4-----0--4--4--0--|-----4-----0--0--4--0--|
|--2-----2-----------0--|-----------------------|--2-----2--------------|
|-----------------------|--3-----3--------------|-----------------------|
 
  D/A                     Gamj7                   (Em)
|-----------------------|-----------------------|-------------------|
|-----------------------|-----------------------|-------------------|
|--------------------0--|-(0)-------------------|-------------------|
|-----4-----0--4--4-----|-----4-----0--0--4--0--|-----2h4--2--------|
|--0-----0--------------|-----------------------|----------------4--|
|-----------------------|--3-----3--------------|--0----------2-----|
 
  G5            A5        (D) Riff A              (G)
|-----------------------|-----------------------|------------------------|
|-----------------------|-----------------------|-----0h3p0----0h3p0-----|
|-----------------------|*--------0--7-----0----|------------4--------0--|
|---------0-------------|*-----7--------7-------|--5---------------------|
|-----5------------7----|---5-------------------|------------------------|
|--3---------3--5-------|-----------------------|------------------------|
 
  (F)              [1. (Em)            ]  [2.(Em) N.C end Riff A
|--------1--------|--------------0------|------------------|
|-----------1-----|-----------0-----0---|-----0------------|
|-----0--------0--|-----4--0-----------*|--------0--4------|
|--3--------------|--2-----------------*|--2---------------|
|-----------------|---------------------|-------------/3---|
|-----------------|---------------------|------------------|
 
solo:
 
  1       2       3  4    1       2   3       4          1        2  3  4
|-----------------------|------------------------------|--------------------|
|-----------------------|-----3p2-----3p2---------3----|-3p2----------------|
|---------2---4b6b4-----|---------4-------2------------|-----4--------------|
|-----2h4---------------|------------------------------|--------------------|
|-----------------------|------------------------------|--------------------|
|-----------------------|------------------------------|--------------------|
 
    1       2       3       4          1     2     3     4
|----------------------------------|----------------------------|
|-----7\5---5\4---4\2---2p0--------|------------------------2h3-|
|---------7-----------4-----0h2----|-2/4--------------2/4-------|
|----------------------------------|----------------------------|
|----------------------------------|----------------------------|
|----------------------------------|----------------------------|
 
    1   2    3        4         1     2     3     4       1     2     
|---------------------------|-------------------------|-------------|
|-2-------------2---3p2-----|-------------------------|-------------|
|---------2/4-----------2---|-2/4---------------------|-------------|
|---------------------------|-------------------------|-------------|
|---------------------------|-------------------------|-------------|
|---------------------------|-------------------------|-------------|
 
    1     2     3         4       1           2      3     4     
|-----------------}14---19----|-17-15-14-15--------------------|
|-----------------{x----------|-------------15-----------------|
|-----------------}x----------|--------------------------------|
|-----------------{x----------|--------------------------------|
|-----------------------------|--------------------------------|
|-----------------------------|--------------------------------|
 
    1       2     3       4          1       2          3      4     
|--------------------------------|---------------------------------|
|--------------------------------|---------------------------------|
|-----7p6-7-----9p7-9-------11p9-|-11----11/12---12---11-----------|
|--------------------------------|---------------------------------|
|--------------------------------|---------------------------------|
|--------------------------------|---------------------------------|
 
    1         2          3           4            1          2 
|---------------------------------------------|----------------12-----
|----------------------------------12---------|----12-14---15--------- 
|-----------11-12-14---------11-12------------|-11-------------------- 
|--------12---------------12---------------12-|----------------------- 
|-----14---------------14---------------14----|----------------------- 
|---------------------------------------------|----------------------- 
 
    3         4           1         2      3     4
 -----------------------|------------------------------|
 ---15---14---12---14---|-14-----15-12-----------------|
 -----------------------|------------------------------|
 -----------------------|------------------------------|
 -----------------------|------------------------------|
 -----------------------|------------------------------|
 
  
Bm                   Gmaj7(no3rd)    Bm                      Gmaj7(no3rd)
  I can't remember   anything          can't tell if this is true or dream
Bm                   D/A             Gmaj7(no 3rd)           N.C.    
  deep down inside I feel to scream    this terrible silence stops me
Bm                    Gmaj7(no3rd)   Bm                Gmaj7(no3rd)
  Now that the war is through with me, I'm waking up I can not see
Bm                      D/A          Gmaj7(no 3rd)           N.C.    
  that there's not much lef to to me.   Nothing is real but pain now!
 
[Next comes the chorus.  Just power chords. ]
 
 G5   A5 B5     A5 G5 F#5  B5  A5  
 Hold my breath as I  wish for death
 B5 C#5 B5 A5  (5th [A] string:)-3---4----5---
        Oh,please           God  wake me!    
 
 
Bm                   Gmaj7(no3rd)    Bm                 Gmaj7(no3rd)
  Back in the womb it's much to real in pumps life that I must feel
Bm                     D/A             Gmaj7(no 3rd)           N.C.    
But can't look forward to reveal         look to the time when I'll live
Bm                       Gmaj7(no3rd)   Bm                    Gmaj7(no3rd)
Fed thourgh the tube that sticks in me    just like a wartime novelty 
Bm                      D/A           Gmaj7(no 3rd)            N.C.    
  tied to machines that make me be         cut this life off   from me
 
 G5   A5 B5     A5 G5 F#5  B5  A5  
 Hold my breath as I  wish for death
 B5 C#5 B5 A5  (5th [A] string:)-3---4----5---
        Oh,please           God  wake me!    
 
[ classical solo ]
|----------------------------|----------------------|----------------------|
|-------------10p7-----7-----|-10-----10---8---7----|-7h8p7----------------|
|------------------7---------|--------------------9-|--------7-------------|
|----------------------------|----------------------|----------------------|
|-(5)------------------------|----------------------|----------------------|
|----------------------------|----------------------|----------------------|
 
|-/10-8-7-----7---8-|---------17p14-----14-|-17---17-15--14---15p14--------|
|---------10--------|-8~~~~~---------15----|-------------------------------|
|-------------------|----------------------|-------------------------------|
|-------------------|----------------------|-------------------------------|
|-------------------|----------------------|-------------------------------|
|-------------------|----------------------|-------------------------------|
 
|------------------15--17--|--19p17p15-19p17p15-19p17p15-14-15----14-------|
|-15------15--19-----------|-----------------------------------17----15----|
|--------------------------|-----------------------------------------------|
|--------------------------|-----------------------------------------------|
|--------------------------|-----------------------------------------------|
|--------------------------|-----------------------------------------------|
 
|------|-------------------------------|-----------------------------------|
|------|-/8---8--8\7-------------------|-/13----13---13---13---12----------|
|------|-/7---7--7----7----------------|-/12----12---12---12---12----------|
|------|-------------------------------|-----------------------------------|
|------|-------------------------------|-----------------------------------|
|------|-------------------------------|-----------------------------------|
 
    T          T          T          T          T          T
|---20p17p13---20p17p13---20p17p13---20p17p13---20p17p13---20p17p13--------|
|--------------------------------------------------------------------------|
|--------------------------------------------------------------------------|
|--------------------------------------------------------------------------|
|--------------------------------------------------------------------------|
|--------------------------------------------------------------------------|
[ T = tap using pick ]
 
    T             T
|---20p12h13p12---20p12h13p12-|
|-----------------------------|
|-----------------------------|
|-----------------------------|
|-----------------------------|
|-----------------------------|
 
G5  A5  B5    A5 G5   F#5 B5   
Now the world is gone I'm just one. 
A5 B5 C#5 B5 A5 B5 C#5
Oh God help me!
 
G5  -A5-B5    -A5-G5-F#5 -B5 -A5-B5-C#5-B5-A5-B5-C#5
Hold my breath as I  wish for death. Oh,please God wake 
 
G5-A5-B5-A5-G5-F#5-B5
me!
 
  Am           G                B               C
-------------|----------------|-------------|------------|
-------------|----------------|-------------|------------|
-------------|----------------|-4-----4-----|---5-----5--|
--2--0--2--0-|-----5--5--5--5-|-4-----4-----|---5-----5--|
--3--2--3--0-|--2--5--5--5--5-|-2-----2-----|---3-----3--|
-------------|--3--3--3--3--3-|----2-----2--|------3-----|
                                              Play 4 times
 
  C/E                D                  B5            C5
-------------------|----------------|---------------|---------------------|
-------------------|----------------|---------------|---------------------|
-------------------|----------------|---4-----4-----|-5--5-5--------5-----|
--5--5--5--7--5----|-4--4--4--5--4\-|---4-----4-----|-5--5-5--5-----5-----|
--7--7--7--7--7--5-|-5--5--5--5--5\-|---2-----2-----|-3--3-3--3-----3-----|
-------------------|----------------|------2-----2--|------------3-----3--|
                                                                Play twice
 
---------------|-----------------|------------------------------------|
---------------|-----------------|------------------------------------|
---------------|-----------------|------------------------------------|
--5------(5)---|--------------2--|--------------2-(2)-------------2-3-|
--7------(7)---|--------------2--|--------------2-(2)-------------2-3-|
--0------(0)---|--0-0-0-0-0-0-0--|--0-0-0-0-0-0-------0-0-0-0-0-0-----|
		   Play 4 times                       Play 4 times
 
--------------------------------|-----------------------------------|
--------------------------------|-----------------------------------|
--------------------------------|-----------------------------------|
--------------------------------|------------------------------2-3--|
--------------2---------------2-|--------------2---------------2-3--|
--0-0-0-0-0-0-0---0-0-0-0-0-0-0-|--0-0-0-0-0-0-0---0-0-0-0-0-0------|
    Dark-ness     imprisoning me   all that I see  absolute  hor-ror
I can-not live I can-not die Trapped in my-self body my holdind cell!
 
------------------------------------|------------------------------------|
------------------------------------|------------------------------------|
------------------------------------|------------------------------------|
------------------------------------|------------------------------------|
--------------7-(7)-------------7-8-|-------------5-(5)-------------5/8--|
--0-0-0-0-0-0-------0-0-0-0-0-0-----|-0-0-0-0-0-0-------0-0-0-0-0-0------|
 
------------------------------------|------------------------------------|
------------------------------------|------------------------------------|
------------------------------------|------------------------------------|
------------------------------------|------------------------------------|
--------------7-(7)-------------7-8-|-------------5-(5)-------------5----|
--0-0-0-0-0-0-------0-0-0-0-0-0-----|-0-0-0-0-0-0-------0-0-0-0-0-0---7--|
 
---------------------------------|-----------------------------------|
---------------------------------|-----------------------------------|
---------------------------------|-----------------------------------|
---------------------------------|------------------------------2-3--|
--------------2---------------2--|--------------2---------------2-3--|
--0-0-0-0-0-0-0---0-0-0-0-0-0-0--|--0-0-0-0-0-0-0---0-0-0-0-0-0------|
  Land-mine    has taken my sight  taken my speech taken my  hear-ing
  Taken my   arms taken my   legs taken my soul left me with life in 
 
Double-time
-----------------------------------------|
-----------------------------------------|
-----------------------------------------|
--------------2--------------2--------3--|
--------------2--------------2--------3--|
--0-0-0-0-0-0----0-0-0-0-0-0----0-0-0----|
hell!_____________
 
 
Riff C
  E5                                      F5
-------------------------|--------------------|
-------------------------|--------------------|
-------------------------|--------------------|
---------------2---------|--------2--------3--|
---------------2---------|--------2--------3--|
--0-0-0-0-0-0-----0-0-0--|--0-0-0----0-0-0----|
 
[  4 times ]
 
 
  T         T        T        T        T        T        T        T
E-19p15p12--19p15p12-19p15p12-19p15p12-19p15p12-19p15p12-19p15p12-19p15p12-|
B--------------------------------------------------------------------------|
G--------------------------------------------------------------------------|
D--------------------------------------------------------------------------|
A--------------------------------------------------------------------------|
E--------------------------------------------------------------------------|
[ T= Tap using pick; p = pull off ]
 
  T         T        T        T        T        T        T        T
E-20p15p12--20p15p12-20p15p12-20p15p12-20p15p12-20p15p12-20p15p12-20p15p12-|
B--------------------------------------------------------------------------|
G--------------------------------------------------------------------------|
D--------------------------------------------------------------------------|
A--------------------------------------------------------------------------|
E--------------------------------------------------------------------------|
 
  T         T        T        T        T        T        T        T
E--------------------------------------------------------------------------|
B-19p15p12--19p15p12-19p15p12-19p15p12-19p15p12-19p15p12-19p15p12-19p15p12-|
G--------------------------------------------------------------------------|
D--------------------------------------------------------------------------|
A--------------------------------------------------------------------------|
E--------------------------------------------------------------------------|
 
  T         T        T        T        T        T        T        T
E--------------------------------------------------------------------------|
B-20p15p12--20p15p12-20p15p12-20p15p12-20p15p12-20p15p12-20p15p12-20p15p12-|
G--------------------------------------------------------------------------|
D--------------------------------------------------------------------------|
A--------------------------------------------------------------------------|
E--------------------------------------------------------------------------|
 
  T         T        T        T        T        T        T        T
E--------------------------------------------------------------------------|
B-17p13p10--17p13p10-17p13p10-17p13p10-17p13p10-17p13p10-17p13p10-17p13p10-|
G--------------------------------------------------------------------------|
D--------------------------------------------------------------------------|
A--------------------------------------------------------------------------|
E--------------------------------------------------------------------------|
 
  T         T        T        T        T        T        T        T
E--------------------------------------------------------------------------|
B-18p13p10--18p13p10-18p13p10-18p13p10-18p13p10-18p13p10-18p13p10-18p13p10-|
G--------------------------------------------------------------------------|
D--------------------------------------------------------------------------|
A--------------------------------------------------------------------------|
E--------------------------------------------------------------------------|
 
  T        T     T     T     T     T      T     T    T    T    T    T
E---------------------------------------|----------------------------------|
B-17p12h14-17p12-17p10-17p12-17p10-17p8-|-17p10-17p8-17p7-17p8-17p7-17p5---|
G---------------------------------------|----------------------------------|
D---------------------------------------|----------------------------------|
A---------------------------------------|----------------------------------|
E---------------------------------------|----------------------------------|
 
E------------------------------14-14-14-|-15-15-15--17-17-17----------------
B-/12-12-12--12-12-12--12--12-----------|---------------------15-15-15------
G---------------------------------------|-----------------------------------
D---------------------------------------|-----------------------------------
A---------------------------------------|-----------------------------------
E---------------------------------------|-----------------------------------
 
E-17-17-17-17-|-22^24-------22^24----22^24~|~~~~~~~~\---------------15-----|
B-------------|----------------------------|--------------/17--------------|
G-------------|----------------------------|-------------------------------|
D-------------|----------------------------|-------------------------------|
A-------------|----------------------------|-------------------------------|
E-------------|----------------------------|-------------------------------|
 
E-17p15---------------15h17p15-------------|-15h17p15-------------15h17p15--
B--------17-15-17-19-----------17-15-17-19-|----------17-15-17-19-----------
G------------------------------------------|--------------------------------
D------------------------------------------|--------------------------------
A------------------------------------------|--------------------------------
E------------------------------------------|--------------------------------
 
E-----------15-|-17p15------------15-17p15---------15h17----|
B-17-17-19-----|--------15-17-19------------17--15----------|
G--------------|--------------------------------------------|
D--------------|--------------------------------------------|
A--------------|--------------------------------------------|
E--------------|--------------------------------------------|
 
E-19p17p15-----19p17p15-----19p17p15------19p17p15----------|
B----------15-----------15------------15------------15------|
G-----------------------------------------------------------|
D-----------------------------------------------------------|
A-----------------------------------------------------------|
E-----------------------------------------------------------|
 
E-19p17--------19p17--------19p17---------19p17p15----------|
B----------15-----------15------------15--------------------|
G-----------------------------------------------------------|
D-----------------------------------------------------------|
A-----------------------------------------------------------|
E-----------------------------------------------------------|
 
E-------15-------15-------15-------15-|-18^19-15-------15-18^19-15-------15-|
B-18^20----18^20----18^20----18^20----|----------18^20-------------18^20----|
G-------------------------------------|-------------------------------------|
D-------------------------------------|-------------------------------------|
A-------------------------------------|-------------------------------------|
E-------------------------------------|-------------------------------------|
 
E-19p17p15-17----17p15----15----------|-------------------------------------|
B----------------------19-------------|-19p17p15-17-----15h17p15\13--15-----|
G-------------------------------------|-------------------------------------|
D-------------------------------------|-------------------------------------|
A-------------------------------------|-------------------------------------|
E-------------------------------------|-------------------------------------|
 
E------------------------------------------|--------------------------------|
B-13h15p13\12--13-----12h13p12----12-------|--------------------------------|
G------------------------------14----14p12-|-14p12----12----12--14^-14^-14^-|
D------------------------------------------|-------14----14-----------------|
A------------------------------------------|--------------------------------|
E------------------------------------------|--------------------------------|
 
E----------------------------|---------------------|------------------------|
B----------------------------|---------------------|------------------------|
G-14^16-14^16-----v14p12-----|-12-----12-----------|------------------------|
D-------------------------14-|----14------14-13-12-|------------------------|
A----------------------------|---------------------|-14-13-12-10~~~~~-------|
E----------------------------|---------------------|------------------------|
 
E---------------------------|---------------------------|-------------------|
B---------15^----------15^--|---------15^----------15^--|-17^-v-^-v-^-17^v^-|
G---------15^----------15^--|---------15^----------15^--|-17^-v---v-^-17^v^-|
D-17--17--------17--17------|-17--17--------17--17------|-------------------|
A---------------------------|---------------------------|-------------------|
E---------------------------|---------------------------|-------------------|

 
E---------------------|------------------------|----------------------------|
B-v(17)-^-v--15----15-|--------15^---------15^-|-17-----17-----15^-------15-|
G-v(17)-^-v--15----15-|--------15^---------15^-|-17-----17-----15^----------|
D---------------17----|-17--17------17--17-----|----------------------------|
A---------------------|------------------------|----------------------------|
E---------------------|------------------------|----------------------------|
 
E-------15--------15--------15--------15-|-------15--------15--------------||
B-18^20-----18^20-----18^20-----18^20----|-18^20-----18^20-----18^20~~~~~~-||
G----------------------------------------|---------------------------------||
D----------------------------------------|---------------------------------||
A----------------------------------------|---------------------------------||
E----------------------------------------|---------------------------------||
 
E------------------------------------|------------------------------------|
B------------------------------------|------------------------------------|
G------------------------------------|------------------------------------|
D------------------------------------|------------------------------------|
A---------------------------5-5-5----|-5-5-5----4-4-4---3-3-3---2-2-2-----|
E-3-3-3--3-3-3--3--------------------|------------------------------------|
 
Riff C
  E5                                      F5
-------------------------|--------------------|
-------------------------|--------------------|
-------------------------|--------------------|
---------------2---------|--------2--------3--|
---------------2---------|--------2--------3--|
--0-0-0-0-0-0-----0-0-0--|--0-0-0----0-0-0----|
 
[  9 times   ]
 
E------------------------------------|------------------------------------|
B------------------------------------|------------------------------------|
G------------------------------------|------------------------------------|
D------------------------------------|------------------------------------|
A---------------------------5-5-5----|-5-5-5----4-4-4---3-3-3---2-2-2-----|
E-0-0-0--0-0-0--0--------------------|------------------------------------|
 
[ two guitars                                                             ]
E-----------------------5--5--5------|------------------7--7--7--5--------|
B-8--8--8--7^-----------7--7--7------|--8^--------5-----8--8--8--7--------|
G-9--9--9--7^----7-------------------|--8^--------------------------------|
D----------------9-------------------|------------9-----------------------|
A------------------------------------|------------------------------------|
E------------------------------------|------------------------------------|
 
E-7--5-----5-------5-----------------|------------------------------------|
B-8--7--8--7-------7--8--7--8--------|-8--7--5--7--------7--5-----5-------|
G-------9-------------9--7--9--------|-9--7--6--7--------7--6--7--6-------|
D------------------------------------|-------------------------9----------|
A------------------------------------|------------------------------------|
E------------------------------------|------------------------------------|
 
E-----------------------5--5--5------|------------------7--7--7--5--------|
B-8--8--8--7^-----------7--7--7------|--8^--------5-----8--8--8--7--------|
G-9--9--9--7^----7-------------------|--8^--------------------------------|
D----------------9-------------------|------------9-----------------------|
A------------------------------------|------------------------------------|
E------------------------------------|------------------------------------|
 
E-7--5-----5-------5-----------------|-8--7--5--7--------7--5-----5-------|
B-8--7--8--7-------7--8--7--8--------|-10-8--7--8--------8--7--8--7-------|
G-------9-------------9--7--9--------|-------------------------9----------|
D------------------------------------|------------------------------------|
A------------------------------------|------------------------------------|
E------------------------------------|------------------------------------|
 
E-----------------------5--5--5------|------------------7--7--7--5--------|
B-8--8--8--7^-----------7--7--7------|--8^--------5-----8--8--8--7--------|
G-9--9--9--7^----7-------------------|--8^--------------------------------|
D----------------9-------------------|------------9-----------------------|
A------------------------------------|------------------------------------|
E------------------------------------|------------------------------------|
 
E-7--5-----5-------5-----------------|------------------------------------|
B-8--7--8--7-------7--8--7--8--------|-8--7--5--7--------7--5-----5-------|
G-------9-------------9--7--9--------|-9--7--6--7--------7--6--7--6-------|
D------------------------------------|-------------------------9----------|
A------------------------------------|------------------------------------|
E------------------------------------|------------------------------------|
 
E-----------------------5--5--5------|------------------7--7--7--5--------|
B-8--8--8--7^-----------7--7--7------|--8^--------5-----8--8--8--7--------|
G-9--9--9--7^----7-------------------|--8^--------------------------------|
D----------------9-------------------|------------9-----------------------|
A------------------------------------|------------------------------------|
E------------------------------------|------------------------------------|
 
E-7--5-----5-------5-----------------|------------------------------------|
B-8--7--8--7-------7--8--7--8--------|-8--7--5--7--------7--5-----5-------|
G-------9-------------9--7--9--------|-9--7--6--7--------7--6--7--6-------|
D------------------------------------|-------------------------9----------|
A------------------------------------|------------------------------------|
E------------------------------------|------------------------------------|
 
E------------------------------------|------------------------------------|
B-5----------------------------------|------------------------------------|
G-6--7--6--7-------7--6--4--6--------|-6--4--2--4--------4--2--0--2-------|
D----9--7--9-------9--7--5--7--------|-7--5--4--5--------4--2--0--2-------|
A------------------------------------|------------------------------------|
E------------------------------------|------------------------------------|
 
 
Riff C
  E5                                      F5
-------------------------|--------------------|
-------------------------|--------------------|
-------------------------|--------------------|
---------------2---------|--------2--------3--|
---------------2---------|--------2--------3--|
--0-0-0-0-0-0-----0-0-0--|--0-0-0----0-0-0----|
 
 x 4 
 
  G5
-------------------------|--------------------|
-------------------------|--------------------|
-------------------------|--------------------|
-------------5--------5--|--------5--------5--|
-------------5--------5--|--------5--------5--|
--3-----3----3--3--3--3--|--3--3--3--3--3--3--|
 
  E5                                      F5
-------------------------|--------------------|
-------------------------|--------------------|
-------------------------|--------------------|
---------------2---------|--------2--------3--|
---------------2---------|--------2--------3--|
--0-0-0-0-0-0-----0-0-0--|--0-0-0----0-0-0----|
 
  G5
-------------------------|--------------------|
-------------------------|--------------------|
-------------------------|--------------------|
-------------5--------5--|--------5--------5--|
-------------5--------5--|--------5--------5--|
--3-----3----3--3--3--3--|--3--3--3--3--3--3--|
 
  E5                        F5
-------------------------|--------------------|
-------------------------|--------------------|
-------------------------|--------------------|
---------------2------2--|--------3--------3--|
---------------2------2--|--------3--------3--|
--0-0-0-0-0-0---------0--|--1--1--1--1--1--1--|
[ 3 times ]
 
  E5                        G5
-------------------------|--------------------|--------------------|
-------------------------|--------------------|--------------------|
-------------------------|--------------------|--------------------|
---------------2------2--|--------5--------5--|--------5--------5--|
---------------2------2--|--------5--------5--|--------5--------5--|
--0-0-0-0-0-0---------0--|--3--3--3--3--3--3--|--3--3--3--3--3--3--|
 
  E5                                      F5
-------------------------|--------------------|
-------------------------|--------------------|
-------------------------|--------------------|
---------------2---------|--------2--------3--|
---------------2---------|--------2--------3--|
--0-0-0-0-0-0-----0-0-0--|--0-0-0----0-0-0----|
 
   E5
E------------------------------------|-----------------------------------||
B------------------------------------|-----------------------------------||
G------------------------------------|-----------------------------------||
D--2-2-2--2-2-2--2------------2-2-2--|--2-2-2--2-------------------------||
A--2-2-2--2-2-2--2------------2-2-2--|--2-2-2--2-------------------------||
E--0-0-0--0-0-0--0------------0-0-0--|--0-0-0--0-------------------------||

5.The Shortest Straw

Intro                    
-----

This is a rather slowly part.

      E5               E5                G5   F5 E5
D|-----2----------------2-----------------5----3-2--|
A|-----2----------------2-----------------5----3-2--|
E|-0-1-0------------0-1-0-----------0-1-0-3----1-0--|
PM . .              . .             . . .      


      E5             B5   E5           E5             G5  F5 E5	
G|--------------------3-----------|----------------------------|
D|-----2--------------3----2--(2)-|-----2--------------5---3-2-|
A|-----2--------------1----2--(2)-|-----2--------------5---3-2-|
E|-0-1-0--------0-1-0----1-0--(0)-|-0-1-0--------0-1-0-3---1-0-|
PM . .          . . .    .          . .          . . .   letrng
	                                                              
      E5            E5
E|----------------------|
B|----------------------|
G|----------------------|
D|-----2-------------2--|
A|-----2-------------2--|
E|-0-1-0------0-1-0--0--|
PM . .        . . .



Chorous
-------

This one goes a bit faster...

      E5                       E5    G5 B5
E|-----------------------------------------|
B|-----------------------------------------|
G|---------------------------------------3-|
D|-----2------------------------2-----5--3-|
A|-----2------------------------2-----5--1-|      
E|-0-1-0----0---0---0-0-0---0-1-0-----3----|
PM ...      ...................
      
      
      E5                       E5    B5 F5
E|-----------------------------------------|
B|-----------------------------------------|
G|------------------------------------3----|
D|-----2------------------------2-----3--3-|
A|-----2------------------------2-----1--3-|      
E|-0-1-0----0---0---0-0-0---0-1-0--------1-|
PM ...      ...................
      
      
      E5                       E5    G5 B5
E|-----------------------------------------|
B|-----------------------------------------|
G|---------------------------------------3-|
D|-----2------------------------2-----5--3-|
A|-----2------------------------2-----5--1-|      
E|-0-1-0----0---0---0-0-0---0-1-0-----3----|
PM ...      ...................

                                       Chorous Fill
                                       ------------

      E5                       E5      G5 G5 F#5 F5
E|------------------------------------|-------------|
B|------------------------------------|-------------|
G|------------------------------------|-------------|
D|-----2------------------------2-----|-5--5--4--3--|
A|-----2------------------------2-----|-5--5--4--3--|      
E|-0-1-0----0---0---0-0-0---0-1-0-----|-3--3--2--1--|
PM ...      ...................         


Repeat Chorous once and play the Chorous Fill


Then play this before kicking in the Main Riff

      E5                     F5 F5
E|---------------------------------|
B|---------------------------------|
G|---------------------------------| Main Riff Kicks In Immediately
D|-----2----------------------3--3-|
A|-----2----------------------3--3-|      
E|-0-1-0----0---0---0-0-0---0-1--1-|
PM ...      .................



Main Riff
---------

                           			    E5 F5  E5 F5
E|------------------------|------------------------------|
B|------------------------|------------------------------|
G|------------------------|------------------------------|
D|-----------8-7b(8)--8---|---------------------2-3---2-3|
A|--2--/--7-------------7-|---------------------2-3---2-3|
E|-0----------------------|-0---0---0-0---0-0---0-1---0-1|
     slide.			 P.M.................                     

One guitar plays this riff alone TWICE.
After the the drums & second guitar kicks in and play this riff one more time.

After that:

Main Riff Variation #1
----------------------
                    	                     E5 G5 E5 G5
E|------------------------|------------------------------|
B|------------------------|------------------------------|
G|------------------------|------------------------------|
D|-----------8-7b(8)--8---|---------------------2-5---2-5|
A|--2--/--7-------------7-|---------------------2-5---2-5|
E|-0----------------------|-0---0---0-0---0-0---0-3---0-3|
     slide.			 P.M.................                     

Main Riff Variation #2
----------------------
                                               E5 A5 E5 A5
E|------------------------|------------------------------|
B|------------------------|------------------------------|
G|------------------------|------------------------------|
D|-----------8-7b(8)--8---|---------------------2-7---2-7|
A|--2--/--7-------------7-|---------------------2-7---2-7|
E|-0----------------------|-0---0---0-0---0-0---0-5---0-5|
     slide.			 P.M.................                     




Main Riff Ending
----------------
  E5                       Lots of G5      F#5        F5             
E|------------------------|--------------------------------|
B|------------------------|--------------------------------|
G|----------3--2-h3p2p0---|--------------------------------|
D|2------2----------------|-6---6---6-6---6-4--4-4--4-4-3--|
A|2---0-------------------|-6---6---6-6---6-4--4-4--4-4-3--|    
E|0-----------------------|-3---3---3-3---3-2--2-2--2-2-1--|


Verse
-----
The verse is devided in to 2 "sections".
The first is exactly like the endings to the Second Main Riff...

Part 1:
-------
                     E5 F5 E5 F5                    E5 G5 E5 G5
E|------------------------------------------------------------|
B|------------------------------------------------------------|
G|------------------------------------------------------------|
D|--------------------2-3---2-3----------------------2-5---2-5-|
A|--------------------2-3---2-3----------------------2-5---2-5-|
E|-0---0---0-0---0-0--0-1---0-1---0---0---0-0---0-0--0-3---0-3-|
PM..................              .................

   "Sus - pi - cion  is  your name...Your hon - es - ty to blame"
   "Whitch  hunt mo-de-rn  day..."


                     E5 F5 E5 F5                  G5  F#5 F5
E|------------------------------------------------------------|
B|------------------------------------------------------------|
G|------------------------------------------------------------|
D|--------------------2-3---2-3-------------------5---4---3---|
A|--------------------2-3---2-3-------------------5---4---3---|    
E|-0---0---0-0---0-0--0-1---0-1---0---0---0-0---0-3---2---1---|
PM..................              ................       

  " Put  di- gni- ty   to  shame, dis- hon- our..." 
  " The bla-tant  dis- a -ray   , dis- fi- gure..."


Repeat Once


Part 2:
-------

This one is very similar to the first one.
Just play it a bit higher up on the freet.

                    F#5 G5 F#5 G5                  F#5 A5 F#5 A5
E|--------------------------------------------------------------|
B|--------------------------------------------------------------|
G|--------------------------------------------------------------|
D|--------------------4-6---4-6----------------------4-7---4--7-|
A|--------------------4-6---4-6----------------------4-7---4--7-|
E|-2---2---2-2---2-2--2-3---2-3---2---2---2-2---2-2--2-5---2--5-|
PM..................              .................

  " The Pub - lic  eye dis- grace...
  " Def -   en -  ing..."
                     
                    F#5 G5 F#5 G5                A5  G#5 G5
E|------------------------------------------------------------|
B|------------------------------------------------------------|
G|------------------------------------------------------------|
D|--------------------4-6---4-6-------------------7---6---6---|
A|--------------------4-6---4-6-------------------7---6---6---|    
E|-2---2---2-2---2-2--2-3---2-3---2---2---2-2---2-5---4---3---|
PM..................              ................       

" Un - ending  pa- per - chase, Un- en-ding..." 
" Reck  -  on  -  ing,       This - ver- ti- go doth it to bring..."


Repeat Once

Play the Main Riff once.


Pre-Chorous
-----------

  F#5                             E5   E5   F5   B5   C5
E|------------|------------------|-----------------------------------------|
H|------------|------------------|-----------------------------------------|
G|-4--4--4--4-|------------------|-9---9--9/10---4/5--5--5-----------------|
D|-4--4--4--4-|-2h3p2p0-2h3p2p0--|-9---9--9/10---4/5--5--5--2h3p2p0-2h3p2p0|
A|-2--2--2--2-|------------------|-7---7--7/8----2/3--3--3-----------------|
E|------------|------------------|-----------------------------------------|
                                          sl    sl         hammer-ons, pulloffs

   A5   A5 E5 F5  B5 G5 G5 G5
E|---------------------------------------------|
H|---------------------------------------------|
G|---------------------------------------------|
D|--7---7---9/10---4/5--5--5--2h3p2p0-2h3p2p0--|
A|--7---7---9/10---4/5--5--5-------------------|
E|--5---5---7/8----2/3--3--3-------------------|



Play Chorous

"Shortest Straw, challenge liberty..."
"Donwed by law, live in infamy..."


Chorous
-------

Play Chorous again.

Pulled for you, Shortest Straw..."


After the chorous ends play the entire Main Riff with all the Main Riff Variation 
and the Main Riff Ending.

Play the entire Verse again, Main Riff, Pre-Chorous, Chorous and all that *** again.



Interlude
----------

The Interlude has two guitars in it playing simountaniously.


Guitar 1:
E|--------------------------|----------------------------|
H|--------------------------|----------------------------|
G|-----2-------3------2h3p2-|-----2-------3------2h3p2---|
D|-2-------2-------2--------|-3-------3-------2----------|
A|--------------------------|----------------------------|
E|--------------------------|----------------------------|

E|--------------------------|----------------------------|
H|--------------------------|----------------------------|
G|-----2---4---5---7---7--7-|-7----------------7---------|
D|-4------------------------|-----5--4--5----------4-----|
A|--------------------------|----------------------------|
E|--------------------------|----------------------------|



Guitar 2:
Open Chords.

  E5                         F5
D|-2--------------(2)-------|-3---------------(3)--------|
A|-2--------------(2)-------|-3---------------(3)--------|
E|-0--------------(0)-------|-1---------------(1)--------|
	    let ring	  	      let ring


   D/F#5                     G5
G|--1--------------(1)------|----------------------------|
D|--3--------------(3)------|-5--------------(5)---------|
A|--4--------------(4)------|-5--------------(5)---------|
E|--1--------------(1)------|-3--------------(3)---------|


Repeat Interclude Once


The last time, Guitar 2 ends with:

   F#5                        G5

G|--1--------------(1)------|-------------------------|
D|--3--------------(3)------|-5-------------5--4---3--|
A|--4--------------(4)------|-5-------------5--4---3--|
E|--1--------------(1)------|-3-------------3--2---1--|
P.M                                         ........   


Guitar Solo
-----------

The other guitar plays Verse Riff.


A|--9--/---5-----|
      sl 

E|--------------------------------------------14--17p15p14-------12-15p14p12-|
H|-------------------------------------/-14h15-------------15----------------|
G|-[9]-/-\--/---\-----9--\--7---14-/-\------------------------16-------------|
D|---------------------------------------------------------------------------|
A|---------------------------------------------------------------------------|
E|---------------------------------------------------------------------------|
       Tremolo          sl         Tremlo

E|-----------14-12--------------12-------------12--<7>-----------------------|
H|-14p12h15---------15h13p12h13----15p13p12h13---------<7>-------------------|
G|---------------------------------------------------------<7>-----<5><5><5>-|
D|-------------------------------------------------------------<7>-<5><5><5>-|
A|---------------------------------------------------------------------------|
E|---------------------------------------------------------------------------|
                                                    Harmonics     Harmonics

E|-------12------------------------14p12h12------12--------------------------|
H|-14b16-----15p12--------12h15p12-----------15------------12h15p12----------|
G|------------------14b16----------------------------14b16-------------------|
D|---------------------------------------------------------------------------|
A|---------------------------------------------------------------------------|
E|---------------------------------------------------------------------------|


E|---------------------------------------------------------------------------|
H|-14---12-------12----------------------------------------------------------|
G|----------15------15p12h14------14p12--12h14p12----------1---2--[14]b[16]--|
D|----------------------------14-----------------------14--------------------|
A|---------------------------------------------------------------------------|
E|---------------------------------------------------------------------------|
                                                                  Harmonics

E|---------------------------------------------------------------------------|
H|---------------------------------------------------------------------------|
G|-[11]b[12]-----------------------------------------------------------------|
D|------------[13]b[14]-[12]b[13]-[11]b[12]----------------------------------|
A|-------------------------------------------[13]b[14]--[12]b[13]--[11]b[12]-|
E|---------------------------------------------------------------------------|
                lots of Artificial Harmonics


E|------------------|
H|------------------|
G|------------------|
D|------------------|
A|-[9]b[10]--12~~~--|
E|------------------|
                    

After that part, the second guitar plays a variation of the verse-riff.
It goes like:

                     E5 F5 E5 F5                    E5 G5 E5 G5
                                                               
D|-2------------------2-3---2-3----------------------2-5---2-5-|
A|-2------------------2-3---2-3----------------------2-5---2-5-|
E|-0------------------0-1---0-1----------------------0-3---0-3-|
   .

                     E5 F5 E5 F5                  G5  F#5 F5
                    
D|--------------------2-3---2-3-------------------5---4---3---|
A|--------------------2-3---2-3-------------------5---4---3---|    
E|--------------------0-1---0-1-------------------3---2---1---|

Repeat Once



Back to the solo.


E|-22p20p19---------20p19p17----------19----------------------------|
H|----------22--22------------20--20-----22p20p19--22p20p19---------|
G|----------------------------------------------------------20b21---|
D|------------------------------------------------------------------|
A|------------------------------------------------------------------|
E|------------------------------------------------------------------|


E|-----19-----------------------------------------------------------|
H|-20------22p20p19-22p20p19-------20p19-----------19---------------|
G|---------------------------21-21-------21p19--19----21p19------21-|
D|-----------------------------------------------------------22-----|
A|------------------------------------------------------------------|
E|------------------------------------------------------------------|


E|------------------------------------------------------------------|
H|-20p19---------19p17------------17p15---------15p13p12------12----|
G|--------21p19---------19p18p17---------17p16------------14--------|
D|------------------------------------------------------------------|
A|------------------------------------------------------------------|
E|------------------------------------------------------------------|


E|----------------------------|-------------------------------------|
H|-17p12--15p12---------------|-------------------------------------|
G|---------------14p12--14b16-|-- SHORT BREAK ----------------------|
D|----------------------------|----------------------------------12-|
A|----------------------------|------------------------------14-----|
E|----------------------------|-------------------------------------|

Easy climbing on the freet...

E|-------------------------------------------------------------------|
H|-------------------------------------------------------------------|
G|-11------10------9------8-------7--------6--------5--------4-------|
D|-----12------11-----10------9-------8--------7---------6--------5--|
A|-------------------------------------------------------------------|
E|-------------------------------------------------------------------|

E|---------------------------------------------------------|
H|---------------------------------------------------------|
G|--3------3-------2------1-------2---0--------------------|
D|-----4-------4------3-------2------------2---0----2------|
A|---------------------------------------------------------|
E|---------------------------------------------------------|


Slowly rising.

E|-----------------------------------7---------10---12-----/////12---|
H|-------------------------------8--------11-------------------------|
G|-----------------7---10----9---------------------------------------|
D|---------9---8-----------------------------------------------------|
A|-7--10-------------------------------------------------------------|
E|-------------------------------------------------------------------|


Hold...

Guitar 2 plays this fast fill:

              E5 F5 E5 F5   
                    
D|-------------5---4---3---|
A|-------------5---4---3---|    
E|-------------3---2---1---|


Part 3: (Guitar 2)
-------
This is a variation of the Interclude. It's played a bit higher.
Guitar 2 plays open power chords, it goes like this:


  F#5                        G5

D|-4--------------(4)-------|-6---------------(6)--------|
A|-4--------------(4)-------|-6---------------(6)--------|
E|-2--------------(2)-------|-3---------------(3)--------|


 E/G#5                       A5             A5  G#5 G5

G|-4--------------(4)-------|----------------------------|
D|-6--------------(6)-------|-7--------------7---6---5---|
A|-7--------------(7)-------|-7--------------7---6---5---|
E|-4--------------(4)-------|-5--------------5---4---3---|

Repeat Once.


Solo Guitar goes:

E|-9p6---9p6---9p6-9p6---9p6----9p6-|-10p7---10p7---10p7-10p7---10p7---10p7-|
B|-----7-----7---------7------7-----|------8------8-----------8------8------|
G|----------------------------------|---------------------------------------|
D|----------------------------------|---------------------------------------|
A|----------------------------------|---------------------------------------|
E|----------------------------------|---------------------------------------|


E|-12p7---12p7---12p7-12p7---12p7---12p7-|-12p9---12p9---12p9-12p9---12p9---12p9-|
B|------9------8-----------9------8------|------8------8-----------8------8------|
G|---------------------------------------|---------------------------------------|
D|---------------------------------------|---------------------------------------|
A|---------------------------------------|---------------------------------------|
E|---------------------------------------|---------------------------------------|


Interlude #2 (Solo Guitar)
------------

E|--------------------------|----------------------------|
H|--------------------------|----------------------------|
G|-----4-------5------4h5p4-|-----4-------5------4h5p4---|
D|-4-------4-------4--------|-5-------5-------5----------|
A|--------------------------|----------------------------|
E|--------------------------|----------------------------|


E|--------------------------|----------------------------|
H|--------------------------|----------------------------|
G|-----4---6---7---9---9--9-|-9--------------------------|
D|-6------------------------|-----7--6--7---6---6--------|
A|--------------------------|-----------7---6---6--------|
E|--------------------------|-----------5---4---3--------|


End Solo Fill
-------------


D|-4-/-3-------2---|
A|-4-/-3-------2---|
E|-2-/-1-------0---|
PM  sl         .



Here goes the the Chorous again.
Play the Main riff TWICE

Solo 2
------

A rather short solo...
Use wah-wah.

The other guitar plays Chorous-Riff.

E|------------------------------------------------------------------|
B|-17b19~~~~--------------------------------------17b20---17b19-----|
G|-17b19~~~~----------17b19-r17-p-15-17p15--------------------------|
D|------------------------------------------------------------------|
A|------------------------------------------------------------------|
E|------------------------------------------------------------------|


E|--------------------------18b20---------18--17--15------15--18b20-|
B|--17b20-r-17p15---17b18-----------------------------18------------|
G|------------------17b19-------------------------------------------|
D|------------------------------------------------------------------|
A|------------------------------------------------------------------|
E|------------------------------------------------------------------|


E|----18p15------------15h18p15-------------------------------------|
B|-20--------18p15h18------------18p15--------15-15-18p15-----------|
G|--------------------------------------17b19-------------17--15--15|
D|------------------------------------------------------------------|
A|------------------------------------------------------------------|
E|------------------------------------------------------------------|


E|------------------------------------------------------------------|
B|-17b18----15---17--17---15------15---17--17p15-----15-------------|
G|-17b19----15---17--17---15------15---17--17p15-----15-------------|
D|----------------------------17-----------------17------17---15-17~|
A|------------------------------------------------------------------|
E|------------------------------------------------------------------|

Then rapidly go to verse.
Then Main Riff, Pre-Chorous.
Then skip Chorous and play this instead:

      E5                     F5 F5 E5
E|------------------------------------|
B|------------------------------------|
G|------------------------------------|
D|-----2----------------------3--3--2-|
A|-----2----------------------3--3--2-|      
E|-0-1-0----0---0---0-0-0---0-1--1--0-|
PM ...      .................
                      "Pulled for you!"



Finally, play this:

                     E5 F5 E5 F5                    E5 F5 E5 F5
E|--------------------------------------------------------------|
B|--------------------------------------------------------------|
G|--------------------------------------------------------------| 
D|--------------------2-3---2-3----------------------2-3---2--3-|
A|--------------------2-3---2-3----------------------2-3---2--3-|
E|-0---0---0-0---0-0--0-1---0-1---0---0---0-0---0-0--0-1---0--1-|
PM..................             ..................


Then go to the Interlude.


Ending
------
At last:
                     E5 F5 E5 F5                    E5  E5   
E|------------------------------------------------------------|
B|------------------------------------------------------------|
G|------------------------------------------------------------| 
D|--------------------2-3---2-3---2-----------------2---2-----|
A|--------------------2-3---2-3---2-----------------2---2-----|
E|-0---0---0-0---0-0--0-1---0-1---0-----------------0---0-----|
PM..................              .

6.Harvester Of Sorrow

intro    both guitars 
|-------------------|------------------------|
|-------------------|------------------------|
|-------------------|------------------------|
|-------4-3-2-------|-2---------4-3-2--------|
|5-4-2--2-1-0--5-2--|-2----5-4-2--2-1-0-5-2--|
|3-2-0---------3-4--|-0----3-2-0--------3-4--|

  guitar 2
|-----------------------------|--------------------|
|-----------------------------|--------------------|
|-----------------------------|--------------------|X2
|--------3--2--------5--3--2--|-----3--0----0---0--|
|-----2----------2------------|---2--------0-------|
|--0----------0---------------|0----------3---1----|


   guitar 2
|-----------------------------|--------------------|
|-----------------------------|--------------------|
|-----------------------------|--------------------|
|--------3--2-------5--3--2---|------3--0---0---0--|
|-----2----------2------------|---2--------0-------|
|--0----------0---------------|0----------3---1----|
|  guitar 1                                        |X2
|--------------------------------------------------|
|--------------------------------------------------|
|--------------------------------------------------|
|-2------------------------------------------------|
|-2-LET-RING-~~------------------------------------|
|-0------------------------------------------------|





3 times      both guitars 
|-----------------------------|---------------------|
|-----------------------------|---------------------|
|-----------------------------|---------------------|
|--------3--2--------5--3--2--|--------3--0----0--0-|
|-----2-----------2-----------|-----2---------0-----|
|--0-----------0--------------|--0-----------3---1--|
PM...........................|


|-------------------------------|
|-------------------------------|
|-------------------------------|
|--------3--2--------4-3-2------|
|-----2--------5-4-2-2-1-0-5-4--|
|--0-----------3-2-0-------3-2--|
 PM....|


Rhy Fig 1 end Rhy Fig 1
|--------------------------------|--------------------------------|
|--------------------------------|--------------------------------|
|--------------------------------|--------------------------------|
|----------------------4\3-------|---------------------4\3--------|
|--2--2-2-2--2-2-5\4---2\1---5\3-|-3--3-3-3--3---5\4---2\1---5\4--|
|--0--0-0-0--0-0-3\2-0-----0-3\2-|-1--1-1-1--1-0-3\2-0-----0-3\2--|
 PM......................................|


Rhy Fig 1A end Rhy Fig 1A
|--------------------------------|---------------------------------|
|--------------------------------|---------------------------------|
|--------------------------------|---------------------------------|
|----------------------4\3-------|---------------------3-3-3-3-----|
|--2--2-2-2--2-2-5\4---2\1---5\3-|-3--3-3-3--3---5-4---1-1-1-1-----|
|--0--0-0-0--0-0-3\2-0-----0-3\2-|-1--1-1-1--1-0-3-2-0---------3---|
 PM.................................................|

|------------|------------|------------|----------|----------------|
|------------|------------|------------|----------|----------------|
|------------|------------|------------|----------|----------------|
|-2----------|------------|------------|----------|----------------|
|-2----------|---0--------|---0--------|----------|---1--(1) ~ ----|
|-0------0-1-|-2------0-1-|-2------2-1-|-0----0-1-|-2----------2-1-|



|------------|----------------------|------------------------|
|------------|----------------------|------------------------|
|------------|----4---4---4--4------|----------2---2--2------|
|------------|----2---2---2--2------|----------2---2--2------|
|------------|----2---2---2--2------|----1-----2---2--2------|
|-0------1-1-|--2-0---0---0--0--0-1-|-2-----0--0---0--0--0-1-|
 PM.............|      PM..|


|--------------------------|------------------------|
|--------------------------|------------------------|
|------------2---2--2------|----------2---2--2------|
|------------2---2--2------|----------2---2--2------|
|----1-------2---2--2------|----1-----2---2--2------|
|-2-----0----0---0--0--0-1-|-2-----0--0---0--0--0-1-|
 PM......| PM...........| PM..|


|-----------------------|------------------------|------------------------|
|-----------------------|------------------------|------------------------|
|---------4---4--4------|----------2---2--2------|----------4---4--4------|
|----0----5---5--5------|----------2---2--2------|----0-----5---5--5------|
|------5--5---5--5------|----1-----2---2--2------|-------5--5---5--5------|
|-2----3--3---3--3--0-1-|-2-----0--0---0--0--0-1-|-2-----3--3---3--3--0-1-|
 PM PM PM..........|    PM......| PM    PM..|


Verse

My life suffocates    planting the seeds of hate I've loved, turned to hate
|------------------------|----------------------------|-------------------------|
|------------------------|----------------------------|-------------------------|
|----2----2----2--2------|----2----2----2--2----------|----2----2----2--2-------|
|----2----2----2--2------|----2----2----2--2----------|----2----2----2--2-------|
|----2----2----2--2------|----2----2----2--2----------|----2----2----2--2-------|
|-2--0----0----0--0--0-1-|-2--0----0----0--0--0-1-----|-2--0----0----0--0--0-1--|
 PM PM..|

Trapped far beyond my fate i give, you take this life that i forsake
|------------------------|------------------------|------------------------|
|----3----3----3--3------|------------------------|------------------------|
|----4----4----4--4------|----2-----------2-------|----2----2----2--2------|
|----5----5----5--5------|----2-----------2-------|----2----2----2--2------|
|----5----5----5--5------|----2-----------2-------|----2----2----2--2------|
|-2--3----3----3--3--0-1-|-2--0----0-1-2--0---0-1-|-2--0----0----0--0--0-1-|




Been cheated of my youth you turnd this love to truth
|------------------------|------------------------|--------------------------|
|------------------------|----3----3----3--3------|--------------------------|
|----2----2----2--2------|----4----4----4--4------|--------------------------|
|----2----2----2--2------|----5----5----5--5------|-------3--2-------5--3--2-|
|----2----2----2--2------|----5----5----5--5------|----2----------2----------|
|-2--0----0----0--0--0-1-|-2--3----3----3--3--0-1-|-0-----------0------------|
                    PM......|        PM.|




|---------------------------|
|---------------------------|
|---------------------------|
|-------3--0----0-----------|
|----2---------0------------|
|-0-----------3------1--0-1-|



PRE CHORUS

Rhy Fig 2A

                         E5
Anger,  misery    you'll suffer unto me
|-------------------------|------------------------|---------------------------|
|-------------------------|------------------------|---------------------------|
|----2-----------2--------|----2----2----2--2------|---------------------------|
|----2-----------2--------|----2----2----2--2------|-------3--2--------5--3--2-|
|----2-----------2--------|----2----2----2--2------|----2-----------2----------|
|-2--0----0-1-2--0----0-1-|-2--0----0----0--0--0-1-|-0------------0------------|
PM   PM.....| PM......|         PM.........|     PM..|

E5
   End Rhy Fig 2A
|------------------------|
|------------------------|
|------------------------|
|-------3--0------0----0-|
|----2----------0--------|
|-0-----------3------1---|
 PM............|

|--------------------------------|-------------------------------|
|--------------------------------|-------------------------------|
|--------------------------------|-------------------------------|
|----------------------4\3-------|---------------------4-3-------|
|--2--2-2-2--2-2-5\4---2\1---5\3-|-3--3-3-3--3---5-4---2-1-0-5-4-|
|--0--0-0-0--0-0-3\2-0-----0-3\2-|-1--1-1-1--1-0-3-2-0-------3-2-|
 PM.................................................|




CHORUS
W/Rhy Fig 1

  Harvester of sorrow.     language of the mad.

W/Rhy Fig 1A

  Hayester of sorrow.




|-------------------------|---------------------------|
|-------------------------|---------------------------|
|-------------------------|---------------------------|
|-------3--2------5--3--2-|-------3--0------0---------|
|----2----------2---------|----2----------0----3------|
|-0-----------0-----------|-0-----------3------1--0-1-|
 PM......................................|


|-------------------------|-------------------------|
|-------------------------|-------------------------|
|----------4----4--4------|----------2----2--2------|
|----------2----2--2------|----------2----2--2------|
|----1-----2----2--2------|----1-----2----2--2------|
|-2-----0--0----0--0--0-1-|-2-----0--0----0--0------|



|-------------------------|------------------------|
|-------------------------|------------------------|
|----------2----2--2------|----------4---4--4------|
|----------2----2--2------|----0-----5---5--5------|
|----1-----2----2--2------|-------5--5---5--5------|
|-2-----0--0----0--0--0-1-|-2-----3--3---3--3--0-1-|





2nd Verse
W/Rhy Fig 2


Pure black looking clear. My work is done soon here.
Try getting back to me. Get back what used to be.
Drink up, shoot in.    Let the beatings begin.
Distributor of pain.    Your loss becomes my gain.


 Pre Chorus
 W/Rhy Fig 2A

 Anger, misery,    	you'll suffer onto me.

 Rhy Fig 1

Chorus
 W/Rhy Fig 1

 Harvester of sorrow.    Language of the mad.

 W/Rhy Fig 1a

 Harvester of sorrow.



|-------------------------|-------------------------|
|-------------------------|-------------------------|
|-------------------------|-------------------------|
|-------3--2------5--3--2-|------3----------5--3--2-|
|----2----------2---------|----2----------2---------|
|-0-----------0-----------|-0-----------0-----------|
 PM...|   PM..|     PM...| PM.|


|-------------------------|---------------------------|
|-------------------------|---------------------------|
|-------------------------|---------------------------|
|-------3--2------5--3--2-|-------3--0------0---------|
|----2---------2----------|----2----------0----5------|
|-0----------0------------|-0-----------3------3--0-2-|
 PM...|  PM..|       PM..| PM.|



SOLO:

|-------------------------------------|-------------------------------------|
|--15b17---15b17~---15b17---15b17r15b-|--r15--17b19--15b17---15b17-r15------|
|-------------------------------------|----------------------------------14-|
|-------------------------------------|-------------------------------------|
|-------------------------------------|-------------------------------------|
|-------------------------------------|-------------------------------------|
|
|--------------------------------------|------------------------------------|
|--------------------------------------|------------------------------------|
|-----2-----------------2--------------|----2---------2-----------2---------|
|-----2-----------------2--------------|----2---------2-----------2---------|
|-----2-----------------2--------------|----2---------2-----------2---------|
|--2--0----------0-1-2--0---------0-1--|-2--0---------0-----------0----0-1--|
                   



|--17b19---17b19---15p14----14----------------------------|
|------------------------17----17p15-17-14p14\12-14p12\10-|
|---------------------------------------------------------|
|---------------------------------------------------------|
|---------------------------------------------------------|
|---------------------------------------------------------|
|                                                         |
|---------------------------------------------------------|
|---------------------------------------------------------|
|-------2-------------------2-----------------------------|
|-------2-------------------2-----------------------------|
|-------2-------------------2-----------------------------|
|--2----0----------0--1--2--0-----------------------0--1--|




|---------------------------------------------------------------------|
|--12b14r12p10--12b14r12p10-12b14r12p10-12b14r12p10-12b14-~-~---------|
|-------------------------------------------------------------12--14--|
|---------------------------------------------------------------------|
|---------------------------------------------------------------------|
|---------------------------------------------------------------------|
|								      |
|---------------------------------------------------------------------|
|--------3-----------------3--------------------3-----------3---------|
|--------4-----------------4--------------------4-----------4---------|
|--------5-----------------5--------------------5-----------5---------|
|--------5-----------------5--------------------5-----------5---------|
|--2-----3-----------------3--------------------3-----------3----0--1-|




|--------------------------------------------------|
|--------------------------------------------------|
|--11h12p11----------------------------------------|
|---------------------------/14-~-~------------14--|
|------------14------14h15-------------------------|
|--------------------------------------------------|
|                                                  |
|--------------------------------------------------|
|--------------------------------------------------|
|-------2----------------------2-------------------|
|-------2----------------------2-------------------|
|-------2----------------------2-------------------|
|--2----0-----------0--1--2----0-------------0--1--|




|-----------------14-15/19---------17--15--|--15h17p15p14----14h15p14------|
|--------14-15-17--------------------------|---------------------------15--|
|--14h16-----------------------------------|-------------------------------|
|------------------------------------------|-------------------------------|
|------------------------------------------|-------------------------------|
|------------------------------------------|-------------------------------|
|
|------------------------------------------|-------------------------------|
|------------------------------------------|-------------------------------|
|-------2------------2--------2----2-------|-------------------------------|
|-------2------------2--------2----2-------|-------------------------------|
|-------2------------2--------2----2-------|---------0---------------------|
|-------0------------0--------0----0--0-1--|--2------------------------2-1-|



|----------------|-----------------|
|--17------------|--(17)-----------|
|----------------|-----------------|
|----------------|-----------------|
|----------------|-----------------|
|----------------|-----------------|
|
|----------------|-----------------|
|----------------|-----------------|
|----------------|-----------------|
|----------------|-----------------|
|-----1----------|-----1-----------|
|--2---------0-1-|--2----------0-1-|









|------------------------|----------------------------|-----------------------------
|----0----0----0--0------|----------------------------|-----------------------------
|----1----1----1--1------|------------------------2-3-|-----------------------------
|----2----2----2--2------|-2----------0--2--3-3-5-----|---------------------4\3-----
|----2----2----2--2------|-2--0h1p0-3-----------------|-2--2-2-2--2-2-5\4---2\1---3\
|-2--0----0----0--0--0-2-|-0--------------------------|-0--0-0-0--0-0-3\2-0-----0-5\
                   


|----------------------------|-------------------------------|
|----------------------------|-------------------------------|
|------------------------2---|-------------------------------|
|-2----------0--2--3-3-5---3-|---------------------4\3-------|
|-2--0h1p0-3-----------------|-3--3-3-3--3---5\4---2\1---3\1-|
|-0--------------------------|-1--1-1-1--1-0-3\2-0-----0-5\3-|
       

          
|------------------------------------|------------------------------------|
|------------------------------------|------------------------------------|
|--3p2p0-2-3-2-0---------------------|-3p2p0-2-3-5-3-3p2p0----------------|
|--3p2p0-2-3-2-0-3p2p0---------------|-3p2p0-2-3-5-3-3p2p0----------------|
|----------------3p2p0-2--2-2-2--2-2-|---------------------3--3-3-3--3----|
|----------------------0--0-0-0--0-0-|---------------------1--1-1-1--1-0--|



|-----------------------------------|
|-----------------------------------|
|-3p2p0-2-3-5-3-3p2p0---------------|
|-3p2p0-2-3-5-3-3p2p0----3-----3----|
|------------------------3-----3----|
|---------------------1--1-1-1-1----|

7.The Frayed Ends Of Sanity

Intro:

                              
e-|----------------------------------|
B-|----------------------------------|
G-|----------5---------------4-------|
D-|-2--------5-------2-------4-------|
A-|-2--------3-------2-------2-------|
E-|-0----------------0---------------|

Riff 1 Repeat 6 times
                                                        P.M..|
e-|----------------------------------------------------------|
B-|----------------------------------------------------------|
G-|-----3----------3---------------3-----------3-------------|
D-|-2---3---2------3---2-------2---3---2-------3---2---------|
A-|-2---1---2------1---2-------2---1---2-------1---2---------|
E-|-0-------0--X-X-----0---X-X-0-------0---X-X-----0---0-0-0-|

Main riff:
      P.M.|      |.|     |     |.|
e-|----------------------------------|
B-|----------------------------------|
G-|---------3--------3---------------|
D-|-2-------3--------3-----4-------3\|
A-|-2-------1--------1-----4-------3\|
E-|-0-0-0-0------0-0-----0-2---0-0-1\|

Add 1:
      P.M.|      |.|
e-|--------------------------------|
B-|--------------------------------|
G-|---------3--------3-------3-3-3-|
D-|-2-------3--------3-------3-3-3-|
A-|-2-------1--------1-------1-1-1-|
E-|-0-0-0-0------0-0---------------|

Add 2:
      P.M.|      |.|
e-|----------------------------------------|
B-|----------------------------------------|
G-|---------3--------3------3-3------3-3-3-|
D-|-2-------3--------3------3-3------3-3-3-|
A-|-2-------1--------1----X-1-1------1-1-1-|
E-|-0-0-0-0------0-0-----------------------|

Verse 1:
        P.M     |.|     |.|     |.|     |.|
e-|-------------------------------------------
B-|-------------------------------------------
G-|-------------------------------------------
D-|-2-------2---------------------------------
A-|-2-------2-------7-------7-------7-------7-
E-|-0---0-0-0---0-0-6---0-0-6---0-0-5---0-0-5-

 |.|     |.|
--------------------|
--------------------|
--------------------|
--------------------|
-----7--------------|
-0-0-4---0-0-2br2br-|

Verse 2:

e-|---------------|
B-|---------------|
G-|-4---3---2-----|
D-|-4---3---2---6-|
A-|-2---1---0---6-|
E-|-------------4-|

Prechorus (very drunken rhythm):
    P.M           |.|         |.|       |.|
e-|-------------------------------------------------
B-|-------------------------------------------------
G-|-------------------------------------------------
D-|------5/5-7--------5/5-7-------5-5-------5-6-7-8-
A-|------5/5-7--------5/5-7-------5-5-------5-6-7-8-
E-|-0-0--3/3-5----0-0-3/3-5---0-0-3-3---0-0-3-4-5-6-
  
  |.|         |.|         |.|       |.|
------------------------------------------------|
------------------------------------------------|
------------------------------------------------|
------5/5-7-------5-5-2-------5-5-------5-6-7-8-|
------5/5-5-------5-5-2-------5-5-------5-6-7-8-|
--0-0-3/3-5---0-0/3-3-0---0-0/3-3---0-0-3-4-5-6-|

Chorus:
                   P.M                   P.M
e-|------------------------------------------------------
B-|------------------------------------------------------
G-|------------------------------4-----------------------
D-|-2------4------5-6-7-8-2------4------5-6-7-8-2------5-
A-|-2------4------5-6-7-8-2------2------5-6-7-8-2------5-
E-|-0------2------3-4-5-6-0-------------3-4-5-6-0------3-
         
           P.M                  P.M..|  |...........|    
------------------------------------------------------|
------------------------------------------------------|
--------------------9------7----------5-6-7-8---------|
-----4------5-6-7-8-9------7--5-6-7-8-5-6-7-8-5-6-7-8-|
-----4------5-6-7-8-7------5--5-6-7-8-3-4-5-6-5-6-7-8-|
-----2------3-4-5-6-0---------3-4-5-6---------3-4-5-6-|

Riff 2a(rhythm guitar plays B5):
            P.M.|       |.....|
e-|---------------------------------|
B-|---------------------------------|
G-|---------------------------------|
D-|-2h4p2---------------------------|
A-|---------5-4-2-2h4p2---------2-5-|
E-|---------------------5-3-2-5-----|

Riff 3a(rhythm guitar plays C#5):
             P.M.|       |.....|
e-|----------------------------------|
B-|----------------------------------|
G-|----------------------------------|
D-|-----4h6p-------------------------|
A-|-4--------7-6-4-4h6p4---------4-7-|
E-|----------------------7-5-4-7-----|

Add 3:

e-|--------|
B-|--------|
G-|--------|
D-|--4---4-|
A-|--2---2-|
E-|--------|

Riff 2b(rhythm guitar plays B5):
              P.M.|       |.....|
e-|-----------------------------------|
B-|-----------------------------------|
G-|-----2h4p2-------------------------|
D-|-0---2h4p2-4-2-0-0h2p0---------0h4-|
A-|-2---------5-4-2-2h4p2-4-2-0-4-2h5-|
E-|-----------------------5-3-2-5-----|

Riff 3b(rhythm guitar plays C#5):
              P.M.|       |.....|
e-|-----------------------------------|
B-|-----------------------------------|
G-|-----4h6p4-------------------------|
D-|-2---4h6p4-6-4-3-2h4p2---------2h6-|
A-|-4---------7-6-4-4h6p4-6-4-2-6-4h7-|
E-|-----------------------7-5-4-7-----|

Riff 4:
    D5                              D#5
              P.M.|           |...|           |...|
e-|-------------------------------------------------
B-|-------------------------------------------------
G-|-----5h7p5-----------5h7p5-----------6h8p6-------
D-|-7---5h7p5-7-5-3-7---5h7p5-7-5-3-8---6h8p6-8-6-4-
A-|-5---------8-7-5-5---------8-7-5-6---------9-8-6-
E-|-------------------------------------------------
            |....|
------------------|
------------------|
------6h8p6-------|
--8---6h8p6-------|
--6---------9-8-6-|
------------------|

Riff 5:
    E5
                                      P.M.......|
e-|----------------------------------------------
B-|-8---7h8p7---8---7h8p7---8p7---7h8p7----------
G-|-9---7h9p7---9---7h9p7---9p7---7h9p7---9------
D-|-9---7h9p7---9---7h9p7---9p7---7h9p7---10-7-5-
A-|---------------------------------------10-7-5-
E-|------------------------------------------9-7-
 
       |...........|
-------------------------------|
-------------------------------|
--4h5p4-----------------4-7-9--|
--5h7p5-7--5-4---4-7----5-7-9--|
--7h9p7-9--7-5---5-9----7-9-10-|
--------10-8-7---7-10----------|

Riff 6:
    P.M.....|        |.....|       |.....|
e-|-----------------------------------------------
B-|-----------------------------------------------
G-|-----------------------------------------------
D-|-----------------------------------------------
A-|-------------7p5h7---------7p5h7---------7p5h7-
E-|-0---0-0-0---------0-0-0---------0-0-0---------

  |..|    |..|    |...|         |...|         |...|
----------------------------------------------------
----------------------------------------------------
----------------------------------------------------
----------------------------------------------------
--------------------------7p5h7---------7p5h7-------
--0-0-7---0-0-6---0-0-0---------0-0-0---------0-0-0-

       |..|     |.|
--------------------------|
--------------------------|
--------------------------|
--------------------------|
--7p5h7-----6-------5p0---|
--------7-7-----6-6-----3-|

Add 4
e-|-----------------------------|
B-|-----------------------------|
G-|-----------------------------|
D-|-5p4h5------5p4h5------5p4h5-|
A-|-----------------------------|
E-|-----------------------------|

Add 5
e-|-----------------------------|
B-|-----------------------------|
G-|-----------------------------|
D-|-9p7h9------9p7h9------9p7h9-|
A-|-----------------------------|
E-|-----------------------------|

Add 6
e-|--------------------------------------|
B-|--------------------------------------|
G-|--------------------------------------|
D-|-14p12h14------14p12h14------14p12h14-|
A-|--------------------------------------|
E-|--------------------------------------|


Solo: I got this somewhere, it's anything but complete. I can't 
play the damn thing anyway. 

e-|------|-t14p10p7---t14p10p7---t14---(14)p10p7---t14p10p7-
B-|---//-|--------------------------------------------------
G-|-5//--|--------------------------------------------------
D-|-7/---|--------------------------------------------------
A-|------|--------------------------------------------------
E-|------|--------------------------------------------------

-t14/15p10p7---t14/15p10p7---t14/15p10p7h(10)--t17p10p7--
---------------------------------------------------------
---------------------------------------------------------
---------------------------------------------------------
---------------------------------------------------------
---------------------------------------------------------

-t14/15p10p7---t14t14p10p7---t14/15p10p7-t14-t14p10p7--
-------------------------------------------------------
-------------------------------------------------------
-------------------------------------------------------
-------------------------------------------------------
-------------------------------------------------------

-t15p10p7---t14p10p7---t15p10p7---t14p10p7---t15p10p7--
-------------------------------------------------------
-------------------------------------------------------
-------------------------------------------------------
-------------------------------------------------------
-------------------------------------------------------

-t14p10p7---t15p10p7---5-----------------------------------
-----------------------5---h2---(2)/---17b/\/\/\full/\/\/\-
-----------------------------------------------------------
-----------------------------------------------------------
-----------------------------------------------------------
-----------------------------------------------------------

-----------/\/\full/\/\----------------14---17p14-------14--
-17b---17b/---------------(17)------17--------------17------
------------------------------------------------------------
------------------------------------------------------------
------------------------------------------------------------
------------------------------------------------------------

--------------------------------------------------------
-17p14---17p14---17b---14-------------------------------
----------------------------16---14---16p14-----14-16b--
----------------------------------------------16--------
--------------------------------------------------------
--------------------------------------------------------

----------17p14-------------------------------------------
-14-17p14-------17p14-------14h17p14----------------------
----------------------17b------------16---14------14-16b--
---------------------------------------------16-----------
----------------------------------------------------------
----------------------------------------------------------

---------------------------------------------------------
-14-14h17p14---------14-17p14---14-17p14----14h17p14-----
---------------17b------------17---------16----------16--
---------------------------------------------------------
---------------------------------------------------------
---------------------------------------------------------

-----------------------|
-14h17p-14----14h17p14-|
-----------16----------|
-----------------------|
-----------------------|
-----------------------|

I haven't got more than this, maybe it's totally wrong, I 
haven't played more than the beginning, that part sounds 
quite good. 
The rhythm guitar plays very weird and unfinished
lines, the rhythm varies between 4/4, 3/4 and 5/4:

     P.M......|
e-|----------------|
B-|----------------|
G-|-------------3--|
D-|-4-4-4-4-4-4-3--|
A-|-2-2-2-2-2-2-1--|
E-|----------------|

     P.M...................|     P.M.    P.M.
e-||-----------------------------------------
B-||*----------------------------------------
G-||-----------------------------------------
D-||-----------------------------------------
A-||*----------------------------------------
E-||-0---0-0-0---0-0-0---0-0-7---0-0-6---0-0-

P.M............|     |.|     |..................|
-------------------------------------------------
-------------------------------------------------
-------------------------------------------------
-------------------------------------------------
-------------------------------------------------
-0---0-0-0---0-0-7---0-0-6---0-0-0---0-0-0---0-0-

   |   |   |   |   |        P.M...........|
-----------------------------------------------
-----------------------------------------------
-----------------------------------------------
---------------------8-------------------------
---------7-0-6-------8-------------------------
-7-0-6-0-------0-7-0-6------0---0-0-0---0-0-7\-

 P.M....................|    |.|     |.............
---------------------------------------------------
---------------------------------------------------
---------------------------------------------------
---------------------------------------------------
-------------------------4-------3-----------------
-2---2-2-2---2-2-2---2-2-----2-2-----2-2-2---2-2-2-
                                        Play twice
 ..|     |.|     |.................|     |-|
----------------------------------------------||
---------------------------------------------*||
----------------------------------------------||
----------------------------------------------||
-----4-------3-----------------------4-------*||
-2-2-----2-2-----2-2-2---2-2-2---2-2-----2-2--||

    P.M...................|     |.|    |.............|
e-|---------------------------------------------------
B-|---------------------------------------------------
G-|---------------------------------------------------
D-|---------------------------------------------------
A-|---------------------------------------------------
E-|-0---0-0-0---0-0-0---0-0-7---0-0-6---0-0-0---0-0-0-

 P.M     |.|     |.................|     |.|
---------------------------------------------
---------------------------------------------
---------------------------------------------
---------------------------------------------
---------------------------------------------
-0-0-7---0-0-6---0-0-0---0-0-0---0-0-7---0-0-

 P.M...................|    |.|      |............|
---------------------------------------------------
---------------------------------------------------
---------------------------------------------------
---------------------------------------------------
-------------------------4-------3-----------------
-2---2-2-2---2-2-2---2-2-----2-2-----2-2-2---2-2-2-

 P.M     |.|     |.................|     |.|
---------------------------------------------   
---------------------------------------------
---------------------------------------------
---------------------------------------------
-----4-------3-----------------------4-------
-2-2-----2-2-----2-2-2---2-2-2---2-2-----2-2-

 P.M...................|     |.|     |...........|
---------------------------------------------------
---------------------------------------------------
---------------------------------------------------
---------------------------------------------------
-0---0-0-0---0-0-0---0-0-7---0-0-6---0-0-0---0-0-0-
---------------------------------------------------

 P.M     |.|     |..................|
-------------------------------------
-------------------------------------
-------------------------------------
-----7-------6-----------------------
-0-0-----0-0-----0-0-0---0-0-0---0-0-
-------------------------------------

   |   |   |   |   |        |.............|     |.|
------------------------------------------------------
------------------------------------------------------
---------------------8--------------------------------
---------7-0-6-------8--------------------------------
-7-0-6-0-------0-7-0-6------0---0-0-0---0-0-7---0-0-6-
------------------------------------------------------

 P.M...............|     |.|     |.................|
-----------------------------------------------------
-----------------------------------------------------
-----------------------------------------------------
-----------------------------------------------------
-0-0-0---0-0-0---0-0-7---0-0-6---0-0-0---0-0-0---0-0-
-----------------------------------------------------

   |   |   |   |   |     |........|
-------------------------------------|
-------------------------------------|
---------------------9---------------|
---------7-0-6-------9---9-9-9-9-9-9-|
-7-0-6-0-------0-7-0-7---9-9-9-9-9-9-|
-------------------------7-7-7-7-7-7-|
That was the solo stuff

Riff 7:
      P.M   |   |.|   |     |......|
e-|---------------------------------|
B-|---------------------------------|
G-|---------------------------------|
D-|-5-----7---9-----5---7-9---------|
A-|-7-----5---7-----7---5-7---------|
E-|---0-0---0---0-0---0-----0-0-0-0-|

Riff 9:
              P.M..|       |......|
e-|-------------------------------------|
B-|-8---7h8p7---------------------------|
G-|-9---7h9p7-7--6-4-4-6-4----------4h6-|
D-|-9---7h9p7-9--7-5-5h7p5-7--5-4-7-5h7-|
A-|-----------10-9-7-7h9p7-9--7-5-9-7h9-|
E-|------------------------10-8-7-10----|

Add 7
e-|----------------------|
B-|----------------------|
G-|-3---3------3---3---3-|
D-|-3---3------3---3---3-|
A-|-1---1------1---1---1-|
E-|----------------------|


Chorus 2:
                   P.M                   P.M
e-|------------------------------------------------------
B-|------------------------------------------------------
G-|------------------------------4-----------------------
D-|-2------4------5-6-7-8-2------4------5-6-7-8-2------5-
A-|-2------4------5-6-7-8-2------2------5-6-7-8-2------5-
E-|-0------2------3-4-5-6-0-------------3-4-5-6-0------3-
         
             P.M                   |.....|
----------------------------------------------------
----------------------------------------------------
--------------------9------7--------------9------7--
-----4------5-6-7-8-9------7------5-6-7-8-9------7--
-----4------5-6-7-8-7------5------5-6-7-8-7------5--
-----2------3-4-5-6-0-------------3-4-5-6-0---------

  P.M...|  |............|
-------------------------|
-------------------------|
---------5-6-7-8---------|
-5-6-7-8-5-6-7-8-5-6-7-8-|
-5-6-7-8-3-4-5-6-5-6-7-8-|
-3-4-5-6---------3-4-5-6-|


Riff 8:
      P.M.|     |.|     |             |-|    |.|    |
e-|------------------------------------------------------
B-|------------------------------------------------------
G-|---------3-------3-----3-3---3---3-----3------3-------
D-|-2-------3-------3-----3-3---3---3-----3------3----4--
A-|-2-------1-------1---1-1-1---1---1-----1------1----4--
E-|-0-0-0-0-----0-0-------------------0-0----0-0----0-2--

 |..|
--------|
--------|
--------|
-----3\-|
-----3\-|
-0-0-1\-|

Riff 9:
      P.M...................|
e-|---------------------------------|
B-|---------------------------------|
G-|---------------------------------|
D-|-2-------------------------3-3-3-|
A-|-2-------------------------1-1-1-|
E-|-0-0-0-0-0-0-0-0-0-0-0-0-0-------|

End:

e-|-----------------|
B-|-----------------|
G-|-9---------------|
D-|-9------------\2-|
A-|-7------------\2-|
E-|-0------------\0-|

8.To Live Is To Die

RIFF 1: (Gtr.1 - two acousic guitars arranged for one guitar) (d-downstroke)
Gtr.1E||--7-----------7-----------------------7--------10-|-10----------10-----------------------0--0-<12>|
     H||--7-----------7-----7-----------7-----7--------8--|-10-----------------------7--8--7h8p7---0--0--0|
     G||--7-----7-----7--------7-----7--------7-----------|-11----------------11-----7--7--7--9--9-11--9--|
     D||--9-----9-----------9-----------------9-----------|-12----12--------------------------------------|
     A||--9-----------------------------------------------|-12--------------------12----------------------|
     E||--7-----------------------7--------7--------7-----|-10--------------------------------------------|
                      d                       d
Gtr.1E|--------------------------------7-----7----/12----|-12----------12-----------8-----7----10-7h10p7-||
     H|--------------------8-----8-----------------------|-12-----------------12-12-0-----5-----0----7---||
     G|--------------------9-----9-----7-----7----/9-----|-12-----------------9--9--0-----------0--------||
     D|--------------------------------------------------|-14----14-----------9--------------------------||
     A|-------/9-----7-----------------------------------|-14-----------------10-------------------------||
     E|--0-----------------------------------------------|--0-----0--------------------------------------||
Tempo: 100 bpm
Electric guitars #2 and #3 join:
RIFF 2: (play 3 times)
Gtr.2E||---------------------------------|---------------------------------|
Gtr.3H||-2-------2\------x---x-----------|-3-------3-------x---x---3--\2---|
     G||-3-------3\------x---x-----------|-4-------4-------x---x---4--\3---|
     D||-4-------4\------x---x---2---4---|-5-------5-------x---x---5--\4---|
     A||-4-------4\------x---x---2---4---|-5-------5-------x---x---5--\4---|
     E||-2-------2\--------------0---2---|-3-------3---------------3--\2---|
         >       >                         >       >
Gtr.2E|----------------------------------|---------------------------------||
Gtr.3H|--2-------2\------x---x-----------|-5-------5-------5--\3---3--\2---||
     G|--3-------3\------x---x-----------|-6-------6---x---6--\4---4--\3---||
     D|--4-------4\------x---x---2---4---|-7-------7---x---7--\5---5--\4---||
     A|--4-------4\------x---x---2---4---|-7-------7-------7--\5---5--\4---||
     E|--2-------2\--------------0---2---|-5-------5-------5--\3---3--\2---||
         >       >                         >       >
RIFF 3:
Gtr.2E|----------------------------------|---------------------------------|
Gtr.3H|----------------------------------|---------------------------------|
     G|----------------------------------|---------------------------------|
     D|----------------------------------|---------------------------------|
     A|--4---4-4-5---5-5-4---4-4-7---7-7-|-4---4-4-5---5-5-4---4-4-7---7-7-|
     E|--2---2-2-3---3-3-2---2-2-5---5-5-|-2---2-2-3---3-3-2---2-2-5---5-5-|
         .   . . .   . . .   . . .   . .   .   . . .   . . .   . . .   . .
Gtr.2E|----------------------------------|---------------------------------|
Gtr.3H|----------------------------------|---------------------------------|
     G|----------------------------------|---------------------------------|
     D|----------------------------------|---------------------------------|
     A|--4---5---4---7---4---5---4---7---|---------------------------------|
     E|--2---3---2---5---2---3---2---5---|-2-3-2-5-2-3-2-5-2-3-2-5-2h3-2h3-|
         .   >   .   >   .   >   .   >     . . . . . . . . . . . . . . . .
Repeat RIFF 2 (*2 times)
Repeat RIFF 3
Guitar #4 joins:
RIFF 4: (play 2 times)
Gtr.2E||---------------------------------|---------------------------------|
Gtr.3H||-2-------2\------x---x-----------|-3-------3-------x---x---3--\2---|
     G||-3-------3\------x---x-----------|-4-------4-------x---x---4--\3---|
     D||-4-------4\------x---x---2---4---|-5-------5-------x---x---5--\4---|
     A||-4-------4\------x---x---2---4---|-5-------5-------x---x---5--\4---|
     E||-2-------2\--------------0---2---|-3-------3---------------3--\2---|
      ||                                 |                                 |
Gtr.4E||---------------------------------|---------------------------------|
     H||----sl.--------------------------|----sl.--------------------------|
     G||-11\----\6---------------4---6---|-7\-----\4---------------4---6---|
     D||---------------------------------|---------------------------------|
     A||-9-\----\4---------------2---4---|-5\-----\2---------------2---4---|
     E||---------------------------------|---------------------------------|
 
Gtr.2E|----------------------------------|---------------------------------||
Gtr.3H|--2-------2\------x---x-----------|-5-------5-------5--\3---3--\2---||
     G|--3-------3\------x---x-----------|-6-------6---x---6--\4---4--\3---||
     D|--4-------4\------x---x---2---4---|-7-------7---x---7--\5---5--\4---||
     A|--4-------4\------x---x---2---4---|-7-------7-------7--\5---5--\4---||
     E|--2-------2\--------------0---2---|-5-------5-------5--\3---3--\2---||
      |                                  |                                 ||
Gtr.4E|----------------------------------|---------------------------------||
     H|-----sl.--------------------------|---------------------------------||
     G|--6\-----\3---------------3---3---|-2-------------------------------||
     D|----------------------------------|---------------------------------||
     A|--4\-----\1---------------1---1---|-0-------------------------------||
     E|----------------------------------|---------------------------------||
RIFF 5:
Gtr.2E|----------------------------------|---------------------------------|
Gtr.3H|----------------------------------|---------------------------------|
     G|----------------------------------|---------R-------2---------------|
     D|----------2-------5----4-------2--|---------E-------2---------------|
     A|--4----4--0----4--3----2-------0--|-4-------S-------0---------------|
     E|--2----2-------2------------------|-2-------T-----------------------|
         .    .       .                    >
Gtr.2E|----------------------------------|---------------------------------|
Gtr.3H|----------------------------------|---------------------------------|
     G|----------------------------------|---------------------------------|
     D|----------x----x--6----5--4-------|---------2-------5----4-------2--|
     A|--4-------x----x--4----3--2-------|-4----4--0----4--3----2-------0--|
     E|--2-------x----x------------------|-2----2-------2------------------|
                                           .    .  >    .
Gtr.2E|----------------------------------|---------------------------------|
Gtr.3H|----------------------------------|---------------------------------|
     G|------------------2---------------|---------------------------------|
     D|---------x--x--x--2---------------|---------x----x--6----5--4-------|
     A|--4------x--x--x--0---------------|-4-------x----x--4----3--2-------|
     E|--2------x--x--x------------------|-2-------x----x------------------|
RIFF 6:  (play 2 times)
Gtr.2E||---------------------------------|---------------------------------|
Gtr.3H||-2-------2\------x---x-----------|-3-------3-------x---x---3--\2---|
     G||-3-------3\------x---x-----------|-4-------4-------x---x---4--\3---|
     D||-4-------4\------x---x---2---4---|-5-------5-------x---x---5--\4---|
     A||-4-------4\------x---x---2---4---|-5-------5-------x---x---5--\4---|
     E||-2-------2\--------------0---2---|-3-------3---------------3--\2---|
      ||                                 |                                 |
Gtr.4E||---------------------------------|---------------------------------|
     H||-----5b7r5---2-------------------|-----6b8r6---3-------------------|
     G||---------------------------------|---------------------------------|
     D||-----------------4~~~~~~~~~~~~~~~|(4)~-------------5~~~~~~~~~~~~~~-|
     A||---------------------------------|---------------------------------|
     E||---------------------------------|---------------------------------|
 
Gtr.2E|----------------------------------|---------------------------------||
Gtr.3H|--2-------2\------x---x-----------|-5-------5-------5--\3---3--\2---||
     G|--3-------3\------x---x-----------|-6-------6---x---6--\4---4--\3---||
     D|--4-------4\------x---x---2---4---|-7-------7---x---7--\5---5--\4---||
     A|--4-------4\------x---x---2---4---|-7-------7-------7--\5---5--\4---||
     E|--2-------2\--------------0---2---|-5-------5-------5--\3---3--\2---||
      |                                  |                                 ||
Gtr.4E|----------------------------------|---------------------------------||
     H|---5b7r5~~~~--2-------------------|---------------------------------||
     G|-x----------------------------2---|-2~~~~~----------2h4p2\1-1h2p1---||
     D|------------------4~~~~~--4-------|-------------------------------4-||
     A|----------------------------------|---------------------------------||
     E|----------------------------------|---------------------------------||
Repeat RIFF 3
SOLO 1:
Gtr.2E|-------------------------------------------------|-------------------------------------------------|
Gtr.3H|-2-----------2\----------x-----x-----------------|-3-----------3-----------x-----x-----3----\2-----|
     G|-3-----------3\----------x-----x-----------------|-4-----------4-----------x-----x-----4----\3-----|
     D|-4-----------4\----------x-----x-----2-----4-----|-5-----------5-----------x-----x-----5----\4-----|
     A|-4-----------4\----------x-----x-----2-----4-----|-5-----------5-----------x-----x-----5----\4-----|
     E|-2-----------2\----------------------0-----2-----|-3-----------3-----------------------3----\2-----|
      |                                                 |                                                 |
Gtr.5E|-------------------------------------------------|-------------------------------------------------|
     H|-------16gradual bend17---- hold -----------rel.-|(16)---------------------------------------------|
     G|-------16gradual bend18---- bends ----------rel.-|(16)----------------------14-16-16-16-16-16-x-14-|
     D|-------------------------------------------------|-------------------------------------------------|
     A|-------------------------------------------------|-------------------------------------------------|
     E|-------------------------------------------------|-------------------------------------------------|
 
Gtr.2E|-------------------------------------------------|-------------------------------------------------|
Gtr.3H|-2-----------2\----------x-----x-----------------|-5-----------5-----------5----\3-----3----\2-----|
     G|-3-----------3\----------x-----x-----------------|-6-----------6-----x-----6----\4-----4----\3-----|
     D|-4-----------4\----------x-----x-----2-----4-----|-7-----------7-----x-----7----\5-----5----\4-----|
     A|-4-----------4\----------x-----x-----2-----4-----|-7-----------7-----------7----\5-----5----\4-----|
     E|-2-----------2\----------------------0-----2-----|-5-----------5-----------5----\3-----3----\2-----|
      |                                                 |                                                 |
Gtr.5E|-------------------------------------------------|-------------------------------------------------|
     H|-------------------17b19~~~~~~~~~~~--------17-15-|-14----------------------------------------------|
     G|-16-16-14~~~~~~----------------------------------|----16-14----14-16-16bfrp14----------------------14|
     D|-------------------------------------------------|----------16--------------16~~~~~~~~~~~~~~---16--|
     A|-------------------------------------------------|-------------------------------------------------|
     E|-------------------------------------------------|-------------------------------------------------|
 
Gtr.2E|-------------------------------------------------|-------------------------------------------------|
Gtr.3H|-2-----------2\----------x-----x-----------------|-3-----------3-----------x-----x-----3----\2-----|
     G|-3-----------3\----------x-----x-----------------|-4-----------4-----------x-----x-----4----\3-----|
     D|-4-----------4\----------x-----x-----2-----4-----|-5-----------5-----------x-----x-----5----\4-----|
     A|-4-----------4\----------x-----x-----2-----4-----|-5-----------5-----------x-----x-----5----\4-----|
     E|-2-----------2\----------------------0-----2-----|-3-----------3-----------------------3----\2-----|
      |                                                 |                                                 |
Gtr.5E|-------------------------------------------------|-------------------------------------------------|
     H|-------------------------------------------------|-------------------------------------------------|
     G|-16bfrp14------------14---\11~~~~~~~---------14-16-|-16bfrp14---------------14----------------14-16----|
     D|--------16~~~~~~---------------------14h16-------|--------16~~~~~~---16----16~~~~~-----16----------|
     A|-------------------------------------------------|-------------------------------------------------|
     E|-------------------------------------------------|-------------------------------------------------|
 
Gtr.2E|-------------------------------------------------|-------------------------------------------------|
Gtr.3H|-2-----------2\----------x-----x-----------------|-5-----------5-----------5----\3-----3----\2-----|
     G|-3-----------3\----------x-----x-----------------|-6-----------6-----x-----6----\4-----4----\3-----|
     D|-4-----------4\----------x-----x-----2-----4-----|-7-----------7-----x-----7----\5-----5----\4-----|
     A|-4-----------4\----------x-----x-----2-----4-----|-7-----------7-----------7----\5-----5----\4-----|
     E|-2-----------2\----------------------0-----2-----|-5-----------5-----------5----\3-----3----\2-----|
      |                                                 |                                                 |
Gtr.5E|-------------------------------------------------|-------------------------------------------------|
     H|-------------------------------------17b19~~~~~~-|-17-15-14----------------------------------------|
     G|-16bfrp14-16-16bfrp14-16-16bfrp14-16-16bfrp14-------------|----------16-14----14-16-16bfr-14----------------|
     D|-------------------------------------------------|----------------16-------------------------------|
     A|-------------------------------------------------|-------------------------------------------------|
     E|-------------------------------------------------|-------------------------------------------------|
 
Gtr.2E|-------------------------------------------------|-------------------------------------------------|
Gtr.3H|-2-----------2\----------x-----x-----------------|-3-----------3-----------x-----x-----3----\2-----|
     G|-3-----------3\----------x-----x-----------------|-4-----------4-----------x-----x-----4----\3-----|
     D|-4-----------4\----------x-----x-----2-----4-----|-5-----------5-----------x-----x-----5----\4-----|
     A|-4-----------4\----------x-----x-----2-----4-----|-5-----------5-----------x-----x-----5----\4-----|
     E|-2-----------2\----------------------0-----2-----|-3-----------3-----------------------3----\2-----|
      |                                                 |                                                 |
Gtr.5E|-------------------------------------------------|-------------------------------------------------|
     H|-------------------------------------------------|-------------------------------------------------|
     G|-------------------14h16-14~~~~~~~~~~~~~~~~~~~~--|-------------------14h16-14~~~~~~~~~~~~~~~~~~~~--|
     D|-------------14h16-------------------------------|-------------14h16-------------------------------|
     A|-------14h16-------------------------------------|-------14h16-------------------------------------|
     E|-------------------------------------------------|-------------------------------------------------|
 
Gtr.2E|-------------------------------------------------|-------------------------------------------------|
Gtr.3H|-2-----------2\----------x-----x-----------------|-5-----------5-----------5----\3-----3----\2-----|
     G|-3-----------3\----------x-----x-----------------|-6-----------6-----x-----6----\4-----4----\3-----|
     D|-4-----------4\----------x-----x-----2-----4-----|-7-----------7-----x-----7----\5-----5----\4-----|
     A|-4-----------4\----------x-----x-----2-----4-----|-7-----------7-----------7----\5-----5----\4-----|
     E|-2-----------2\----------------------0-----2-----|-5-----------5-----------5----\3-----3----\2-----|
      |                                                 |                                                 |
Gtr.5E|-------------------------------------------------|-------------------------------------------------|
     H|-------------------------16b17r----16b17r----16b17r-|----16b17r-14-16b17r-14-17bend19-17b19~~~~~~~~~~~~-|
     G|-------------------14h16-16b18r-14-16b18r-14-16b18r-|-14-16b18r-14-16b18r-14----------------------------|
     D|-------------14h16-------------------------------|-------------------------------------------------|
     A|-------14h16-------------------------------------|-------------------------------------------------|
     E|-------------------------------------------------|-------------------------------------------------|
 
Gtr.2E|-------------------------------------------------|-------------------------------------------------|
Gtr.3H|-2-----------2\----------x-----x-----------------|-3-----------3-----------x-----x-----3----\2-----|
     G|-3-----------3\----------x-----x-----------------|-4-----------4-----------x-----x-----4----\3-----|
     D|-4-----------4\----------x-----x-----2-----4-----|-5-----------5-----------x-----x-----5----\4-----|
     A|-4-----------4\----------x-----x-----2-----4-----|-5-----------5-----------x-----x-----5----\4-----|
     E|-2-----------2\----------------------0-----2-----|-3-----------3-----------------------3----\2-----|
      |                                                 |                                                 |
Gtr.5E|-------------------------------------------------|-------------------------------------------------|
     H|-------------------------------------------------|----------------16-------16-16----------16-------|
     G|-------------------------------------------14----|-16-14-14-16-16----14-16-16-16-14----16----14b15.5-|
     D|-------------------------------14----16-14----16-|----------16----------16----------16-------------|
     A|-------------12-14-14-12-16-14----16-------------|-------------------------------------------------|
     E|-------14-14-------------------------------------|-------------------------------------------------|
              .  .  .  .  .  .  .  .  .  .  .  .  .  .    .  .  .  .
 
Gtr.2E|-------------------------------------------------|-------------------------------------------------|
Gtr.3H|-2-----------2\----------x-----x-----------------|-5-----------5-----------5----\3-----3----\2-----|
     G|-3-----------3\----------x-----x-----------------|-6-----------6-----x-----6----\4-----4----\3-----|
     D|-4-----------4\----------x-----x-----2-----4-----|-7-----------7-----x-----7----\5-----5----\4-----|
     A|-4-----------4\----------x-----x-----2-----4-----|-7-----------7-----------7----\5-----5----\4-----|
     E|-2-----------2\----------------------0-----2-----|-5-----------5-----------5----\3-----3----\2-----|
      |                                                 |                                                 |
Gtr.5E|-------------------------17----------------------|-------------------------------------------------|
     H|-------------17----------------------17----------|-------------------------------------------------|
     G|-16bendto18-----16bend18----16bend18----16b18r16-|-16-15-14----------------------------------------|
     D|-------------------------------------------------|----------16-15-14-------16-15-14----------------|
     A|--gradual----------------------------------------|-------------------16-14----------16-15-14-12----|
     E|---bend------------------------------------------|-------------------------------------------------|
 
Gtr.2E|-------------------------------------------------|-------------------------------------------------|
Gtr.3H|-------------------------------------------------|-------------------------------------------------|
     G|-------------------------------------------------|-------------------------------------------------|
     D|-------------------------------------------------|-------------------------------------------------|
     A|-4-----4--4--5-----5--5--4-----4--4--7-----7--7--|-4-----4--4--5-----5--5--4-----4--4--7-----7--7--|
     E|-2-----2--2--3-----3--3--2-----2--2--5-----5--5--|-2-----2--2--3-----3--3--2-----2--2--5-----5--5--|
      |                                                 |                                                 |
Gtr.5E|-14p9p6-14p9p6-15p10p7-15p10p7-14p9p6-14p9p6-15p10p7-15p10p7-|-14p9p6-14p9p6-15p10p7-15p10p7-14p9p6-14p9p6-15p10p7-15p10p7-|
     H| T --- T --- T --- T --- T --- T --- T --- T ----| T --- T --- T --- T --- T --- T --- T --- T ----|
     G|-------------------------------------------------|-------------------------------------------------|
     D|-------------------------------------------------|-------------------------------------------------|
     A|-------------------------------------------------|-------------------------------------------------|
     E|-------------------------------------------------|-------------------------------------------------|
 
Gtr.2E|-------------------------------------------------|-------------------------------------------------|
Gtr.3H|-------------------------------------------------|-------------------------------------------------|
     G|-------------------------------------------------|-------------------------------------------------|
     D|-------------------------------------------------|-------------------------------------------------|
     A|-4-----5-----4-----7-----4-----5-----4-----7-----|-------------------------------------------------|
     E|-2-----3-----2-----5-----2-----3-----2-----5-----|-2--3--2--5--2--3--2--5--2--3--2--5--2hh3--2hh3--|
      |                                                 |                                                 |
Gtr.5E|-14p9p6-15p10p7-14p9p6-15p10p7-14p9p6-15p10p7-14p9p6-15p10p7-|-14-14-15-15-17-17-19-19-20-20-22-22-22b24-22b24-|
     H| T --- T --- T --- T --- T --- T --- T --- T ----|-- tremolo picking ------------------------------|
     G|-------------------------------------------------|-------------------------------------------------|
     D|-------------------------------------------------|-------------------------------------------------|
     A|-------------------------------------------------|-------------------------------------------------|
     E|-------------------------------------------------|-------------------------------------------------|
RIFF 6': (*2 times)
Gtr.2E||---------------------------------|---------------------------------|
Gtr.3H||-2-------2\------x---x-----------|-3-------3-------x---x---3--\2---|
     G||-3-------3\------x---x-----------|-4-------4-------x---x---4--\3---|
     D||-4-------4\------x---x---2---4---|-5-------5-------x---x---5--\4---|
     A||-4-------4\------x---x---2---4---|-5-------5-------x---x---5--\4---|
     E||-2-------2\--------------0---2---|-3-------3---------------3--\2---|
      ||                                 |                                 |
Gtr.4E||---------------------------------|---------------------------------|
     H||-----5b7r5---2-------------------|-----6b8r6---3-------------------|
     G||---------------------------------|---------------------------------|
     D||-----------------4---4---4p2-----|-----------------5~~~--4h5p4p2----|
     A||-----------------------------4---|------------------------------4--|
     E||---------------------------------|---------------------------------|
 
Gtr.2E|----------------------------------|---------------------------------||
Gtr.3H|--2-------2\------x---x-----------|-5-------5-------5--\3---3--\2---||
     G|--3-------3\------x---x-----------|-6-------6---x---6--\4---4--\3---||
     D|--4-------4\------x---x---2---4---|-7-------7---x---7--\5---5--\4---||
     A|--4-------4\------x---x---2---4---|-7-------7-------7--\5---5--\4---||
     E|--2-------2\--------------0---2---|-5-------5-------5--\3---3--\2---||
      |                                  |                                 ||
Gtr.4E|----------------------------------|---------------------------------||
     H|--5b7r5~~~~~--2-------------------|---------------------------------||
     G|------------------------------2---|-2~~~~~~-2~~~~~--2h4p2\1-1h2p1---||
     D|------------------4---4---4-------|-------------------------------4-||
     A|----------------------------------|---------------------------------||
     E|----------------------------------|---------------------------------||
Change measure to 3/4.
RIFF 6":
Gtr.2E|--------------------------|-------------------------|
Gtr.3H|--------------------------|-------------------------|
     G|--------------------------|-------------------------|
     D|--4-------4-------x---x---|-5-------5-------x---x---|
     A|--4-------4-------x---x---|-5-------5-------x---x---|
     E|--2-------2---------------|-3-------3---------------|
      |                          |                         |
Gtr.4E|--------------------------|-------------------------|
     H|------5b7r5---2-----------|-----6b8r6---3-----------|
     G|--------------------------|-------------------------|
     D|------------------4~~~~~--|-----------------5~~~~~--|
     A|--------------------------|-------------------------|
     E|--------------------------|-------------------------|
 
Gtr.2E|--------------------------|-------------------------|-3-----------------------|
Gtr.3H|--------------------------|-2-----------------------|-3-----------------------|
     G|--------------------------|-2-----------------------|-4-----------------------|
     D|--2-------2-------x---x---|-2-----------------------|-5-----------------------|
     A|--2-------2-------x---x---|-0-----------------------|-5-----------------------|
     E|--0-------0---------------|-------------------------|-3-----------------------|
      |                          |                         |                         |
Gtr.4E|--------------------------|-----3b5r3-p-0-----------|-------------------------|
     H|------3b5r3-p-0-----------|-------------------------|-------------------------|
     G|--------------------------|-----------------2-h-4p2p|p0-----------------------|
     D|------------------2~~~~~--|-------------------------|-------------------------|
     A|--------------------------|-------------------------|-------------------------|
     E|--------------------------|-------------------------|-------------------------|
RIFF 7:
Gtr.2E|--------------------------|-3---------------3-------|-0---------------0-------|-1-----------------------|
Gtr.3H|--5---------------5-------|-3---------------3-------|-0---------------0-------|-1-----------------------|
     G|--5---------------5-------|-4---------------4-------|-0---------------0-------|-2-----------------------|
     D|--7---------------7-------|-5---------------5-------|-2---------------2-------|-3-----------------------|
     A|--7---------------7-------|-5---------------5-------|-2---------------2-------|-3-----------------------|
     E|--5---------------5---0---|-3---------------3---0---|-0---------------0---0---|-1-----------1---3~~~~---|
      |                      .   |                         |                     .   |             .           |
Gtr.4E|--------------------------|-------------------------|-------------------------|-------------------------|
     H|--------------------------|-------------------------|-------------------------|-------------------------|
     G|--4-h-5~~~~~~~~-4h5----4h5p4~~~~~~------------------|-------------------------|-------------------------|
     D|--------------------------|-------------7---5-------7\5~~~~~~~~~~~----5-5-5---|-7~~~~~~~~~~~~~~~~~~~~~--|
     A|--------------------------|-------------------------|-------------------------|-------------------------|
     E|--------------------------|-------------------------|-------------------------|-------------------------|
 
Gtr.2E|--------------------------|-3-----------------------|-0-----------0---0-------|-3-----------3-3-3-------|
Gtr.3H|--5---------------5-------|-3-----------------------|-0-----------0---0-------|-3-----------3-3-3-------|
     G|--5---------------5-------|-4-----------------------|-0-----------0---0-------|-4-----------4-4-4-------|
     D|--7---------------7-------|-5-----------------------|-2-----------2---2-------|-5-----------5-5-5-------|
     A|--7---------------7-------|-5---------------5---3---|-2-----------2---2---5---|-5-----------5-5-5-------|
     E|--5---------------5---8---|-3---------------.---.---|-0-----------0---0---.---|-3-----------3-3-3-------|
      |                      .   |                         |                         |                         |
Gtr.4E|--------------------------|-------------------------|-------------------------|-------------------------|
     H|--------------------------|-------------------------|-------------------------|-------------------------|
     G|--4-h-5---5~~~~~--5---7---|-7~~~~~~~~---4-----------|---------------------4---|---------------------4---|
     D|--------------------------|-----------------5-------|-5-----------5-5-5-------|-5-----------5-5-5-------|
     A|--------------------------|-------------------------|-------------------------|-------------------------|
     E|--------------------------|-------------------------|-------------------------|-------------------------|
RIFF 7':
Gtr.2E|--------------------------|-3---------------3-------|-0---------------0-------|-1-----------------------|
Gtr.3H|--5---------------5-------|-3---------------3-------|-0---------------0-------|-1-----------------------|
     G|--5---------------5-------|-4---------------4-------|-0---------------0-------|-2-----------------------|
     D|--7---------------7-------|-5---------------5-------|-2---------------2-------|-3-----------------------|
     A|--7---------------7-------|-5---------------5-------|-2---------------2-------|-3-----------------------|
     E|--5---------------5---0---|-3---------------3---0---|-0---------------0---0---|-1-----------1---3~~~~---|
      |                      .   |                         |                     .   |             .           |
Gtr.4E|--------------------------|-------------------------|-------------------------|-------------------------|
Gtr.5H|-3h5------------3h5----3h5p3~~~~~~------------------|-------------------------|-------------------------|
     G|-4h5------------4h5----4h5p4~~~~~~------5---4-------|-4~~~~~~~~~~~----4---4---|-5~~~~~~~~~~~~~~~~~~~~~--|
     D|--------------------------|-------------7---5-------|-5~~~~~~~~~~~----5---5---|-7~~~~~~~~~~~~~~~~~~~~~--|
     A|--------------------------|-------------------------|-------------------------|-------------------------|
     E|--------------------------|-------------------------|-------------------------|-------------------------|
 
Gtr.2E|--------------------------|-3-----------------------|-0-----------0---0-------|-3---------------3-------|
Gtr.3H|--5---------------5-------|-3-----------------------|-0-----------0---0-------|-3---------------3-------|
     G|--5---------------5-------|-4-----------------------|-0-----------0---0-------|-4---------------4---R---|
     D|--7---------------7-------|-5-----------------------|-2-----------2---2-------|-5---------------5---E---|
     A|--7---------------7-------|-5---------------5---3---|-2-----------2---2---5---|-5---------------5---S---|
     E|--5---------------5---8---|-3---------------.---.---|-0-----------0---0---.---|-3---------------3---T---|
      |                      .   |                         |                         |                         |
Gtr.4E|----------------------3---|-3~~~~~~-----------------|-------------------------|-------------------------|
Gtr.5H|--3-h-5-----------5---5---|-5~~~~~~-----3-----------|---------------------5---|-3~~~~~~~~~~~~~~~--------|
     G|--4-h-5-----------5-------|-------------4---4-------|-4-----------4-4-4---4---|-4~~~~~~~~~~~~~~~----R---|
     D|--------------------------|-----------------5-------|-5-----------5-5-5-------|-5~~~~~~~~~~~~~~~----E---|
     A|--------------------------|-------------------------|-------------------------|---------------------S---|
     E|--------------------------|-------------------------|-------------------------|---------------------T---|
RIFF 8: (Gtr.2 here - clean)
Gtr.2E|--------------------------|-------------------------|-------------------------|-------------------------|
     H|--0-h-1-----------0h1p0---|-0-----------------------|-------------------------|-------------------------|
     G|----------2-----------2---|---------2-------0-------|-0---------------0-------|-0-h-2-------------------|
     D|--------------2-----------|-------------------------|---------2---------------|---------0---------------|
     A|--0-----------------------|-------------------------|-------------2-----------|-----------------0-------|
     E|--------------------------|-3-----------3-------3---|-0-------------------0---|-1-----------------------|
 
Gtr.2E|--------------------------|-------------------------|-------------------------|-------------------------|
     H|--1---------------3-------|-3-----------0-----------|---------------------0---|(0)--------------3-------|
     G|----------2---------------|-----------------0-------|-0---------------0-------|-0-----------------------|
     D|--------------2-----------|-------------------------|---------2---------------|---------0---------------|
     A|--0-----------------------|-------------------------|-------------2-------2---|-------------2-------0---|
     E|----------------------0---|-3-------3-----------0---|-0-----------------------|-3-----------------------|
RIFF 8': (Gtr.3: swell volume with volume control)
Gtr.2E|--------------------------|-------------------------|-------------------------|-------------------------|
     H|--1-------------0h1p0-----|-0-----------------------|-------------------------|-------------------------|
     G|----------2-----------2---|---------2-------0-------|-0---------------0-------|-0-h-2-------------------|
     D|--------------2-----------|-------------------------|---------2---------------|---------0---------------|
     A|--0-----------------------|-------------------------|-------------2-----------|-----------------0-------|
     E|--------------------------|-3-----------3-------3---|-0-------------------0---|-1-----------------------|
      |                          |                         |                         |                         |
Gtr.3E|--------------------------|-------------------------|-------------------------|-------------------------|
     H|--------------------------|-------------------------|-------------------------|-------------------------|
     G|----------5~~~~~~~~~~~~---|---------7~~~~~~~~~~~~---|-------------------------|-------------------------|
     D|--------------------------|---------5~~~~~~~~~~~~---|---------5~~~~~~~~~~~~---|---------7~~~~~~~~~~~~---|
     A|----------7~~~~~~~~~~~~---|-------------------------|-------------------------|-------------------------|
     E|--------------------------|-------------------------|---------7~~~~~~~~~~~~---|---------8~~~~~~~~~~~~---|
 
Gtr.2E|--------------------------|-------------------------|-------------------------|-------------------------|
     H|--1---------------3-------|-3-----------0-----------|---------------------0---|(0)--------------3-p-0---|
     G|----------2---------------|-----------------0-------|-0---------------0-------|-0-----------------------|
     D|--------------2-----------|-------------------------|---------2---------------|---------0---------------|
     A|--0-----------------------|-------------------------|-------------2-------2---|-------------2-------0---|
     E|----------------------0---|-3-------3-----------0---|-0-----------------------|-3-----------------------|
      |                          |                         |                         |                         |
Gtr.3E|--------------------------|-------------------------|-------------------------|-------------------------|
     H|--------------------------|-------------------------|-------------------------|-------------------------|
     G|----------5~~~~~~~~~~~~---|---------7~~~~~~~~~~~~---|-------------------------|---------4~~~~~~~~~~~~---|
     D|--------------------------|---------5~~~~~~~~~~~~---|---------5~~~~~~~~~~~~---|-------------------------|
     A|----------7~~~~~~~~~~~~---|-------------------------|-------------------------|---------5~~~~~~~~~~~~---|
     E|--------------------------|-------------------------|---------7~~~~~~~~~~~~---|-------------------------|
RIFF 8": (*2 times)
Gtr.2E||-------------------------|-------------------------|-------------------------|-------------------------|
     H||-1---------------0h1p0-----|-0-----------------------|-------------------------|-------------------------|
     G||---------2-----------2---|---------2-------0-------|-0---------------0-------|-0-h-2-------------------|
     D||-------------2-----------|-------------------------|---------2---------------|---------0---------------|
     A||-0-----------------------|-------------------------|-------------2-----------|-----------------0-------|
     E||-------------------------|-3-----------3-------3---|-0-------------------0---|-1-----------------------|
      ||                         |                         |                         |                         |
Gtr.3E||-------------------------|-------------------------|-------------------------|-------------------------|
     H||-------------------------|-------------------------|-------------------------|-------------------------|
     G||---------5~~~~~~~~~~~~---|---------7~~~~~~~~~~~~---|-------------------------|-------------------------|
     D||-------------------------|---------5~~~~~~~~~~~~---|---------5~~~~~~~~~~~~---|---------5~~~~~~~~~~~~---|
     A||---------7~~~~~~~~~~~~---|-------------------------|-------------------------|-------------------------|
     E||-------------------------|-------------------------|---------7~~~~~~~~~~~~---|---------7~~~~~~~~~~~~---|
 
Gtr.2E|--------------------------|-------------------------|-------------------------|-------------------------||
     H|--1---------------3-------|-3-----------0-----------|---------------------0---|(0)--------------3-------||
     G|----------2---------------|-----------------0-------|-0---------------0-------|-0-----------------------||
     D|--------------2-----------|-------------------------|---------2---------------|---------0---------------||
     A|--0-----------------------|-------------------------|-------------2-------2---|-------------2-------0---||
     E|----------------------0---|-3-------3-----------0---|-0-----------------------|-3-----------------------||
      |                          |                         |                         |                         ||
Gtr.3E|--------------------------|-------------------------|-------------------------|-------------------------||
     H|--------------------------|-------------------------|-------------------------|-------------------------||
     G|----------5~~~~~~~~~~~~---|---------7~~~~~~~~~~~~---|-------------------------|---------4~~~~~~~~~~~~---||
     D|--------------------------|---------5~~~~~~~~~~~~---|---------5~~~~~~~~~~~~---|-------------------------||
     A|----------7~~~~~~~~~~~~---|-------------------------|-------------------------|---------5~~~~~~~~~~~~---||
     E|--------------------------|-------------------------|---------7~~~~~~~~~~~~---|-------------------------||
SOLO 2:
Gtr.2E|--------------------------|-------------------------|-------------------------|-------------------------|
     H|--1---------------0h1p0-----|-0-----------------------|-------------------------|-------------------------|
     G|----------2-----------2---|---------2-------0-------|-0---------------0-------|-0-h-2-------------------|
     D|--------------2-----------|-------------------------|---------2---------------|---------0---------------|
     A|--0-----------------------|-------------------------|-------------2-----------|-----------------0-------|
     E|--------------------------|-3-----------3-------3---|-0-------------------0---|-1-----------------------|
      |                          |                         |                         |                         |
Gtr.3E|--------------------------|-------------------------|-------------------------|-------------------------|
     H|--------------------------|-------------------------|-------------------------|-------------------------|
     G|----------5~~~~~~~~~~~~---|---------7~~~~~~~~~~~~---|-------------------------|-------------------------|
     D|--------------------------|---------5~~~~~~~~~~~~---|---------5~~~~~~~~~~~~---|---------5~~~~~~~~~~~~---|
     A|----------7~~~~~~~~~~~~---|-------------------------|-------------------------|-------------------------|
     E|--------------------------|-------------------------|---------7~~~~~~~~~~~~---|---------7~~~~~~~~~~~~---|
      |                          |                         |                         |                         |
Gtr.4E|--------------------------|-------------------------|-------------------------|-------------------------|
     H|--------------------------|-------------------------|-------------------------|-------------------------|
     G|-7h9~~~~~~~~--9---7--\5---|-5h7p4---2-----------0h2-|-4---5---5---4---0---5---|-5p4---------------------|
     D|--------------------------|-------------------------|-------------------------|-----5--/7~~~~~~~~~--5h7-|
     A|--------------------------|-------------------------|-------------------------|-------------------------|
     E|--------------------------|-------------------------|-------------------------|-------------------------|
 
Gtr.2E|--------------------------|-------------------------|-------------------------|-------------------------|
     H|--1---------------3-------|-3-----------0-----------|---------------------0---|(0)--------------3-------|
     G|----------2---------------|-----------------0-------|-0---------------0-------|-0-----------------------|
     D|--------------2-----------|-------------------------|---------2---------------|---------0---------------|
     A|--0-----------------------|-------------------------|-------------2-------2---|-------------2-------0---|
     E|----------------------0---|-3-------3-----------0---|-0-----------------------|-3-----------------------|
      |                          |                         |                         |                         |
Gtr.3E|--------------------------|-------------------------|-------------------------|-------------------------|
     H|--------------------------|-------------------------|-------------------------|-------------------------|
     G|----------5~~~~~~~~~~~~---|---------7~~~~~~~~~~~~---|-------------------------|---------4~~~~~~~~~~~~---|
     D|--------------------------|---------5~~~~~~~~~~~~---|---------5~~~~~~~~~~~~---|-------------------------|
     A|----------7~~~~~~~~~~~~---|-------------------------|-------------------------|---------5~~~~~~~~~~~~---|
     E|--------------------------|-------------------------|---------7~~~~~~~~~~~~---|-------------------------|
      |                          |                         |                         |                         |
Gtr.4E|--------------------------|-------------------------|-------------------------|-------------------------|
     H|--------------------------|-------------------------|-------------------------|-------------------------|
     G|--4/5-5-5/7-7-7/9-9---9h10-|-9~~~~~~~~~--9--10--9h10p9-|-7--\5---5--\4-------4h5p4-|-------------------------|
     D|--------------------------|-------------------------|-----------------5-------|-5~~~~~~~~~--5h7p5-------|
     A|--------------------------|-------------------------|-------------------------|-------------------------|
     E|--------------------------|-------------------------|-------------------------|-------------------------|
 
Gtr.2E|--------------------------|-------------------------|-------------------------|-------------------------|
     H|--1---------------0h1p0-----|-0-----------------------|-------------------------|-------------------------|
     G|----------2-----------2---|---------2-------0-------|-0---------------0-------|-0-h-2-------------------|
     D|--------------2-----------|-------------------------|---------2---------------|---------0---------------|
     A|--0-----------------------|-------------------------|-------------2-----------|-----------------0-------|
     E|--------------------------|-3-----------3-------3---|-0-------------------0---|-1-----------------------|
      |                          |                         |                         |                         |
Gtr.3E|--------------------------|-------------------------|-------------------------|-------------------------|
     H|--------------------------|-------------------------|-------------------------|-------------------------|
     G|----------5~~~~~~~~~~~~---|---------7~~~~~~~~~~~~---|-------------------------|-------------------------|
     D|--------------------------|---------5~~~~~~~~~~~~---|---------5~~~~~~~~~~~~---|---------5~~~~~~~~~~~~---|
     A|----------7~~~~~~~~~~~~---|-------------------------|-------------------------|-------------------------|
     E|--------------------------|-------------------------|---------7~~~~~~~~~~~~---|---------7~~~~~~~~~~~~---|
      |                          |                         |                         |                         |
Gtr.4E|--------------------------|-------------------------|-------------------------|-------------------------|
     H|--------------------------|-------------------------|-------------------------|-------------------------|
     G|------------------4h5p4---|-4h5p4-4-----5---7---7/9-|-7~~~~~~~~~--9---9b11r9--|-7-----------------------|
     D|-5h7~~~~~~~~--7-7-------5-|-------------------------|-------------------------|----9b10r9---7---5--/9---|
     A|--------------.-.-------.-|-------------------------|-------------------------|-------------------------|
     E|--------------------------|-------------------------|-------------------------|-------------------------|
 
Gtr.2E|--------------------------|-------------------------|-------------------------|-------------------------|
     H|--1---------------3-------|-3-----------0-----------|---------------------0---|(0)--------------3-------|
     G|----------2---------------|-----------------0-------|-0---------------0-------|-0-----------------------|
     D|--------------2-----------|-------------------------|---------2---------------|---------0---------------|
     A|--0-----------------------|-------------------------|-------------2-------2---|-------------2-------0---|
     E|----------------------0---|-3-------3-----------0---|-0-----------------------|-3-----------------------|
      |                          |                         |                         |                         |
Gtr.3E|--------------------------|-------------------------|-------------------------|-------------------------|
     H|--------------------------|-------------------------|-------------------------|-------------------------|
     G|----------5~~~~~~~~~~~~---|---------7~~~~~~~~~~~~---|-------------------------|---------4~~~~~~~~~~~~---|
     D|--------------------------|---------5~~~~~~~~~~~~---|---------5~~~~~~~~~~~~---|-------------------------|
     A|----------7~~~~~~~~~~~~---|-------------------------|-------------------------|---------5~~~~~~~~~~~~---|
     E|--------------------------|-------------------------|---------7~~~~~~~~~~~~---|-------------------------|
      |                          |                         |                         |                         |
Gtr.4E|--------------------------|-------------------------|-------------------------|-------------------------|
     H|-------------------12h13p12---|-12h13-12~~~~~--12h15p12-12h13p12---|-----------------13p12-----|-----15--13--12----------|
     G|-12h14~~~~~~~--14-14--------12-|----------------------12-|-12~~~~~~----12------12--|-12--------------14b16rel|
     D|--------------------------|-------------------------|-------------------------|-------------------------|
     A|--------------------------|-------------------------|-------------------------|-------------------------|
     E|--------------------------|-------------------------|-------------------------|-------------------------|
 
Gtr.2E|--------------------------|-3---------------3-------|-0---------------0-------|-1-----------------------|
     H|--5---------------5-------|-3---------------3-------|-0---------------0-------|-1-----------------------|
     G|--5---------------5-------|-4---------------4-------|-0---------------0-------|-2-----------------------|
     D|--7---------------7-------|-5---------------5-------|-2---------------2-------|-3-----------------------|
     A|--7---------------7-------|-5---------------5-------|-2---------------2-------|-3-----------------------|
     E|--5---------------5---0---|-3---------------3---0---|-0---------------0---0---|-1-----------1---3~~~~---|
      |                      .   |                         |                     .   |             .           |
Gtr.3E|--------------------------|-------------------------|-------------------------|-------------------------|
     H|--------------------------|-------------------------|-------------------------|-------------------------|
     G|--5---------------5-----4h5p4-----------------------|-------------------------|-------------------------|
     D|--------------------------|-------------7---5-------|-5---------------5---5---|-7~~~~~~~~~~~~~~~~~~~~~--|
     A|--------------------------|-------------------------|-------------------------|-------------------------|
     E|--------------------------|-------------------------|-------------------------|-------------------------|
      |                          |                         |                         |                         |
Gtr.4E|--------------------------|-------------------------|-------------------------|-------------------------|
     H|--------------------------|-------------------------|-------------------------|-------------------------|
     G|-r14-------------switch---|-------------------------|-------------------------|-------------------------|
     D|------------------off-----|-------------------------|-------------------------|-------------------------|
     A|--------------------------|-------------------------|-------------------------|-------------------------|
     E|--------------------------|-------------------------|-------------------------|-------------------------|
 
Gtr.2E|--------------------------|-3-----------------------|-0-----------0---0-------|-3-----------3-3-3-------|
     H|--5---------------5-------|-3-----------------------|-0-----------0---0-------|-3-----------3-3-3-------|
     G|--5---------------5-------|-4-----------------------|-0-----------0---0-------|-4-----------4-4-4-------|
     D|--7---------------7-------|-5-----------------------|-2-----------2---2-------|-5-----------5-5-5-------|
     A|--7---------------7-------|-5---------------5---3---|-2-----------2---2---5---|-5-----------5-5-5-------|
     E|--5---------------5---8---|-3---------------.---.---|-0-----------0---0---.---|-3-----------3-3-3-------|
      |                      .   |                         |                         |                         |
Gtr.3E|--------------------------|-------------------------|-------------------------|-------------------------|
     H|--------------------------|-------------------------|-------------------------|-------------------------|
     G|--4--/5~~~~~~~~~--5---7---|-7~~~~~~~~~--4-----------|---------------------4---|---------------------4---|
     D|--------------------------|-----------------5-------|-5-----------5-5-5-------|-5-----------5-5-5-------|
     A|--------------------------|-------------------------|-------------------------|-------------------------|
     E|--------------------------|-------------------------|-------------------------|-------------------------|
 
Gtr.2E|--------------------------|-3---------------3-------|-0---------------0-------|-1-----------------------|
     H|--5---------------5-------|-3---------------3-------|-0---------------0-------|-1-----------------------|
     G|--5---------------5-------|-4---------------4-------|-0---------------0-------|-2-----------------------|
     D|--7---------------7-------|-5---------------5-------|-2---------------2-------|-3-----------------------|
     A|--7---------------7-------|-5---------------5-------|-2---------------2-------|-3-----------------------|
     E|--5---------------5---0---|-3---------------3---0---|-0---------------0---0---|-1-----------1---3~~~~---|
      |                      .   |                         |                     .   |             .           |
Gtr.3E|--------------------------|-------------------------|-------------------------|-------------------------|
Gtr.5H|-3h5~~~~~~~~~~----3h5-----3h5p3~~~~~~~~---------------|-------------------------|-------------------------|
     G|-4h5~~~~~~~~~~----4h5-----4h5p4~~~~~~~~---5---4-------|-4~~~~~~~~-------4---4---|-5~~~~~~~~~~~~~~~~~~-----|
     D|--------------------------|-------------7---5-------|-5~~~~~~~~-------5---5---|-7~~~~~~~~~~~~~~~~~~-----|
     A|--------------------------|-------------------------|-------------------------|-------------------------|
     E|--------------------------|-------------------------|-------------------------|-------------------------|
 
Gtr.2E|--------------------------|-3-----------------------|-0-----------0---0-------|-3-----------3-3-3-------|
     H|--5---------------5-------|-3-----------------------|-0-----------0---0-------|-3-----------3-3-3-------|
     G|--5---------------5-------|-4-----------------------|-0-----------0---0-------|-4-----------4-4-4-------|
     D|--7---------------7-------|-5-----------------------|-2-----------2---2-------|-5-----------5-5-5-------|
     A|--7---------------7-------|-5---------------5---3---|-2-----------2---2---5---|-5-----------5-5-5-------|
     E|--5---------------5---8---|-3---------------.---.---|-0-----------0---0---.---|-3-----------3-3-3-------|
      |                      .   |                         |                         |                         |
Gtr.3E|----------------------3---|-3-----------------------|-------------------------|-------------------------|
Gtr.5H|--3-h-5~~~~~~-----5---3---|-3-----------3-----------|---------------------5---|---------------------3---|
     G|--4-h-5~~~~~~-----5-------|-------------4---4-------|-4~~~~~------4-4-4---4---|-4~~~~~~~----4-4-4---4---|
     D|--------------------------|-----------------5-------|-5~~~~~------5-5-5-------|-5~~~~~~~----5-5-5-------|
     A|--------------------------|-------------------------|-------------------------|-------------------------|
     E|--------------------------|-------------------------|-------------------------|-------------------------|

9.Dyers Eve

E|------------------|-----------|---------|---------|----------|
B|------------------|-----------|---------|---------|----------|
G|------------------|-----------|---------|---------|----------|
D|------------------|--2----3---|--2----5-|-2----3--|--2---2-3-|
A|-2-3-2-3-2-3-2-3--|--2----3---|--2----5-|-2----3--|--2---2-3-|
E|------------------|--0----1---|--0----3-|-0----1--|--0---0-1-|
   


|---------|---------|----------|-----------------|
|---------|---------|----------|-----------------|
|---------|---------|----------|-----------------|
|--2----3-|--2----5-|--2----3--|--2--------------|
|--2----3-|--2----5-|--2----3--|--2--------------|
|--0----1-|--0----3-|--0----1--|--0--0--1--0--1--|
                                     PM........|

  Rhy Fig 1                                              end Rhy Fig 1
||-------------------|-------------|------------------|---------------||
||-------------------|-------------|------------------|---------------||
||o------------------|-------------|------------------|--------------o||
||o--2-------3-------|--2-------5--|--2-------3-------|--2-----------o||
||---2-------3-------|--2-------5--|--2-------3-------|--2------------||
||---0--0-0--1--0-0--|--0--0-0--3--|--0--0-0--1--0-0--|--0--0-1-0-1---||
        
                    
                     Rhy Fig 2
|---------|---------|---------------------------|----------------------------|
|---------|---------|---------------------------|----------------------------|
|---------|---------|---------------------------|----------------------------|
|-2-------|-(2)-----|-4--------------3\4--4--4--|-----------------5\4--4--4--|
|-2-------|-(2)-----|-2--2-3-2-3-2-3-5\2--0--2--|-2-3-2-3-2-3-2-3-3\2--0--2--|
|-0-------|-(0)-----|---------------------------|----------------------------|
                    


|----------------------------|---------------------------------|
|----------------------------|---------------------------------|
|----------------------------|---------------------------------|
|-----------------5\4--4--4--|-------------------------5---4---|
|-2-3-2-3-2-3-2-3-3\2--0--2--|-2-3-2-3-2-3-2-3-3---2-----------|
|----------------------------|---------------------------------|
 

|---------------------------|---------------------------|
|---------------------------|---------------------------|
|---------------------------|---------------------------|
|-4--------------5\4--4--4--|-----------------3\2----4--|
|-2--2-3-2-3-2-3-3\2--0--2--|-2-3-2-3-2-3-2-3-5\4----0--|
|---------------------------|---------------------------|
     

                                              end Rhy Fig 2
|---------------------------|------------------------------|
|---------------------------|------------------------------|
|---------------------------|------------------------------|
|-4--------------3\2--4--4--|------------------------5--4--|
|-2--2-3-2-3-2-3-5\4--0--2--|-2-3-2-3-2-3-2-3--3--2--------|
|---------------------------|------------------------------|
    

|--------------------|-------------------|---------------------------|
|--------------------|-------------------|---------------------------|
|--------------------|-------------------|---------------------------|
|--------------------|-------------------|-4-------------------------|
|-2---5-5-2----3-3-2-|----5-5-2----5-5-2-|-2--2-3-2-3-2-3-0--2--0--2-|
|-0---3-3-0----5-5-0-|----3-3-0----3-3-0-|---------------------------|
                                              

|------------------------|------------------------|-----------------------|
|------------------------|------------------------|-----------------------|
|------------------------|------------------------|-7----------5----------|
|-5----5--5--4--4--------|-2-----------2----------|-7----------5----------|
|-3----3--3--2--2--------|-2-----------2----------|-5----------3----------|
|------------------3p2p0-|-0----3p2p0--0----3p2p0-|------3p2p0------3p2p0-|
       PM........|


|---------------------------|------------------------|-----------|-----------|
|---------------------------|------------------------|-----------|-----------|
|---------------------------|------------------------|-----------|-7----5----|
|-4-------------------------|-5----5--5--4--4--------|-9----9----|-7----5----|
|-2--2-3-3-3-3-3-0--2--0--2-|-3----3--3--2--2--------|-7----7----|-5----3----|
|---------------------------|------------------3p2p0-|-0----0----|-----------|
    


|----------------------------|---------------------------|
|----------------------------|---------------------------|
|----------------------------|---------------------------|
|-4--------------------------|-5-------------------------|
|-2--2-3-2-3-2-3-0--2--0--2--|-3----3-3-3-3-3p2p0--2p0---|
|----------------------------|-------------------------3-|
    

Play Rhy Fig 2 once, then:

|--------------------|
|--------------------|
|--------------------|
|-2----2--2--2----2--|
|-2----2--2--2----2--|
|-0----0--0--0----0--|


Verses
|---------------------|------------|-------------------|--------------------|
|---------------------|------------|-------------------|--------------------|
|---------------------|------------|-------------------|-------------4---5--|
|--4------------------|--5---------|--7----------------|--2----------4---5--|
|--4------------------|--5---------|--7----------------|--2----------2---3--|
|--2------------------|--3---------|--5----------------|--0-----------------|
 Dear Mother,Dear Father            What is this hell you have put me through


|------------------|-----------|-------------------|-----------------|
|------------------|-----------|-------------------|-----------------|
|------------------|-----------|-------------------|-----------------|
|--4---------------|--5--------|--2----------------|--7--------2--5--|
|--4---------------|--5--------|--2----------------|--7--------2--5--|
|--2---------------|--3--------|--0----------------|--5--------0--3--|
 Believer, deceiver             Day in, Day out, live my life for you

                                                  to Coda
|----------------------|-------------|-------------------|--------------------|
|----------------------|-------------|-------------------|--------------------|
|----------------------|--7----------|-------------------|--------------------|
|--4-------------------|--7----------|--7----------------|--5-----------------|
|--4-------------------|--5----------|--7----------------|--5-----------------|
|--2-------------------|-------------|--5----------------|--3-----------------|
 Pushed onto me whats wrong or right Hidden from this thing that they call life


|------------------|---------------------------|----------------------------|
|------------------|---------------------------|----------------------------|
|--5---4--5-5------|---------------------------|----------------------------|
|--5---4--5-5------|-4--------------3\4--4--4--|-----------------5\4--4--4--|
|--3---2--3-3------|-2--2-3-2-3-2-3-5\2--0--2--|-2-3-2-3-2-3-2-3-3\2--0--2--|
|------------------|---------------------------|----------------------------|
                     


|------------------------|-------------|----------------------|----------------|
|------------------------|-------------|----------------------|----------------|
|------------------------|-------------|----------------------|---------4--5---|
|--4---------------------|--5----------|--7-------------------|--2------4--5---|
|--4---------------------|--5----------|--7-------------------|--2------2--3---|
|--2---------------------|--3----------|--5-------------------|--0-------------|
 Dear Mother, dear Father               Every thought I'd think you'd disapprove


|----------------|-------------|----------------|---------------|
|----------------|-------------|----------------|---------------|
|----------------|-------------|----------------|---------------|
|--4-------------|--5----------|--2-------------|--7------4--5--|
|--4-------------|--5----------|--2-------------|--7------4--5--|
|--2-------------|--3----------|--0-------------|--5------2--3--|
 Curator,dictator               Always censoring  my  every move

The verses follow timing pattern above
The rest of the verse are:

F#5                  D5
Children are seen but not heard

A5                   G5
Tear out every thing inspired


|----------------------|---------------------------|----------------------------|
|----------------------|---------------------------|----------------------------|
|-------------------5--|---------------------------|----------------------------|
|-------------------5--|-4--------------3\4--4--4--|-----------------5\4--4--4--|
|-X-X-X--X---X-X-X--3--|-2--2-3-2-3-2-3-5\2--0--2--|-2-3-2-3-2-3-2-3-3\2--0--2--|
|-X-X-X--X---X-X-X-----|---------------------------|----------------------------|
                        


|----------------------------|---------------------------------|
|----------------------------|---------------------------------|
|----------------------------|---------------------------------|
|-----------------5\4--4--4--|-------------------------5---4---|
|-2-3-2-3-2-3-2-3-3\2--0--2--|-2-3-2-3-2-3-2-3-3---2-----------|
|----------------------------|---------------------------------|
 


|--------------------|---------------------------|
|--------------------|---------------------------|
|--------------------|---------------------------|
|--------------------|-4-------------------------|
|-2---5-5-2----3-3-2-|-2--2-3-2-3-2-3-0--2--0--2-|
|-0---3-3-0----5-5-0-|---------------------------|
                          

|------------------------|---------------------|
|------------------------|---------------------|
|------------------------|---------------------|
|-5----5--5--4--4--------|-2-----------2----2--|
|-3----3--3--2--2--------|-2-----------2----2--|
|------------------3p2p0-|-0----3p2p0--0----0--|
       PM........|

 Chorus

 Innocence                  Torn from me     without your shelter
|--------------------------|---------------------|----------------------|
|--------------------------|---------------------|----------------------|
|--------------------------|---------------------|----------------------|
|--------------------------|-2---------2----2----|--------7-----------7-|
|-2--2--2--2--X-X-2--2--2--|-2---------2----2----|-5-5-5--5----5-5-5--5-|
|-0--0--0--0--X-X-0--0--0--|-0----3p0--0----0----|----------------------|
     PM..................|       PM..|             PM...|      PM...|


 Barred reality I'm living blindly
|--------------------------|---------------------|------------------------|
|--------------------------|---------------------|------------------------|
|--------------------------|---------------------|--------5----5----------|
|--------------------------|-2---------2----2----|--------5----5----------|
|-2--2--2--2--X-X-2--2--2--|-2---------2----2----|-0-2-3--3----3----3-3-2-|
|-0--0--0--0--X-X-0--0--0--|-0----3p0--0----0----|------------------------|
     PM..................|       PM..|             PM...|           PM...|


|------------------------||
|------------------------||
|-----------------------o||
|-----------------------o||
|--2-2-2--2-2-2--2-2-2---||
|------------------------||
  PM..................|


|---------------------------|----------------------------|
|---------------------------|----------------------------|
|---------------------------|----------------------------|
|-4--------------3\4--4--4--|-----------------5\4--4--4--|
|-2--2-3-2-3-2-3-5\2--0--2--|-2-3-2-3-2-3-2-3-3\2--0--2--|
|---------------------------|----------------------------|
     PM.............|         PM.............|


|----------------------------|---------------------------------|
|----------------------------|---------------------------------|
|----------------------------|---------------------------------|
|-----------------5\4--4--4--|-------------------------5---4---|
|-2-3-2-3-2-3-2-3-3\2--0--2--|-2-3-2-3-2-3-2-3-3---2-----------|
|----------------------------|---------------------------------|
 PM..............|             PM............................|


|---------------------------|---------------------------|
|---------------------------|---------------------------|
|---------------------------|---------------------------|
|-4--------------5\4--4--4--|-----------------3\2----4--|
|-2--2-3-2-3-2-3-3\2--0--2--|-2-3-2-3-2-3-2-3-5\4----0--|
|---------------------------|---------------------------|
     PM.........|             PM.............|


|---------------------------|------------------------------|
|---------------------------|------------------------------|
|---------------------------|------------------------------|
|-4--------------3\2--4--4--|------------------------------|
|-2--2-3-2-3-2-3-5\4--0--2--|-2-3-2-3-2-3-2-3--2--3--2--3--|
|---------------------------|------------------------------|
     PM.........|             PM.........................|


|-----------------|
|-----------------|
|-----------------|
|-----------------|
|--2--3--2-----3--|
|--------0--1-----|
   PM...........|

                                                                3 times
||-------------------|-------------|------------------|---------------||
||-------------------|-------------|------------------|---------------||
||o------------------|-------------|------------------|--------------o||
||o--2-------3-------|--2-------5--|--2-------3-------|--2-----------o||
||---2-------3-------|--2-------5--|--2-------3-------|--2------------||
||---0--0-0--1--0-0--|--0--0-0--3--|--0--0-0--1--0-0--|--0--0-1-0-1---||
        PM.|    PM.|       PM.|          PM.|    PM.|    PM....|


SOLO

|--------------|
|--------------|
|------19b21---|
|--------------|
|--------------|
|--------------|


|---------12-----------12-----------12-----------12----|
|------12----15-----12----15-----12----15-----12----15-|
|-14b16--------14b16--------14b16--------14b16---------|
|------------------------------------------------------|
|------------------------------------------------------|
|------------------------------------------------------|


|-12h15p12-------12h15p12-------12h15p12----12h15p14\---|
|----------12h15----------12h15----------15----------14-|
|-------------------------------------------------------|
|-------------------------------------------------------|
|-------------------------------------------------------|
|-------------------------------------------------------|


|-14h17p14----19-p14--17-14-17p14----14/20----x-22b24-|
|----------17---------------------16-------19---------|
|-----------------------------------------------------|
|-----------------------------------------------------|
|-----------------------------------------------------|
|-----------------------------------------------------|

                  harm.
|-(22)-~-~------|------/------------|-------------------------|
|---------------|--12-/-------------|-(12)--------------------|
|---------------|--12/--------------|-(12)-------12-----------|
|---------------|pull bar up 2 tones|---------------14-----12-|
|---------------|-------------------|-------------------------|
|---------------|-------------------|-------------------------|


|------------------------------------|--------------------------|
|------------------------------------|-----------------------10/|
|------------------------------------|--------------------------|
|--14--12----------------------------|--------------------------|
|----------14--13--12--10--12--12pbr-|--p10--12--10-------------|
|------------------------------------|---------------12-~-~-----|


|---------------------------------14--|
|-14b15----14-15p14----14-15--17------|
|-------------------16----------------|
|-------------------------------------|
|-------------------------------------|
|-------------------------------------|


|-15p14----15--17--17/19-p17p15-----------15/|
|-------17----------------------19p17p15\----|
|--------------------------------------------|
|--------------------------------------------|
|--------------------------------------------|
|--------------------------------------------|


|-17-p15p14h15p14------------------------------|
|-----------------17p14/17-17p15p14h15p14------|
|------------------------------------------16--|
|----------------------------------------------|
|----------------------------------------------|
|----------------------------------------------|


|------------------------------------------|
|--14--------------------------------------|
|-----16--14--16-14------14h---16~---11/14-|
|-------------------16---------------------|
|------------------------------------------|
|------------------------------------------|


|--14-------12------10-----9------|----------------------------------|
|-----------------------------7/9-|--12p10p9--10p9-----10-9----------|
|-(14)--13------11------9---------|----------------11-------11--7~---|
|---------------------------------|----------------------------------|
|---------------------------------|----------------------------------|
|---------------------------------|----------------------------------|


|-------------------------------|--------------------------|----------|
|-------------------------------|--------------------------|----------|
|--9p7p6--7p6-------------------|--------------------------|----------|
|-------------9p7-9p7p6--7p6----|--6-----------------------|----------|
|----------------------------9--|----9p7--9p7-5h7-9\-------|----------|
|-------------------------------|--------------------------|----------|


|--------------------------------|--------------------------------|
|--------------------------------|--------------------------------|
|------------6----7----6---------|-------4----5----7----5----4----|
|-------7-------------------7----|--5-----------------------------|
|--9-----------------------------|--------------------------------|
|--------------------------------|--------------------------------|


|--------------------------------|-------------------------------------|
|--------------------------------|-------------------------------------|
|-------6----7----9----7----6----|--7---6h7p6--------------------------|
|--7-----------------------------|-------------9----7----5----4----2---|
|--------------------------------|-------------------------------------|
|--------------------------------|-------------------------------------|


|-------------------------------------|
|-------------------------------------|
|-------------------------------------|
|-5p4p0-5p4p0-5p4p0-5p4p0-5p4p0-5p4p0-|
|-------------------------------------|
|-------------------------------------|


|---------------------------------|
|---------------------------------|
|---------------------------------|
|-7p5p0-7p5p0-7p5p0-7p5p0-7p5p0-7p|
|---------------------------------|
|---------------------------------|


|----------------------------------------|
|----------------------------------------|
|----------------------------------------|
|-9p7p0-9p7p0-9p7p0-9/11p9p0-11p9p0-11p9h|
|----------------------------------------|
|----------------------------------------|


|------------------------------------|----------|---------|
|------------------------------------|----------|---------|
|-----------------------------11\----|----------|---------|
|-11/12p11p0-12p11p0-12p11p0---------|----------|---------|
|------------------------------------|----------|---------|
|------------------------------------|----------|---------|


|-17p12----12h17p12-----12h17p12-12h17p12----12-12h17p12-|
|-------15-----------15-------------------15-------------|
|--------------------------------------------------------|
|--------------------------------------------------------|
|--------------------------------------------------------|
|--------------------------------------------------------|


|--12h17p12----12h17p12---17--12h17p12----12h17p12----|
|-----------15-------------------------15----------15-|
|-----------------------------------------------------|
|-----------------------------------------------------|
|-----------------------------------------------------|
|-----------------------------------------------------|


   t        t        t        t        t        t        t       t
|-19p15p12-19p15p12-19p15p12-19p15p12-19p15p12-19p15p12-19p15p12-19p15p12-|
|-------------------------------------------------------------------------|
|-------------------------------------------------------------------------|
|-------------------------------------------------------------------------|
|-------------------------------------------------------------------------|
|-------------------------------------------------------------------------|


   t        t        t
|-19p15p12-19p15p12-19p15p12h15-12/22b24--r22b24--|
|-------------------------------------------------|
|-------------------------------------------------|
|-------------------------------------------------|
|-------------------------------------------------|
|-------------------------------------------------|


|--------------------------------|---------------------------------|
|--------------------------------|--10----8----7-------------------|
|------------6----7----6---------|------------------9----7----6----|
|-------7-------------------7----|---------------------------------|
|--9-----------------------------|---------------------------------|
|--------------------------------|---------------------------------|


|--------------------------------|-------------------------------------|
|--------------------------------|-------------------------------------|
|-------6------------------------|-------------------------------------|
|--9---------9----7----9----7----|-5-5-5-5-7-7-7-7-9-9-9-9-10-10-10-10-|
|--------------------------------|-------------------------------------|
|--------------------------------|-------------------------------------|


|-----------------------------------------|
|-----------------------------------------|
|-7-7-7-7-9-9-9-9-11-11-11-11-12-12-12-12-|
|-----------------------------------------|
|-----------------------------------------|
|-----------------------------------------|


|--------------------------------------------|
|--------------------------------------------|
|-12h14p12p0-11h12p11p-0--9h11p9p0-7h9p7p-0--|
|--------------------------------------------|
|--------------------------------------------|
|--------------------------------------------|


|-------------------------------------------|
|-------------------------------------------|
|-5h7p5p0-4h5h7p5p0--6h7h9p7p0--7h9h11p9p0--|
|-------------------------------------------|
|-------------------------------------------|
|-------------------------------------------|

Tempo=168

 Rhy Fig 3
|----------------------------|----------------------------|
|----------------------------|----------------------------|
|----------------5\4---4--4--|----------------5\4---4--4--|
|----------------3\2---0--2--|----------------3\2---0--2--|
|----------------------------|----------------------------|
|-0--0-0-0--0-0--------------|-0--0-0-0--0-0--------------|
  PM...........|               PM...........|


|----------------------------|---------------------------|
|----------------------------|---------------------------|
|----------------5\4---4--4--|---------------------------|
|----------------3\2---0--2--|---------------------------|
|----------------------------|---------------------------|
|-0--0-0-0--0-0--------------|-0--0-0-0--0-0-0--1--0--1--|
  PM...........|               PM......................|


|----------------------------|----------------------------|
|----------------------------|----------------------------|
|----------------5\4---4--4--|----------------5\4------4--|
|----------------3\2---0--2--|----------------3\2------0--|
|-2--------------------------|----------------------------|
|-0--0-0-0--0-0--------------|-0--0-0-0--0-0--------------|
     PM........|               PM...........|

                                           end Rhy Fig 3
|----------------------------|--------------------------|
|----------------------------|--------------------------|
|-4--------------5\4---4--4--|--------------------------|
|-2--------------3\2---0--2--|------------------3----3--|
|----------------------------|------------------3----3--|
|----0-0-0--0-0--------------|-0--0-0-0--0-0-0--1----1--|
     PM........|               PM...........|


 Bridge

                  I'm in hell without you
|----------------------------|----------------------------|
|----------------------------|----------------------------|
|----------------5\4---4--4--|----------------5\4---4--4--|
|----------------3\2---0--2--|----------------3\2---0--2--|
|----------------------------|----------------------------|
|-0--0-0-0--0-0--------------|-0--0-0-0--0-0--------------|
  PM...........|               PM...........|


                  Cannot cope without you two
|----------------------------|---------------------------|
|----------------------------|---------------------------|
|----------------5\4---4--4--|---------------------------|
|----------------3\2---0--2--|---------------------------|
|----------------------------|---------------------------|
|-0--0-0-0--0-0--------------|-0--0-0-0--0-0-0--1--0--1--|
  PM...........|               PM......................|


                Shocked at the world that I see
|----------------------------|----------------------------|
|----------------------------|----------------------------|
|----------------5\4---4--4--|----------------5\4------4--|
|----------------3\2---0--2--|----------------3\2------0--|
|-2--------------------------|----------------------------|
|-0--0-0-0--0-0--------------|-0--0-0-0--0-0--------------|
     PM........|               PM...........|


                Innocent victim, please resque me
|----------------------------|--------------------------|
|----------------------------|--------------------------|
|-4--------------5\4---4--4--|--------------------------|
|-2--------------3\2---0--2--|------------------3----3--|
|----------------------------|------------------3----3--|
|----0-0-0--0-0--------------|-0--0-0-0--0-0-0--1----1--|
     PM........|               PM...........|


|------------------|------------------|----------------|
|------------------|------------------|----------------|
|------------------|------------------|----------------|
|-------------4----|-------------4----|----------------|
|-2--------2--2----|-2--------2--2----|-2--------2-----|
|-0----1-1-0-------|-0----1-1-0-------|-0----1-1-0-----|
       PM...|             PM...|             PM.|

                                                                DS al Coda
|-------------------|------------------------------|---------------------|
|-------------------|------------------------------|---------------------|
|-------------------|------------------------------|---------------------|
|-------------------|------------------------------|-------------4-------|
|-----2----------2--|------------------------------|--2----------2----2--|
|-1-1-0------1-1-0--|--0-0-0--0-0-0--0-0-0--0-0-0--|--0----0--0-------0--|
  PM.|       PM.|      PM........................|


Coda

 you always knew
|------------------|-------------------------|--------------------------|
|------------------|-------------------------|--------------------------|
|------------------|-------------------------|--------------------------|
|--5---------------|----------------------5--|--------------------------|
|--5---------------|--2-2-2--2--2-2-2--2--3--|--2--3--2--3--------------|
|--3---------------|-------------------------|--------------0--1--0--1--|
                                                PM....................|


|------------------|-------------|------------------|--------------|--------|
|------------------|-------------|------------------|--------------|--------|
|------------------|-------------|------------------|--------------|--------|
|--2-------3-------|--2-------5--|--2-------3-------|--2-----------|-2------|
|--2-------3-------|--2-------5--|--2-------3-------|--2-----------|-2------|
|--0--0-0--1--0-0--|--0--0-0--3--|--0--0-0--1--0-0--|--0--0-1-0-1--|-0------|
comments
print report bad tab
6 comments total. Showing first comments.
+2 reply
JustinDx17 wrote on September 8 2005, 12:00 am

this is really good, i cant really play most of it, but its good. Good job.

+2 reply
Nuums wrote on June 2 2006, 08:29 am

somehow you miss blackened

+2 reply
thefoldarsoldar wrote on October 5 2006, 03:40 pm

yeah, wheres the very first song!?

I want to post or [tab]
guest
You may want to rate the tab now too:
select rating
Please do not post tabs as comments. Select "correction" instead!