Oops, an error
Loading. Please wait.

And Justice For All Drum Tab

3,138 views 6 this week
no commentswrite comment
1 2 3 4 5
accurate
x 1
Autoscroll
+/-
esc
set tempo
stop
Contributor
WARNING: You are trying to view
                                    content from Ultimate-Guitar.com
                                    in an unauthorized application,
                                    which is prohibited.

                                    Please use an official Ultimate
                                    Guitar Tabs application for iPhone,
                                    iPad or Android to access legitimate
                                    chords, guitar, bass, and drum tabs
                                    from Ultimate-Guitar.com database.

                                    Type "ultimate guitar tabs" in Apple
                                    App Store's or Android Market's
                                    search to find the application.
   |--play-2x---|
 C |X-X-X-------|X-----------|
 S |--------f---|------------|
 T1|------------|----o-------|    Rest 3 measures then repeat 1x
 T2|------------|----o---o---|
 T3|------------|--------o---|
 B |o-o-o-o---o-|o-----------|
    1e&a2e&a3e&a 1e&a2e&a3e&a


   |----------Play 2x--------|
 C |X-X-X-------|X-X---X-X---|X-X---X-X---|X-----------|
 S |--------f-t-|----oo----f-|----oo----f-|------------|
 T1|------------|------------|------------|----o-------|
 T2|------------|------------|------------|----o---o---|
 T3|------------|-------------------------|--------o---|
 B |o-o-o-------|o-o---o-o---|o-o---o-o---|o-----------|
    1e&a2e&a3e&a 1e&a2e&a3e&a 1e&a2e&a3e&a 1e&a2e&a3e&a


 Part 1  (4/4 time, play faster)


                                     |----3/4-----|
 S |f-------o-o-----|o-o-o-------o-o-|o-o---------|
    1e&a2e&a3e&a4e&a 1e&a2e&a3e&a4e&a 1e&a2e&a3e&a

   |--4/4-Again-----|
 C |X-------X-------|X---------------|
 S |--oooooo--oooooo|--ooo-----------|
 T1|----------------|------o-o-o-----|
 T2|----------------|------o-o-o-----|
 B |o-------o-------|o---------------|
    1e&a2e&a3e&a4e&a 1e&a2e&a3e&a4e&a

 C |X---X---X---X---|X-X-X-X-X-X-X-X-|
 B |o---o---o---o---|o-o-o-o-o-o-o-o-|
    1e&a2e&a3e&a4e&a 1e&a2e&a3e&a4e&a


 Part 2    (Loose Hi Hats)

                    |-----Play 2x----|
 C |X---------------|----------------|
 H |--x-x-x-x-x-x-x-|x-x-x-x-x-x-x-x-|
 S |----o-------o---|----o-------o---|
 B |o-------o-------|o-------o-------|
    1e&a2e&a3e&a4e&a 1e&a2e&a3e&a4e&a


                                     |---2/4--|-----4/4--------|
 C |----X-------X---|----------------|----x---|----------------|
 H |x-x---x-x-x---x-|x-x-x-x-x-x-x-x-|x-x---x-|x-x-x-x-x-x-x-x-| play
 S |----o-------o---|----------------|----o---|----------------|   8x
 T1|----------------|--o-------------|--------|--o-------------|
 T2|----------------|--------o-------|--------|--------o-------|
 T3|----------------|------------o---|--------|------------o---|
 B |o-o-----o-o-----|o---------------|o-o-----|o---------------|
    1e&a2e&a3e&a4e&a 1e&a2e&a3e&a4e&a 1e&a2e&a 1e&a2e&a3e&a4e&a


                                     |---2/4--|-----4/4--------|
 C |----X-------X---|----------------|----X---|----------------|
 H |x-x---x-x-x---x-|x-x-x-x-x-x-x-x-|x-x---x-|x-x-x-x-x-x-x-x-|
 S |----o-------o---|----------------|----o---|----------------|
 T1|----------------|--o-------------|--------|--o-------------|
 T2|----------------|--------o-------|--------|--------o-------|
 T3|----------------|------------o---|--------|------------o---|
 B |oooo----oooo----|o---------------|o-o-----|o---------------|
    1e&a2e&a3e&a4e&a 1e&a2e&a3e&a4e&a 1e&a2e&a 1e&a2e&a3e&a4e&a


                                     |---2/4--|-----4/4--------|
 C |----X-------X---|----------------|----x---|----------------|
 H |x-x---x-x-x---x-|x-x-x-x-x-x-x-x-|x-x---x-|x-x-x-x-x-x-x-x-| play
 S |----o-------o---|----------------|----o---|----------------|   3x
 T1|----------------|--o-------------|--------|--o-------------|
 T2|----------------|--------o-------|--------|--------o-------|
 T3|----------------|------------o---|--------|------------o---|
 B |o-o-----o-o-----|o---------------|o-o-----|o---------------|
    1e&a2e&a3e&a4e&a 1e&a2e&a3e&a4e&a 1e&a2e&a 1e&a2e&a3e&a4e&a

 Verse 1

 C |----X-------X---|
 H |x-x---x-x-x---x-|
 S |----o-------o---|
 B |o-o-----o-o-----|
    1e&a2e&a3e&a4e&a

 C |X---------------|----------------|----------------|----------------|
 H |----x---x---x---|x---x---x---x---|x---x---x---x---|x---x---x---x---|
 S |----o-------o---|----o-------o---|----o-------o---|----o-------o---|
 B |o-------o-------|o-----o-o-------|o-------o-----o-|o-----o-o-------|
    1e&a2e&a3e&a4e&a 1e&a2e&a3e&a4e&a 1e&a2e&a3e&a4e&a 1e&a2e&a3e&a4e&a


 H |x---x---x---x---|x---x---x---x---|x---x---x---x---|x---x---x---x---|
 S |----o-------o---|----o-------o---|----o-------o---|----o-------o---|
 B |o-------o-----o-|o-------o-------|o-----o-o-----o-|o-------o-------|
    1e&a2e&a3e&a4e&a 1e&a2e&a3e&a4e&a 1e&a2e&a3e&a4e&a 1e&a2e&a3e&a4e&a


 H |x---x---x---x---|x---x---x---x---|x---x---x---x---|x---x---x---x---|
 S |----o-------o---|----o-------o---|----o-------o---|----o-------o---|
 B |o-----o-o-------|o-------o-----o-|o-----o-o-------|o-------o-----o-|
    1e&a2e&a3e&a4e&a 1e&a2e&a3e&a4e&a 1e&a2e&a3e&a4e&a 1e&a2e&a3e&a4e&a

 C |----------------|----X-------X---|----------------|
 H |x---x---x---x---|x-------x-------|----------------|
 S |----o-------o---|----o-------o---|--f-f-----f-f---|
 B |o-------o-------|o-o-----o-o-----|o-----o-o-----o-|
    1e&a2e&a3e&a4e&a 1e&a2e&a3e&a4e&a 1e&a2e&a3e&a4e&a

 Pre-Chorus 1
                                
 C |X---------------|------------X---|
 H |----x---x---x---|x---x---x-------|
 S |----o-------o---|----o-------o---| 
 B |o---------o---o-|--o---o---oo----|
    1e&a2e&a3e&a4e&a 1e&a2e&a3e&a4e&a

 C |X---X-----------|------------X---|
 H |--------X---x---|x---x---x-------| play
 S |o---o-------o---|----o-------o---|  2x
 B |----------o---o-|--o---o---oo----|
    1e&a2e&a3e&a4e&a 1e&a2e&a3e&a4e&a

   __________________________________
  |1.               
 C |X---X-----------|----------------| Go to beginning of pre-chorus 
 H |--------X---x---|----------------|  then take the second ending
 S |o---o-------o---|f-o-o-f-o-o-f---|
 B |--------o-------|--------------o-|
    1e&a2e&a3e&a4e&a 1e&a2e&a3e&a4e&a

   ____________________________________________________________
  |2.
   |--2/4---|-----4/4--------|
 C |X---X---|--------X-------|----X---X-------|----X---X-------|
 H |--------|x---x-----------|----------------|------------x---|
 S |o---o---|----o---o-------|----o---o-------|----o-------o---|
 B |--------|o---------------|----------------|--oo----o-------| 
    1e&a2e&a 1e&a2e&a3e&a4e&a 1e&a2e&a3e&a4e&a 1e&a2e&a3e&a4e&a 
                       
 Chorus 1

 C |----------------|----X---X-------|--------X-------|
 H |x---x---x---x---|x-----------x---|x---x-------x---|
 S |----o-------o---|----o-----------|o---o-----------|
 B |--o---o---o-----|--oo----o-----o-|--------o-----o-|
    1e&a2e&a3e&a4e&a 1e&a2e&a3e&a4e&a 1e&a2e&a3e&a4e&a


                    |---2/4--|-----4/4--again-| 
 C |----------------|----X---|X---------------|------------X---|
 H |x---x-----------|--------|----x---x---x---|x---x---x-------|
 S |o---o---------o-|--------|----o-------o---|----o-------o---|
 T2|------o-o---o---|--------|----------------|----------------|
 T3|----------------|o-------|----------------|----------------|
 B |----------------|----o---|o---------o---o-|--o---o---oo----|
    1e&a2e&a3e&a4e&a 1e&a2e&a 1e&a2e&a3e&a4e&a 1e&a2e&a3e&a4e&a


 C |X---------------|------------X---|X---------------|------------X---|
 H |----x---x---x---|----------------|----x---x---x---|x---x---x-------|
 S |--------o---o---|----ooooo-o-----|----o-------o---|----o-------o---|
 T2|----------------|oooo------------|----------------|----------------|
 B |o-----o---------|------------o---|o---------o---o-|--o---o---oo----|
    1e&a2e&a3e&a4e&a 1e&a2e&a3e&a4e&a 1e&a2e&a3e&a4e&a 1e&a2e&a3e&a4e&a


 C |X---------------|X---------------|X---------------|X---------------|
 H |----x---x---x---|----x-----------|----x---x---x---|----x-----------|
 S |--------o---o---|------o---o---o-|--------o---o---|o-----o---------|
 T2|----------------|--------o-------|----------------|--------o-------|
 T3|----------------|------------o---|----------------|------------o---|
 B |o-----o---------|o---------------|o-----o---------|----------------|
    1e&a2e&a3e&a4e&a 1e&a2e&a3e&a4e&a 1e&a2e&a3e&a4e&a 1e&a2e&a3e&a4e&a


 C |X---------------|
 H |----x-----------|
 S |------o-o-o-o---|
 B |o-----------oooo|
    1e&a2e&a3e&a4e&a

 Part 3

                                     |---2/4--|-----4/4--------|
 C |----X-------X---|----------------|----x---|----------------|
 H |----------------|x-x-x-x-x-x-x-x-|x-x---x-|x-x-x-x-x-x-x-x-| 
 S |----o-------o---|----------------|----o---|----------------| 
 T1|----------------|--o-------------|--------|--o-------------|
 T2|----------------|--------o-------|--------|--------o-------| 
 T3|----------------|------------o---|--------|------------o---|
 B |o-o-----o-o-----|o---------------|o-o-----|o---------------|
    1e&a2e&a3e&a4e&a 1e&a2e&a3e&a4e&a 1e&a2e&a 1e&a2e&a3e&a4e&a


                                     |---2/4--|-----4/4--------|
 C |----X-------X---|----------------|----x---|----------------|
 H |x-x---x-x-x---x-|x-x-x-x-x-x-x-x-|x-x---x-|x-x-x-x-x-x-x-x-| play
 S |----o-------o---|----------------|----o---|----------------|   3x
 T1|----------------|--o-------------|--------|--o-------------|
 T2|----------------|--------o-------|--------|--------o-------| 
 T3|----------------|------------o---|--------|------------o---|
 B |o-o-----o-o-----|o---------------|o-o-----|o---------------|
    1e&a2e&a3e&a4e&a 1e&a2e&a3e&a4e&a 1e&a2e&a 1e&a2e&a3e&a4e&a


 Verse 2

 C |----X-------X---|
 H |x-x---x-x-x---x-|
 S |----o-------o---|
 B |oooo----oooo----|
    1e&a2e&a3e&a4e&a


 C |X---------------|----------------|----------------|----------------|
 H |----x---x---x---|x---x---x---x---|x---x---x---x---|x---x---x---x---|
 S |----o-------o---|----o-------o---|----o-------o---|----o-------o---|
 B |o-------o-------|o-----o-o-------|o-------o-----o-|o-----o-o-------|
    1e&a2e&a3e&a4e&a 1e&a2e&a3e&a4e&a 1e&a2e&a3e&a4e&a 1e&a2e&a3e&a4e&a


 H |x---x---x---x---|x---x---x---x---|x---x---x---x---|x---x---x---x---|
 S |----o-------o---|----o-------o---|----o-------o---|----o-------o---|
 B |o-------o-----o-|o-------o-------|o-----o-o-----o-|o-------o-------|
    1e&a2e&a3e&a4e&a 1e&a2e&a3e&a4e&a 1e&a2e&a3e&a4e&a 1e&a2e&a3e&a4e&a


 H |x---x---x---x---|x---x---x---x---|x---x---x---x---|x---x---x---x---|
 S |----o-------o---|----o-------o---|----o-------o---|----o-------o---|
 B |o-----o-o-------|o-------o-----o-|o-----o-o-------|o-------o-----o-|
    1e&a2e&a3e&a4e&a 1e&a2e&a3e&a4e&a 1e&a2e&a3e&a4e&a 1e&a2e&a3e&a4e&a


 C |----------------|----X-------X---|----------------|
 H |x---x---x---x---|x-------x-------|----------------|
 S |----o-------o---|----o-------o---|--f-f-----f-f---|
 B |o-------o-------|o-o-----o-o-----|o-----o-o-----o-|
    1e&a2e&a3e&a4e&a 1e&a2e&a3e&a4e&a 1e&a2e&a3e&a4e&a


 Pre Chorus 2

 C |X---------------|------------X---|
 H |----x---x---x---|x---x---x-------|
 S |----o-------o---|----o-------o---| 
 B |o---------o---o-|--o---o---oo----|
    1e&a2e&a3e&a4e&a 1e&a2e&a3e&a4e&a

 C |X---X-----------|------------X---|
 H |--------X---x---|x---x---x-------| play
 S |o---o-------o---|----o-------o---|  2x
 B |----------o---o-|--o---o---oo----|
    1e&a2e&a3e&a4e&a 1e&a2e&a3e&a4e&a
   __________________________________
  |1.               
 C |X---X-----------|----------------| Go to beginning of pre-chorus 
 H |--------X---x---|----------------|  then take the second ending
 S |o---o-------o---|f-o-o-f-o-o-f---|
 B |--------o-------|--------------o-|
    1e&a2e&a3e&a4e&a 1e&a2e&a3e&a4e&a

   ____________________________________________________________
  |2.
   |---2/4--|-------4/4------|
 C |X---X---|--------X-------|----X---X-------|--------X-------|
 H |--------|x---x-----------|----------------|------------x---|
 S |o---o---|----o---o-------|----o---o-------|--o-o-o-----o---|
 B |--------|o---------------|----------------|--------o-------|                  
    1e&a2e&a 1e&a2e&a3e&a4e&a 1e&a2e&a3e&a4e&a 1e&a2e&a3e&a4e&a

 Chorus 2


 C |----------------|----X---X-------|--------X-------|
 H |x---x---x---x---|x-----------x---|x---x-------x---|
 S |----o-------o---|----o-----------|o---o-----------|
 B |--o---o---o-----|--oo----o-----o-|--------o-----o-|
    1e&a2e&a3e&a4e&a 1e&a2e&a3e&a4e&a 1e&a2e&a3e&a4e&a


                    |---2/4--|-----4/4--again-|
 C |--------X-------|----X---|X---------------|------------X---|
 H |x---x-----------|--------|----x---x---x---|x---x---x-------|
 S |o---o-----------|--------|----o-------o---|----o-------o---|
 T2|----------ooo-o-|--------|----------------|----------------|
 T3|----------------|o-o-----|----------------|----------------|
 B |--------o-------|----o---|o---------o---o-|--o---o---oo----|
    1e&a2e&a3e&a4e&a 1e&a2e&a 1e&a2e&a3e&a4e&a 1e&a2e&a3e&a4e&a


 C |X---------------|--------X---X---|X---------------|------------X---|
 H |----x---x---x---|x---------------|----x---x---x---|x---x---x-------|
 S |--------o---o---|o-------o---o---|----o-------o---|----o-------o---|
 B |o-----o---------|oooooooo--------|o---------o---o-|--o---o---oo----|
    1e&a2e&a3e&a4e&a 1e&a2e&a3e&a4e&a 1e&a2e&a3e&a4e&a 1e&a2e&a3e&a4e&a


 C |X---------------|X---------------|X---------------|--------X---X---|
 H |----x---x---x---|----x-----------|----x---x---x---|x---x-----------|
 S |--------o---o---|o-----o---------|o-------o-------|o-------o---o---|
 T2|----------------|--------o-------|----------------|----------------|
 T3|----------------|------------o---|----------------|----------------|
 B |o-----o---------|----------------|------o---o---o-|--o---o---------|
    1e&a2e&a3e&a4e&a 1e&a2e&a3e&a4e&a 1e&a2e&a3e&a4e&a 1e&a2e&a3e&a4e&a


 C |X---------------|
 H |----x-----------|
 S |o-----o-o-o-o---|
 B |------------oooo|
    1e&a2e&a3e&a4e&a



 Part 4

                                     |---2/4--|-----4/4--------|
 C |----X-------X---|----------------|----x---|----------------|
 H |----------------|x-x-x-x-x-x-x-x-|x-x---x-|x-x-x-x-x-x-x-x-| 
 S |----o-------o---|----------------|----o---|----------------| 
 T1|----------------|--o-------------|--------|--o-------------|
 T2|----------------|--------o-------|--------|--------o-------| 
 T3|----------------|------------o---|--------|------------o---|
 B |o-o-----o-o-----|o---------------|o-o-----|o---------------|
    1e&a2e&a3e&a4e&a 1e&a2e&a3e&a4e&a 1e&a2e&a 1e&a2e&a3e&a4e&a


                                     |---2/4--|-----4/4--------|
 C |----X-------X---|----------------|----x---|----------------|
 H |x-x---x-x-x---x-|x-x-x-x-x-x-x-x-|x-x---x-|x-x-x-x-x-x-x-x-| 
 S |----o-------o---|----------------|----o---|----------------|   
 T1|----------------|--o-------------|--------|--o-------------|
 T2|----------------|--------o-------|--------|--------o-------| 
 T3|----------------|------------o---|--------|------------o---|
 B |o-o-----o-o-----|o---------------|o-o-----|o---------------|
    1e&a2e&a3e&a4e&a 1e&a2e&a3e&a4e&a 1e&a2e&a 1e&a2e&a3e&a4e&a


 Guitar Solo 1

                                     |----3/4-----|
 S |f-------o-o-----|o-o-o-------o-o-|o-o---------|
    1e&a2e&a3e&a4e&a 1e&a2e&a3e&a4e&a 1e&a2e&a3e&a


   |--4/4-Again-----|
 C |X-------X-------|X---------------|
 S |--oooooo--oooooo|--ooo-----------|
 T1|----------------|------o-o-o-----|
 T2|----------------|------o-o-o-----|
 B |o-------o-------|o---------------|
    1e&a2e&a3e&a4e&a 1e&a2e&a3e&a4e&a


 C |X---X---X---X---|X-X-X-X-X-X-X-X-|X---------------|----------------|
 H |----------------|----------------|----x---x---x---|x---------------|
 S |----------------|o---o---o---o---|----o-------o---|--o-o-o-o-o-o-o-|
 B |o---o---o---o---|oooooooooooooooo|o-------o-------|o---------------|
    1e&a2e&a3e&a4e&a 1e&a2e&a3e&a4e&a 1e&a2e&a3e&a4e&a 1e&a2e&a3e&a4e&a

 C |X---------------|------------X---| play
 H |----x---x---x---|x---x---x-------|   3x
 S |----o-------o---|----o-------o---|(Don’t play crash on beat 
 B |o-----o---o---o-|--o---o---oo----|    1 after repeat)
    1e&a2e&a3e&a4e&a 1e&a2e&a3e&a4e&a

 C |----------------|----------------|
 H |x---x---x---x---|----------------|
 S |----o-------o---|f-o-o-f-o-o-f---|
 B |o-----o---o-----|--------------o-|
    1e&a2e&a3e&a4e&a 1e&a2e&a3e&a4e&a


 C |X---------------|------------X---| 
 H |----x---x---x---|x---x---x-------|   
 S |----o-------o---|----o-------o---| 
 B |o---------o---o-|--o---o---oo----|    
    1e&a2e&a3e&a4e&a 1e&a2e&a3e&a4e&a


 C |----------------|----------------|
 H |x---x---x---x---|----------------|
 S |----o-------o--o|o-o-o---fo--fo--|
 B |o-----o---o-----|----------oo--oo|
    1e&a2e&a3e&a4e&a 1e&a2e&a3e&a4e&a


 C |X---------------|------------X---| 
 H |----x---x---x---|x---x---x-------|   
 S |----o-------o---|----o-------o---| 
 B |o---------o---o-|--o---o---oo----|
    1e&a2e&a3e&a4e&a 1e&a2e&a3e&a4e&a


 C |----------------|----------------|----------------|----X-------X---|
 H |x---x---x---x---|----------------|----------------|----------------|
 S |----o-------o---|f-o-o-f-o-o-f---|o-ooo-ooo-o-o---|----o-------o---|
 B |o-----o---o-----|--------------o-|------------oooo|o-o-----o-o-----|
    1e&a2e&a3e&a4e&a 1e&a2e&a3e&a4e&a 1e&a2e&a3e&a4e&a 1e&a2e&a3e&a4e&a


 Guitar Solo 2

 C |X---------------|----------------|----------------|----------------|
 H |----x---x---x---|x---x---x---x---|x---x---x---x---|x---x---x---x---|
 S |----o-------o---|----o-------o---|----o-------o---|----o-------o---|
 B |o-------o-------|o-----o-o-------|o-------o-----o-|o-------o-------|
    1e&a2e&a3e&a4e&a 1e&a2e&a3e&a4e&a 1e&a2e&a3e&a4e&a 1e&a2e&a3e&a4e&a
                      
                                     |---2/4--|
 C |----------------|------------X---|----X---|
 H |x---x---x---x---|x---x---x-------|x-------|
 S |----o-------o---|----o-------o---|----o---|
 B |o-----o-o-------|o-------oooo----|oooo----|
    1e&a2e&a3e&a4e&a 1e&a2e&a3e&a4e&a 1e&a2e&a

 C |----------------|----------------|----------------|----X-----------|
 H |x---x---x---x---|x---x---x---x---|x---x---x---x---|x-------x---x---|
 S |----o-------o---|----o-------o---|----o-------o---|----o-------o---|
 B |o-------o-------|o-----o-o-------|o-------o-----o-|o-------o-------|
    1e&a2e&a3e&a4e&a 1e&a2e&a3e&a4e&a 1e&a2e&a3e&a4e&a 1e&a2e&a3e&a4e&a
                                 
                                     |---2/4--|
 C |----------------|------------X---|----X---|
 H |x---x---x---x---|x---x---x-------|x-------|
 S |----o-------o---|----o-------o---|----o---|
 B |o-----o-o-------|o-------oooo----|oooo----|
    1e&a2e&a3e&a4e&a 1e&a2e&a3e&a4e&a 1e&a2e&a


   |----play-2x-----|
 C |----------X-X---|----------------|----------------|----------------|
 S |--f-f-----o-o---|f-ooooooo-o-o-o-|oo-oo-----------|o---------------|
 T1|----------------|----------------|------o-o-------|----------------|
 T2|----------------|----------------|----------o-----|----------------|
 T3|----------------|----------------|------------o-o-|----------------|
 B |o-----o-o-----o-|----------------|----------------|----------------|
    1e&a2e&a3e&a4e&a 1e&a2e&a3e&a4e&a 1e&a2e&a3e&a4e&a 1e&a2e&a3e&a4e&a


 Guitar Solo 3

 C |X---X---X---X---|X---X---X---X---|X---X---X---X---|X---X---X---X---|
 S |----o-------o---|----o-------o---|----o-------o---|----o-------o---|
 B |o-------o-------|o-----o-o-------|o-------o-----o-|o-----o-o-------|
    1e&a2e&a3e&a4e&a 1e&a2e&a3e&a4e&a 1e&a2e&a3e&a4e&a 1e&a2e&a3e&a4e&a 


 C |X---X---X---X---|X---X---X---X---|X---X---X---X---|X---X---X---X---|
 S |----o-------o---|----o-------o---|----o-------o---|----o-------o---|
 B |o-------o-----o-|o-------o-------|o-----o-o-----o-|o-------o-------|
    1e&a2e&a3e&a4e&a 1e&a2e&a3e&a4e&a 1e&a2e&a3e&a4e&a 1e&a2e&a3e&a4e&a


 C |X---X---X---X---|X---X---X---X---|X---X---X---X---|X---X---X---X---|
 S |----o-------o---|----o-------o---|----o-------o---|----o-------o---|
 B |o-----o-o-------|o-------o-----o-|o-----o-o-------|o-------o-----o-|
    1e&a2e&a3e&a4e&a 1e&a2e&a3e&a4e&a 1e&a2e&a3e&a4e&a 1e&a2e&a3e&a4e&a


 C |X---X---X---X---|
 S |----o-------o---|
 B |o-------o-------|
    1e&a2e&a3e&a4e&a


                    |----play-3x-----|
 C |X---X-------X---|----X-------X---| Gradually Slow Down
 S |----o-------o---|----o-------o---| 
 B |o-o-----o-o-----|o-o-----o-o-----|    
    1e&a2e&a3e&a4e&a 1e&a2e&a3e&a4e&a


   |---3/4------|
 S |f-o-o-o-o-o-|
    1e&a2e&a3e&a


 Guitar Solo 4 (Play Slower, 3/4time)


 C |X-----------|------------|------------|----------X-|X---------X-|
 H |--x-x-x-x-x-|x-x-x-x-x-x-|x-x-x-x-x-x-|x-x-x-x-x---|--x-x-x-x---|
 S |--------o---|--------o---|--------o---|--------o---|--------o---|
 B |o---o-o-----|o-----o-----|o---o-o-----|o-----o---o-|o-----o---o-|
    1e&a2e&a3e&a 1e&a2e&a3e&a 1e&a2e&a3e&a 1e&a2e&a3e&a 1e&a2e&a3e&a

  __________________
 |1.
   |----4/4---------|
 C |X---------------|
 T1|--o-------------|  
 T2|--------o-------|  go back to the beginning of GS4 and 
 T3|------------o---|      take the second ending
 B |o---------------|
    1e&a2e&a3e&a4e&a

   _____________
  |2.
 C |X-----------|
 S |--o-oo-oo-o-|
 B |o-----------|
    1e&a2e&a3e&a


 C |X-----------|------------|------------|--------X---|X---------X-|
 H |--x-x-x-x-x-|x-x-x-x-x-x-|x-x-x-x-x-x-|x-x-x-x-x-x-|--x-x-x-x---|
 S |--------o---|--------o---|--------o---|--------o---|--------o---|
 B |o---o-o-----|o-----o-----|o---o-o-----|o-----o---o-|o-----o---o-|
    1e&a2e&a3e&a 1e&a2e&a3e&a 1e&a2e&a3e&a 1e&a2e&a3e&a 1e&a2e&a3e&a


                |---play-6x--|---------play-2x---------|
 C |X-----------|X-----------|X-----------|X-----------|
 H |--x-x-x-----|--x-x-x-x-x-|--x-x-x-x-x-|--x-x-x-x-x-|
 S |--------f---|o-------o---|o---o---o---|o---o---o---|
 B |o-----o--o-o|------o--o-o|--o--o-o--o-|-o-o—-o--o-o|
    1e&a2e&a3e&a 1e&a2e&a3e&a 1e&a2e&a3e&a 1e&a2e&a3e&a



                             |---------play-3x---------|
 C |X-----------|X-----------|X-----------|X-----------|X-----------|
 H |--x-x-x-x-x-|--x-x-x-x-x-|--x-x-x-x-x-|--x-x-x-x-x-|--x-x-x-x-x-|
 S |o---o---o---|o---o---o---|o---o---o---|o---o---o---|o---o---o---|
 B |--o--o-o--o-|-o-o--o---o-|oooooooooooo|oooooooooooo|oooooooooooo|
    1e&a2e&a3e&a 1e&a2e&a3e&a 1e&a2e&a3e&a 1e&a2e&a3e&a 1e&a2e&a3e&a




 Part 5 (play faster, 4/4 time)



                    |-----Play 2x----|
 C |X---------------|----------------|
 H |--x-x-x-x-x-x-x-|x-x-x-x-x-x-x-x-|
 S |----o-------o---|----o-------o---|
 B |o-------o-------|o-------o-------|
    1e&a2e&a3e&a4e&a 1e&a2e&a3e&a4e&a



                                     |---2/4--|-----4/4--------|
 C |----X-------X---|----------------|----x---|----------------|
 H |x-x---x-x-x---x-|x-x-x-x-x-x-x-x-|x-x---x-|x-x-x-x-x-x-x-x-| play
 S |----o-------o---|----------------|----o---|----------------|   3x
 T1|----------------|--o-------------|--------|--o-------------|
 T2|----------------|--------o-------|--------|--------o-------|
 T3|----------------|------------o---|--------|------------o---|
 B |o-o-----o-o-----|o---------------|o-o-----|o---------------|
    1e&a2e&a3e&a4e&a 1e&a2e&a3e&a4e&a 1e&a2e&a 1e&a2e&a3e&a4e&a


 Verse 3

 C |----X-------X---|
 H |x-x---x-x-x---x-|
 S |----o-------o---|
 B |o-o-----o-o-----|
    1e&a2e&a3e&a4e&a


 C |X---------------|----------------|----------------|------------X---|
 H |----x---x---x---|x---x---x---x---|x---x---x---x---|x---x---x-------|
 S |----o-------o---|----o-------o---|----o-------o---|----o-------o---|
 B |o-------o-------|o-----o-o-------|o-------o-----o-|o-----o-o-------|
    1e&a2e&a3e&a4e&a 1e&a2e&a3e&a4e&a 1e&a2e&a3e&a4e&a 1e&a2e&a3e&a4e&a


 C |----------------|----------------|----------------|----X-----------|
 H |x---x---x---x---|x---x---x---x---|x---x---x---x---|x-------x---x---|
 S |----o-------o---|----o-------o---|----o-------o---|----o-------o---|
 B |o-------o-----o-|o-------o-------|o-----o-o-----o-|o-------o-------|
    1e&a2e&a3e&a4e&a 1e&a2e&a3e&a4e&a 1e&a2e&a3e&a4e&a 1e&a2e&a3e&a4e&a 


 C |----------------|----------------|------------X---|----------------|
 H |x---x---x---x---|x---x---x---x---|x---x---x-------|x---x---x---x---|
 S |----o-------o---|----o-------o---|----o-------o---|----o-------o---|
 B |o-----o-o-------|o-------o-----o-|o-----o-o-------|o-------o-----o-|
    1e&a2e&a3e&a4e&a 1e&a2e&a3e&a4e&a 1e&a2e&a3e&a4e&a 1e&a2e&a3e&a4e&a 


 C |----------------|----X-------X---|----------------|--X-X-----------|
 H |x---x---x---x---|x-------x-------|----------------|----------------|
 S |----o-------o---|----o-------o---|--f-f-----f-f---|--o-o-----f-f---|
 B |o-------o-------|o-o-----o-o-----|o-----o-o-----o-|o-----o-o-----o-|
    1e&a2e&a3e&a4e&a 1e&a2e&a3e&a4e&a 1e&a2e&a3e&a4e&a 1e&a2e&a3e&a4e&a


 Pre Chorus 3
                                    
 C |X---------------|------------X---|
 H |----x---x---x---|x---x---x-------|
 S |----o-------o---|----o-------o---| 
 B |o---------o---o-|--o---o---oo----|
    1e&a2e&a3e&a4e&a 1e&a2e&a3e&a4e&a


 C |X---X-----------|------------X---|
 H |--------X---x---|x---x---x-------| play
 S |o---o-------o---|----o-------o---|  2x
 B |----------o---o-|--o---o---oo----|
    1e&a2e&a3e&a4e&a 1e&a2e&a3e&a4e&a


   __________________________________
  |1.               
 C |X---X-----------|----------------| Go to beginning of pre-chorus 
 H |--------X---x---|----------------|  then take the second ending
 S |o---o-------o---|f-o-o-f-o-o-f---|
 B |--------o-------|--------------o-|
    1e&a2e&a3e&a4e&a 1e&a2e&a3e&a4e&a

   ____________________________________________________________
  |2.
   |--2/4---|-----4/4--------|
 C |X---X---|--------X-------|----X---X-------|--------X-------|
 H |--------|x---x-----------|----------------|------------x---|
 S |o---o---|----o---o-------|----o---o-----o-|o-o-o-o-----o---|
 B |--------|o---------------|----------------|--------o-------|
    1e&a2e&a 1e&a2e&a3e&a4e&a 1e&a2e&a3e&a4e&a 1e&a2e&a3e&a4e&a


 Chorus 3

 C |----------------|----X---X-------|--------X-------|
 H |x---x---x---x---|x-----------x---|x---x-------x---|
 S |----o-------o---|----o-----------|o---o-----------|
 B |--o---o---o---o-|--oo----o-----o-|--------o-----o-|
    1e&a2e&a3e&a4e&a 1e&a2e&a3e&a4e&a 1e&a2e&a3e&a4e&a


                    |---2/4--|-----4/4--again-|
 C |X---X---X-------|----X---|X---------------|------------X---|
 H |------------x---|--------|----x---x---x---|x---x---x-------|
 S |o---o-----------|--------|----o-------o---|----o-------o---|
 T2|--------------o-|--------|----------------|----------------|
 T3|----------------|o-------|----------------|----------------|
 B |--------o-------|----o---|o---------o---o-|--o---o---oo----|
    1e&a2e&a3e&a4e&a 1e&a2e&a 1e&a2e&a3e&a4e&a 1e&a2e&a3e&a4e&a


 C |X-----------X---|X-----------X---|X---------------|------------X---|
 H |----------------|----------------|----x---x---x---|x---x---x-------|
 S |--oooooooooo----|--ooooooo-o-----|----o-------o---|----o-------o---|
 B |o-----------o---|o-----------o---|o---------o---o-|--o---o---oo----|
    1e&a2e&a3e&a4e&a 1e&a2e&a3e&a4e&a 1e&a2e&a3e&a4e&a 1e&a2e&a3e&a4e&a


 C |X---------------|X---------------|X---------------|X-------X---X---|
 H |----x---x---x---|----x-----------|----x---x---x---|----x-----------|
 S |--------o---o---|o-----o---o-o-o-|o-------o-------|o-------o---o---|
 T2|----------------|--------o-------|----------------|----------------|
 B |o-----o---------|----------------|------o---o---o-|oooooooo--------|
    1e&a2e&a3e&a4e&a 1e&a2e&a3e&a4e&a 1e&a2e&a3e&a4e&a 1e&a2e&a3e&a4e&a


 C |X---------------|
 H |----x-----------|
 S |------o-o-o-o---|
 B |o-----------oooo|
    1e&a2e&a3e&a4e&a

 Part 6
                                     |---2/4--|-----4/4--------|
 C |----X-------X---|----------------|----x---|----------------|
 H |----------------|x-x-x-x-x-x-x-x-|x-x---x-|x-x-x-x-x-x-x-x-| 
 S |----o-------o---|----------------|----o---|----------------| 
 T1|----------------|--o-------------|--------|--o-------------|
 T2|----------------|--------o-------|--------|--------o-------| 
 T3|----------------|------------o---|--------|------------o---|
 B |o-o-----o-o-----|o---------------|o-o-----|o---------------|
    1e&a2e&a3e&a4e&a 1e&a2e&a3e&a4e&a 1e&a2e&a 1e&a2e&a3e&a4e&a


                                     |---2/4--|-----4/4--------|
 C |----X-------X---|----------------|----x---|----------------|
 H |x-x---x-x-x---x-|x-x-x-x-x-x-x-x-|x-x---x-|x-x-x-x-x-x-x-x-| 
 S |----o-------o---|----------------|----o---|----------------|   
 T1|----------------|--o-------------|--------|--o-------------|
 T2|----------------|--------o-------|--------|--------o-------| 
 T3|----------------|------------o---|--------|------------o---|
 B |o-o-----o-o-----|o---------------|o-o-----|o---------------|
    1e&a2e&a3e&a4e&a 1e&a2e&a3e&a4e&a 1e&a2e&a 1e&a2e&a3e&a4e&a


                                     |---2/4--|
 C |----X-------X---|----------------|----x---|
 H |x-x---x-x-x---x-|x-x-x-x-x-x-x-x-|x-x---x-|
 S |----o-------o---|----------------|----o---|   
 T1|----------------|--o-------------|--------|
 T2|----------------|--------o-------|--------|
 T3|----------------|------------o---|--------|
 B |o-o-----o-o-----|o---------------|o-o-----|
    1e&a2e&a3e&a4e&a 1e&a2e&a3e&a4e&a 1e&a2e&a


 Chorus 4
                    
 C |X---------------|X---------------|X---------------|X---------------|
 H |----x-----------|----x-----------|----x-----------|----x-----------|
 S |------o-o-o-o---|o-----o-o-------|o-----o-o-------|o-----o-o-o-o---|
 T2|----------------|----------o-o---|----------------|----------------|
 T3|----------------|----------------|----------o-o---|----------------|
 B |o---------------|----------------|----------------|----------------|
    1e&a2e&a3e&a4e&a 1e&a2e&a3e&a4e&a 1e&a2e&a3e&a4e&a 1e&a2e&a3e&a4e&a

 C |X---------------|
 H |----x-----------|
 S |o-----o-o-o-o---|
 B |------------oooo|
    1e&a2e&a3e&a4e&a


 Outro

 C |----X-------X---|
 S |----o-------o---|
 B |o-o-----o-o-----|
    1e&a2e&a3e&a4e&a 


 C |X---------------|----------------|----------------|----------------|
 H |----x---x---x---|x---x---x---x---|x---x---x---x---|x---x---x---x---|
 S |----o-------o---|----o-------o---|----o-------o---|----o-------o---|
 B |o-------o-------|o-----o-o-------|o-------o-----o-|o-----o-o-------|
    1e&a2e&a3e&a4e&a 1e&a2e&a3e&a4e&a 1e&a2e&a3e&a4e&a 1e&a2e&a3e&a4e&a


 C |----------------|----------------|----------------|X---------------|
 H |x---x---x---x---|x---x---x---x---|x---x---x---x---|----x---x---x---|
 S |----o-------o---|----o-------o---|----o-------o---|----o-------o---|
 B |o-------o-----o-|o-------o-------|o-----o-o-----o-|o---------o---o-|
    1e&a2e&a3e&a4e&a 1e&a2e&a3e&a4e&a 1e&a2e&a3e&a4e&a 1e&a2e&a3e&a4e&a


 C |--------X-------|----------------|X---------------|--------X-------|
 H |x---x-------x---|x---x---x---x---|----x---x---x---|x---x-------x---|
 S |----o-------o---|----o-------o---|----o-------o---|----o-------o---|
 B |o-------o-------|--o---o-o-------|o---------o---o-|o-------o-------|
    1e&a2e&a3e&a4e&a 1e&a2e&a3e&a4e&a 1e&a2e&a3e&a4e&a 1e&a2e&a3e&a4e&a


 C |----------------|X---------------|--------X-------|----------------|
 H |x---x-----------|----x---x---x---|x---x-------x---|x---x---x---x---|
 S |----o---f-f-f---|----o-------o---|----o-------o---|----o-------o---|
 B |--o-------------|o---------o-----|o-o-----o-------|--o-----o-o-----|
    1e&a2e&a3e&a4e&a 1e&a2e&a3e&a4e&a 1e&a2e&a3e&a4e&a 1e&a2e&a3e&a4e&a


 C |X---------------|--------X-------|----------------|----------------|
 H |----x---x---x---|------------x---|x---x-----------|----------------|
 S |----o-------o---|f-f-f-------o---|----o---f-f-f---|----------------|
 B |o---------o-----|--------o-------|--o-------------|----------------|
    1e&a2e&a3e&a4e&a 1e&a2e&a3e&a4e&a 1e&a2e&a3e&a4e&a 1e&a2e&a3e&a4e&a

 S |f-f-f-----------|
    1e&a2e&a3e&a4e&a
 



comments
We did not receive enough feedback on this tab! Please rate:
print report bad tab
1 2 3 4 5
I want to post or [tab]
guest
You may want to rate the tab now too:
select rating
Please do not post tabs as comments. Select "correction" instead!