Oops, an error
Loading. Please wait.

And Justice For All Medley Tab

4,193 views 15 this week
1 commentread comment
1 2 3 4 5
excellent!
x 2
add to favorites launch autoscroll
font size
0
reset
Autoscroll
+/-
esc
set tempo
stop
WARNING: You are trying to view
                                    content from Ultimate-Guitar.com
                                    in an unauthorized application,
                                    which is prohibited.

                                    Please use an official Ultimate
                                    Guitar Tabs application for iPhone,
                                    iPad or Android to access legitimate
                                    chords, guitar, bass, and drum tabs
                                    from Ultimate-Guitar.com database.

                                    Type "ultimate guitar tabs" in Apple
                                    App Store's or Android Market's
                                    search to find the application.
                            AND JUSTICE FOR ALL MEDELY
                                  BY METALLICA
                       Preformed on Live Shit Binge and Purge

                                              12x
||-------------------------------------------------||--||----------------------
||-------------------------------------------------||--||----------------------
||*-----------------------------------------------*||--||*---------------------
||*--------------------------------------------9--*||--||*---------------------
||---------------------------------------------7---||--||----------------------
||---0--0--0--0--0--0--0--0--0-----0-----0--0--0---||--||---0--0--0--0--0------
                                                                               

                                                                       4x
------------------------------|------------------------------------------------
------------------------------|------------------------------------------------
------------------------------|------------------------------------------------
------------------------------|------------------------------------------------
------------------------------|------------------------------------------------
0--0--0--3-----3-----3--3--3--|--2--2--2--2--2--2--2--2--2-----2-----2--2------
                                                                               

                                                                               
----||--||-------------------------------------------||--||--------------------
----||--||-------------------------------------------||--||--------------------
---*||--||*-----------------------------------------*||--||*-------------------
---*||--||*-----------------------------------------*||--||*-------------------
----||--||-------------------------------------------||--||--------------------
2---||--||---0--0--0-----0--0--0-----0--0--0--0--0---||--||---0--0--0-----0----
                                                                               

                                                                               
----------------------||----------------------------------------|--||----------
----------------------||----------------------------------------|--||----------
---------------------*||----------------------------------------|--||*---------
---------9--9--9--8--*||--------------------8h9p8---------------|--||*---------
---------7--7--7--7---||------------------------------7h8p7-----|--||----------
---0------------------||--0--0--0-----0--0---------0---------0--|--||---0------
                                                                               

                                                                               
-------------------------------||----------------------------------------------
-------------------------------||----------------------------------------------
------------------------------*||----------------------------------------------
------------------9--9--9--8--*||-----------------------8h9p8------------------
------------------7--7--7--7---||---------------------------------7h8p7--------
0--0-----0--0------------------||--0--0--0-----0--0------------0---------0-----



|----------------------|-----------||--||
|----------------------|-----------||--||
|----------------------|-----------||--||
|----------------------|--2-----2--||--||
|----------------------|--2-----2--||--||
|--6h7p6--0--2h3p2--0--|--0-----0--||--||



"Opposition, contradiction" etc.     Tempo=128
Rhy. Fig. 3
E|------------------------------------------------------|
B|*-----------------------------------------------------|
G|*---------------------------------------------------8-|
D|-------2-------------3-2----------------2-----------8-|
A|---0-1-----------0-1----------------0-1-------------6-|
E|-0-------0-0-0-0---------0-0-0-0--0-------0-0-0-0-6---|

E|------------------------------------------------------| (End Fig. 3) 
B|-----------------------------------------------------*|
G|--------------------3------------------------------8-*|
D|-------2---------2----2----------------2-----------8--|
A|---0-1-------------1---------------0-1-------------6--|
E|-0-------0-0-0-0--------0-0-0-0--0-------0-0-0-0-6----|



   P.M.......|     P.M...|     PM    PM..|       PM......|  PM...| 
E-|------------------------------------------------------------------------------------| 
B-|------------------------------------------------------------------------------------| 
G-|------------------------------------------------------------------------------------| 
D-|--------------3-----------3-----------------------------3--------3-x-x-3-3--3-3---3-| 
A-|--------------1-----------1------4--------3\2-----------1--------1-x-x-1-1--1-1---1-| 
E-|--0--0--0--0------0----0------0--2--0--0--1\0--0--0--0----0---0---------------------| 
   P.M.......|     P.M...|     PM    PM..| 
E-|----------------------------------------------| 
B-|----------------------------------------------| 
G-|----------------------------------------------| 
D-|--------------3-----------3-------------------| 
A-|--------------1-----------1------4--------3---| 
E-|--0--0--0--0------0----0------0--2--0--0--1---| 
  
Verses Riff1 
    P.M......|     P.M.|    P.M.|    P.M..|  P.M..|           BEND 
E-|--------------------------------------------------------------------| 
B-|--------------------------------------------------------------------| 
G-|--------------------------------------------------------------------| 
D-|--2----------2-----------------------------------------------/\-----| 
A-|--2----------2---------7--------7--------7---------7--------/--\----| 
E-|--0--0---0-------0--0--6--0--0--6--0--0--5-0---0---5--0--0-2----2---| 
    NEVER HUNGER NEVER PROSPER I HAVE FALLEN PREY  TO  FAILURE_______ 

    P.M.......|  P.M...|   P.M   P.M..|      P.M.........|   P.M.|  P.M  P.M.| 
E-|------------------------------------------------------------------------------| 
B-|------------------------------------------------------------------------------| 
G-|------------------------------------------------------------------------------| 
D-|-------------3---------3--------------------------------3-------1-------------| 
A-|-------------1---------1-----4--------3\2---------------1-------3----2-------3| 
E-|-0--0--0--0-----0---0-----0--2--0--0--1-0---0--0--0--0-----0--0---0--4-0--0--1| 

    P.M......|     P.M.|    P.M.|    P.M..|  P.M..|           BEND 
E-|---------------------------------------------------------------------------| 
B-|---------------------------------------------------------------------------| 
G-|---------------------------------------------------------------------------| 
D-|--2----------2-----------------------------------------------/\------------| 
A-|--2----------2---------7--------7--------7---------7--------/--\-----------| 
E-|--0--0---0-------0--0--6--0--0--6--0--0--5-0---0---5--0--0-2----2----------| 
   STRUGGLE WITHIN TRIGGERED AGAIN NOW THE CANDLE BURNS AT BOTH ENDS 

   P.M.......|     P.M...|     PM    PM..|   (Let ring)
E-|----------------------------------------------| 
B-|----------------------------------------------| 
G-|----------------------------------------------| 
D-|--------------3-----------3-------------------| 
A-|--------------1-----------1------4--------3---| 
E-|--0--0--0--0------0----0------0--2--0--0--1---| 


 Riff 3: (x 4)
|------------------------------------------------|
|------------------------------------------------|
|-.-.----.-.------------------.-.----------------|
|-8-8-7--8-8-7---------------8-8-7---------------|
|-8-8-7--8-8-7----5h7-7-5----8-8-7----5h7-7-5----|
|-6-6-5--6-6-5--0---------7--6-6-5--0---------7--|

 Riff 4:
|-------------------------|-----------|-----------|-----------|
|-------------------------|-----------|-----------|-----------|
|-.-.----.-.--------------|-2---------|-----------|-2---------|
|-8-8-7--8-8-7--2---------|-2---------|-2---------|-2---------|
|-8-8-7--8-8-7--2---------|-0---------|-2---------|-0---------|
|-6-6-5--6-6-5--0---------|-----------|-0---------|-----------|

Riff 3: (x 2)
|------------------------------------------------|
|------------------------------------------------|
|-.-.----.-.------------------.-.----------------|
|-8-8-7--8-8-7---------------8-8-7---------------|
|-8-8-7--8-8-7----5h7-7-5----8-8-7----5h7-7-5----|
|-6-6-5--6-6-5--0---------7--6-6-5--0---------7--|



 Riff 5:
|-------------------------------------------------|
|-------------------------------------------------|
|-.-.----.-.------.----.--------------.----.------|
|-8-8-7--5-5-4----2--x-2-2-------3----2--x-2--2---|
|-8-8-7--5-5-4--.-2--x-2-2---.-.-3--.-2--x-2--2---|
|-6-6-5--3-3-2--0-0--x-0-0---0-0-1--0-0--x-0--0---|

|---------------------------------------------------------------|
|---------------------------------------------------------------|
|-.-.----.-.------.----.--------------.----.------.-.----.-.----|
|-8-8-7--8-8-7----2--x-2-2-------3----2--x-2--2---8-8-7--8-8-8\-|
|-8-8-7--8-8-7--.-2--x-2-2---.-.-3--.-2--x-2--2---8-8-7--8-8-8\-|
|-6-6-5--6-6-5--0-0--x-0-0---0-0-1--0-0--x-0--0---6-6-5--6-6-6\-|

Verse 1
=======

 Riff 6: (x 4)
|-------------------------------------------------|
|-------------------------------------------------|
|--------.-------------------.------.-.----.-.----|
|---2--x-2-2-------3----2--x-2--2---8-8-7--8-8-7--|
|-.-2--x-2-2---.-.-3--.-2--x-2--2---8-8-7--8-8-7--|
|-0-0--x-0-0---0-0-1--0-0--x-0--0---6-6-5--6-6-5--|

 Fill 1: ??
|-----------------------------|
|-----------------------------|
|-----------------------------|
|-----------------------------|
|-----------------------------|
|-----------------------------|

 Riff 7:                  (x 3)
|-------------------------------|------------------------------------|
|-------------------------------|------------------------------------|
|.-----------------------------.|--------------0h5h7-----------------|
|.-3-------------4\3---4/5-4/5-.|-3-----------------0h5h7------------|
|--3-------------4\3---4/5-4/5--|-3----------------------0h5h7-0h2h3-|
|--1-1-1-1-1-1-1-2\1-0-2/3-2/3--|-1-1-1-1-1-1-1----------------------|

                          (x 3)
|-------------------------------|------------------------------------|
|-------------------------------|------------------------------------|
|.-----------------------------.|--------------0h5h7-----------------|
|.-3-------------4\3---4/5-4/5-.|-3-----------------0h5h7------------|
|--3-------------4\3---4/5-4/5--|-3----------------------0h5h7-0h2h3-|
|--1-1-1-1-1-1-1-2\1-0-2/3-2/3--|-1-1-1-1-1-1-1----------------------|

|-------------------------------------------------------|
|-------------------------------------------------------|
|-0h5h7-------------------------------------------------|
|------0h5h7------------4-2--------------4\3---4/5-4/5--|
|-----------0h5h7-0h2h3-4-2--------------4\3---4/5-4/5--|
|-----------------------2-0--0-0-0-0-0-0-2\1-0-2/3-2/3--|

Chorus
======

 Riff 8:
|-------------------------------------------------|
|-------------------------------------------------|
|--2----4----5------------------------------------|
|--2----4----5----4-2--------------4\3---4/5-4/5--|
|--0----2----3----4-2--------------4\3---4/5-4/5--|
|-----------------2-0--0-0-0-0-0-0-2\1-0-2/3-2/3--|

|------------------------------------------|-------------------------|
|------------------------------------------|-------------------------|
|-2----4-----------------------------------|-2----4----0----5--------|
|-2----4----4-2--------------4\3---4/5-4/5-|-2----4----0----5----2---|
|-0----2----4-2--------------4\3---4/5-4/5-|-0----2---------3----2---|
|-----------2-0--0-0-0-0-0-0-2\1-0-2/3-2/3-|-----------3---------0---|



Riff 3: (x 2)
|------------------------------------------------|
|------------------------------------------------|
|-.-.----.-.------------------.-.----------------|
|-8-8-7--8-8-7---------------8-8-7---------------|
|-8-8-7--8-8-7----5h7-7-5----8-8-7----5h7-7-5----|
|-6-6-5--6-6-5--0---------7--6-6-5--0---------7--|
 


Riff 5:
|-------------------------------------------------|
|-------------------------------------------------|
|-.-.----.-.------.----.--------------.----.------|
|-8-8-7--5-5-4----2--x-2-2-------3----2--x-2--2---|
|-8-8-7--5-5-4--.-2--x-2-2---.-.-3--.-2--x-2--2---|
|-6-6-5--3-3-2--0-0--x-0-0---0-0-1--0-0--x-0--0---|

|---------------------------------------------------------------|
|---------------------------------------------------------------|
|-.-.----.-.------.----.--------------.----.------.-.----.-.----|
|-8-8-7--8-8-7----2--x-2-2-------3----2--x-2--2---8-8-7--8-8-8\-|
|-8-8-7--8-8-7--.-2--x-2-2---.-.-3--.-2--x-2--2---8-8-7--8-8-8\-|
|-6-6-5--6-6-5--0-0--x-0-0---0-0-1--0-0--x-0--0---6-6-5--6-6-6\-|



Verse 1
=======

 Riff 6: (x 4)
|-------------------------------------------------|
|-------------------------------------------------|
|--------.-------------------.------.-.----.-.----|
|---2--x-2-2-------3----2--x-2--2---8-8-7--8-8-7--|
|-.-2--x-2-2---.-.-3--.-2--x-2--2---8-8-7--8-8-7--|
|-0-0--x-0-0---0-0-1--0-0--x-0--0---6-6-5--6-6-5--|

 Fill 1: ??
|-----------------------------|
|-----------------------------|
|-----------------------------|
|-----------------------------|
|-----------------------------|
|-----------------------------|

 Riff 7:                  (x 3)
|-------------------------------|------------------------------------|
|-------------------------------|------------------------------------|
|.-----------------------------.|--------------0h5h7-----------------|
|.-3-------------4\3---4/5-4/5-.|-3-----------------0h5h7------------|
|--3-------------4\3---4/5-4/5--|-3----------------------0h5h7-0h2h3-|
|--1-1-1-1-1-1-1-2\1-0-2/3-2/3--|-1-1-1-1-1-1-1----------------------|

                          (x 3)
|-------------------------------|------------------------------------|
|-------------------------------|------------------------------------|
|.-----------------------------.|--------------0h5h7-----------------|
|.-3-------------4\3---4/5-4/5-.|-3-----------------0h5h7------------|
|--3-------------4\3---4/5-4/5--|-3----------------------0h5h7-0h2h3-|
|--1-1-1-1-1-1-1-2\1-0-2/3-2/3--|-1-1-1-1-1-1-1----------------------|

|-------------------------------------------------------|
|-------------------------------------------------------|
|-0h5h7-------------------------------------------------|
|------0h5h7------------4-2--------------4\3---4/5-4/5--|
|-----------0h5h7-0h2h3-4-2--------------4\3---4/5-4/5--|
|-----------------------2-0--0-0-0-0-0-0-2\1-0-2/3-2/3--|

Chorus
======

 Riff 8:
|-------------------------------------------------|
|-------------------------------------------------|
|--2----4----5------------------------------------|
|--2----4----5----4-2--------------4\3---4/5-4/5--|
|--0----2----3----4-2--------------4\3---4/5-4/5--|
|-----------------2-0--0-0-0-0-0-0-2\1-0-2/3-2/3--|

|------------------------------------------|-------------------------|
|------------------------------------------|-------------------------|
|-2----4-----------------------------------|-2----4----0----5--------|
|-2----4----4-2--------------4\3---4/5-4/5-|-2----4----0----5----2---|
|-0----2----4-2--------------4\3---4/5-4/5-|-0----2---------3----2---|
|-----------2-0--0-0-0-0-0-0-2\1-0-2/3-2/3-|-----------3---------0---|

Riff 3: (x 2)
|------------------------------------------------|
|------------------------------------------------|
|-.-.----.-.------------------.-.----------------|
|-8-8-7--8-8-7---------------8-8-7---------------|
|-8-8-7--8-8-7----5h7-7-5----8-8-7----5h7-7-5----|
|-6-6-5--6-6-5--0---------7--6-6-5--0---------7--|



Riff 1:
|------------------------------|--------------------------|
|-.----------------------------|--------------------------|
|-3----.-.----.-.-.----.-.-.-.-|-5-3-2---3-2-----2--------|
|-3----8-7----8-7-6----8-7-6-5-|-5-3-2-5-3-2-5-3-2-5-3-2--|
|-1----8-7----8-7-6----8-7-6-5-|-------5-----5-3---5-3-2--|
|------6-5----6-5-4----6-5-4-3-|--------------------------|

|---------------------------------|
|---------------------------------|
|--2------------------------------|
|--2--5--3--2----5-3-2---2--------|
|-----5--3--2----5-3-2-5-2-5-3-2--|
|----------------------5---5-3-2--|



Riff 2                                                         
|--------------------------------|-----------------------------------|
|--------------------------------|-----------------------------------|
|--------------------------------|.---------------------------------.|
|-2------------------------(2)---|.-(2)-------------------------(2)-.|
|-2------------------------(2)---|--(2)-------------------------(2)--|
|-0------------------------(0)---|--(0)-------------------------(0)--|



Starts off heavy with heavy distortion:


                                               Here you pull off with
                                        your fingers and tap the "T"
                                                notes with your pick

e:-------------------------------14-17b(19)r17--14-17p14-17p14-T19--|
B:16b(18)r16---------------14-17------------------------------------|
G:16b(18)r16p14~~----14-16------------------------------------------|
D:----------------16------------------------------------------------|
A:------------------------------------------------------------------|
E:------------------------------------------------------------------|





e:17p14-17p14-T20-17p14-17p14-T19-17p14-17p4----14-14---------------|
B:------------------------------------------17----17b(19)-------14--|
G:--------------------------------------------------------------14--|
D:-----------------------------------------------------------16-----|
A:------------------------------------------------------------------|
E:------------------------------------------------------------------|





e:------------------------------------------------------------------|
B:16b(17)-16b(17)--14h16-14-----16-14~~----14--16-16w(18)~~~~-------|
G:16b(17)-16b(17)--14----14-----16-14~~----14--16-16w(18)~~~~-------|
D:--------------------------16---------16---------------------------|
A:------------------------------------------------------------------|
E:------------------------------------------------------------------|



Swith on Wah and use as filter:

e:------------------------------------17p14--------------------------------------|
B:-------14--14h17p14---------1417p14--------17p14-------14----17p14-------------|
G:16b(18)--------------16b(18)---------------------16b(18)------------16-14----14|
D:--------------------------------------------------------------------------16---|
A:-------------------------------------------------------------------------------|
E:-------------------------------------------------------------------------------|





e:-------------------------------------------------------------------|
B:-----14h17--17b(19)r17p14-17b(19)r17p14-17b(19)r17p14-17b(19)r17p14|
G:-16----------------------------------------------------------------|
D:-------------------------------------------------------------------|
A:-------------------------------------------------------------------|
E:-------------------------------------------------------------------|



                    slow release here                      R   R   L R   R
e:---17b(20)~r17------------------------------------------T19-T19-17T19-T19-|
B:------------------------------------17b(19)~~~~---------------------------|
G:-------------------16b(18)rrrrrr16----------------------------------------|
D:--------------------------------------------------------------------------|
A:--------------------------------------------------------------------------|
E:--------------------------------------------------------------------------|


NOTE: I don't know how Kirk really does it, but here's how I think it goes.
      Constantly tap fret 19 with right finger or pick.
      Notations like "17T19" mean tap 19 and 17 at same time.
      When done correctly, the first note will sound with the release
      of the "19". Sound hard? Keep practicing it. It's really fast!


L= Left finger
R= Right finger or pick

        Numbers indicate finger: 2=index / 3=middle / 4=ring


   L R   R   L R   R   R   L R   R   L R   R   L R       R  L4 R  L3 R
e:15T19-T19-14T19-T19-T19-17T19-T19-15T19-T19-14T19-----T19-17T19-15T19|
B:---------------------------------------------------------------------|
G:---------------------------------------------------------------------|
D:---------------------------------------------------------------------|
A:---------------------------------------------------------------------|
E:---------------------------------------------------------------------|


                        slide index to fret 12

   L2 R   L4 R  L3 R  L2 R /L2 R   L4 R  L3 R  L2 R
e:-14T19--17T19-15T19-14T19-12T19--15T19-14T19-12T19----------------|
B:-------------------------------------------------------15-15p13p12|
G:------------------------------------------------------------------|
D:------------------------------------------------------------------|
A:------------------------------------------------------------------|
E:------------------------------------------------------------------|


                                                    
                              slow whammy dive

:----------------------------22wwwwwwwwwwwww2~~~~~~~|
B:-15p13p12-15p13p12----------22wwwwwwwwwwwww2~~~~~~|
G:--------------------------------------------------|
D:--------------------------------------------------|
A:--------------------------------------------------|
E:--------------------------------------------------|


 PM    PM    PM           PM    PM        PM    PM    PM
e|----------------------------------------------------------------------------------
B|----------------------------------------------------------------------------------
G|----------------------------------------------------------------------------------
D|----------------------------------------8-----------------------------------------
A|------7-----7-----7---8--7-----7-----7-----7----7-----7-----7---8--7\-------------
E|---0-----0-----0------------0-----0----------0-----0-----0------------------------


   PM---------------|       PM---------------|
e|----------------------------------------------------------------------------------
B|----------------------------------------------------------------------------------
G|----------------------------------------------------------------------------------
D|----------------------------------------------------------------------------------
A|--5--5--5-----4--4---------5--5--5-----4--4---------------------------------------
E|--3--3--3--0--2--2---------3--3--3--0--2--2---------------------------------------






 PM---|      PM---|    PM---|                 PM---|       PM---|
e|----------------------------------------------------------------------------------
B|----------------------------------------------------------------------------------
G|---9------------------------------------------------------------------------------
D|---9--------------7----------5----------------------------------------------------
A|---7-------7--7---5---5--5---3---5--5-----4-------------5-5-5--------5-5-5--------
E|-----------5--5-------3--3-------3--3-----2-------------3-3-3--------3-3-3--------

     Fire!   to begin whipping dance of the deaaad        blackened    is the


           PM---|      PM--------------|               PM---------------|
e|----------------------------------------------------------------------------------
B|----------------------------------------------------------------------------------
G|----------------------------------------------------------------------------------
D|---2--------------7----------5--5-------------------------------------------------
A|---2-------7--7---5---5--5---3--3---5---4-------------5--5--5-----4--4------------
E|---0-------5--5-------3--3----------3---2-------------3--3--3--0--2--2------------

     End!


Enjoy!!!!

Comments/corrections or death threats to: MetalGuitaristX@yahoo.com(Jarred Sanchez) 
comments
We did not receive enough feedback on this tab! Please rate:
print report bad tab
1 2 3 4 5
1 comment total.
0 reply
brett dixon wrote on October 21 2007, 07:52 pm

nice, great tab! and great idea for a song...

I want to post or [tab]
guest
You may want to rate the tab now too:
select rating
Please do not post tabs as comments. Select "correction" instead!