Oops, an error
Loading. Please wait.

And Justice For All Tab

ver2
ver2
More versions @911Tabs.com
470,859 views 977 this week
64 commentsread comments
1 2 3 4 5
excellent!
x 128
Autoscroll
+/-
esc
set tempo
stop
Hey! There's an official Ultimate Guitar app which is ideal
for learning songs when you're away from computer. Get the app
WARNING: You are trying to view
                                    content from Ultimate-Guitar.com
                                    in an unauthorized application,
                                    which is prohibited.

                                    Please use an official Ultimate
                                    Guitar Tabs application for iPhone,
                                    iPad or Android to access legitimate
                                    chords, guitar, bass, and drum tabs
                                    from Ultimate-Guitar.com database.

                                    Type "ultimate guitar tabs" in Apple
                                    App Store's or Android Market's
                                    search to find the application.
Song: ...And justice for all   |
Artist: Metallica              |
Album: ...And justice for all  |
_______________________________|

 Tunning: standard(e,B,G,D,A,E)

 h= hammer-on
 p= pull-off
 p.m.= palm muted(sometimes it will only be a dot)
 s= slide
 b= bend
 r= release bend
 ()= ghost note
 ~= let ring
 x= dead notes

 notes: When 2 bars are connected like this |\ it mean that there's two guitar.
                                            ||
                                            ||  
                                            ||
                                            ||
                                            |/




 Intro (gtr.1)     
e|-------------------------------------------------------------------------|\
B|-------------------------------------------------------------------------||
G|---------------------------------------------------------------------2---||
D|-6-7-9----7-6h7p6-4-5-5-4-7-4-2-3-5----3-2h3p2-0-2-2-0-2-0-0-2-2-0-2---3-||
A|-7-----7-(7)------5-----5---5-3-----3-(3)------2-----2---2-1-----1-------||
E|-0-----------------------------------------------------------------------||
                                                                           ||
 (gtr.2)                                                                   ||
e|-------------------------------------------------------------------------||
B|-------------------------------------------------------------------------||
G|---------------------------------------------------------------------2---||
D|-6~---------------4~----4---4-2~---------------0-----0---0-0-----0-------||
A|-7~---------------5~----5---5-3~---------------2-----2---2-1-----1-----1-||
E|-0~----------------------------------------------------------------------|/

 (gtr.1)
e|-------------------------------------------------------------------------|\
B|-------------------------------------------------------------------------||
G|---------------------------------------------------------------------2---||
D|-6-7-9----7-6h7p6-4-5-5-4-7-4-2-3-5----3-2h3p2-0-2-2-0-2-0-0-2-2-0-2---3-||
A|-7-----7-(7)------5-----5---5-3-----3-(3)------2-----2---2-1-----1-------||
E|-0-----------------------------------------------------------------------||
                                                                           ||
 (gtr.2)                                                                   ||
e|-------------------------------------------------------------------------||
B|-------------------------------------------------------------------------||
G|---------------------------------------------------------------------2---||
D|-6~---------------4~----4---4-2~---------------0-----0---0-0-----0-------||
A|-7~---------------5~----5---5-3~---------------2-----2---2-1-----1-----1-||
E|-0~----------------------------------------------------------------------|/

 (gtr.1)
e|-------------------------------------------------------------------------|\
B|-------------------------------------------------------------------------||
G|---------------------------------------------------------------------2---||
D|-6-7-9----7-6h7p6-4-5-5-4-7-4-2-3-5----3-2h3p2-0-2-2-0-2-0-0-2-2-0-2---3-||
A|-7-----7-(7)------5-----5---5-3-----3-(3)------2-2-2-2-2-2-1-1-1-1-1-----||
E|-0-----------------------------------------------------------------------||
                                                 p.m..................     ||
 (gtr.2)                                                                   ||
e|-------------------------------------------------------------------------||
B|-------------------------------------------------------------------------||
G|-------9~~--------------7h9p7-------5~~~--4--------------------------2---||
D|-6-7-9------------4-5-7-------2-3-5------------0-2-2-0-2-0-0-2-2-0-2-----||
A|-----------------------------------------------2-2-2-2-2-2-1-1-1-1-1---1-||
E|-------------------------------------------------------------------------|/
                                                 p.m..................

 (gtr.1)
e|-------------------------------------------------------------------------|\
B|-------------------------------------------------------------------------||
G|---------------------------------------------------------------------2---||
D|-6-7-9----7-6h7p6-4-5-5-4-7-4-2-3-5----3-2h3p2-0-2-2-0-2-0-0-2-2-0-2---3-||
A|-7-----7-(7)------5-----5---5-3-----3-(3)------2-2-2-2-2-2-1-1-1-1-1-----||
E|-0-----------------------------------------------------------------------||
                                                 p.m..................     ||
 (gtr.2)                                                                   ||
e|-------------------------------------------------------------------------||
B|-------------------------------------------------------------------------||
G|-------9~~--------------7h9p7-------5~~~--4--------------------------2---||
D|-6-7-9------------4-5-7-------2-3-5------------0-2-2-0-2-0-0-2-2-0-2-----||
A|-----------------------------------------------2-2-2-2-2-2-1-1-1-1-1---1-||
E|-------------------------------------------------------------------------|/
                                                 p.m..................

 (gtr.1 and 2)
e|-------------------------------------------------------------------------||
B|-------------------------------------------------------------------------||
G|---------------------------------------------------------------2---------||
D|-6-7-9~-6h7p6-4-5-5-4-4-7-4-2-3-5~-2h3p2-0-2-2-0-2-0-0-2-2-0-2---3-------||
A|-7------------5-----5-5-----3------------2-2-2-2-2-2-1-1-1-1-1---1-------||
E|-0-----------------------------------------------------------------------||
                      p.m                  p.m..................     

e|-------------------------------------------------------------------------||
B|-------------------------------------------------------------------------||
G|------------------------------3-2-0---2-0-----0--------------------------||
D|-8---8-7---8-7-6---8-7-6-5----3-2-0-3-2-0-3-2-0-3-2-0-3-2-----3--2--0----||
A|-8---8-7---8-7-6---8-7-6-5----------3-----3-2---3-2-0-3-2-----3--2--0--3-||
E|-6---6-5---6-5-4---6-5-4-3---------------------------------------------3-||
       .     p.m     p.m..  

e|---------------------------||
B|---------------------------||
G|---------------------------||
D|--2-0-----0--------2~~~----||
A|--2-0-3-2-0-3-2-0--2~~~----||
E|------3-2---3-2-0--0~~~----||
    p.m............

                                               X4
e|---------------------------------------------||
B|---------------------------------------------||
G|---------------------------------------------||
D|-8-8-7--8-8-7------------8-8-7---------------||
A|-8-8-7--8-8-7--5h7-7-5---8-8-7--5h7-7-5------||
E|-6-6-5--6-6-5----------7-6-6-5----------7----||
   p.m    p.m              p.m
 (gtr.1)                                                                
e|------------||--------------------------------------------------------||
B|------------||10b12-10b12r10-8-7-5---10b12-10b12r10-8-7---7h8---8-----||
G|------------||---------------------7--------------------7-----9-------||
D|-8-8-7-8-8-7||--------------------------------------------------------||
A|-8-8-7-8-8-7||--------------------------------------------------------||
E|-6-6-5-6-6-5||--------------------------------------------------------||
   p.m   p.m

e|-----------------------------------------------------||
B|-10b12-10b12r10-8-7-5-----10b12-10b12r10-8-7-5-------||
G|----------------------7------------------------7-5---||
D|-----------------------------------------------------||
A|-----------------------------------------------------||
E|-----------------------------------------------------||
                              
 (*I couldn't figure the second guitar*)

e|------------------------------------------------------------------------------||
B|------------------------------------------------------------------------------||
G|------------------------------------------------------------------------------||
D|-----------8-8-7------------8-8-7-8-8-7-----------8-8-7-----------8-8-7-5-5-4-||
A|-5h7-7-5---8-8-7--5h7-7-5---8-8-7-8-8-7-5h7-7-5---8-8-7-5h7-7-5---8-8-7-5-5-4-||
E|---------7-6-6-5----------7-6-6-5-6-6-5---------7-6-6-5---------7-6-6-5-3-3-2-||
             p.m              p.m   p.m             p.m               p.m   p.m

                                                                                  X3
e|--------------------------------------------------------------------------------||
B|--------------------------------------------------------------------------------||
G|--------------------------------------------------------------------------------||
D|---2-x-2-2-----3----2-x-2-2--8-8-7-8-8-7---2-x-2-2-----3---2-x-2-2--8-8-7-8-8-8-||
A|---2-x-2-2-----3----2-x-2-2--8-8-7-8-8-7---2-x-2-2-----3---2-x-2-2--8-8-7-8-8-8-||
E|-0-0-x-0-0-0-0-1--0-0-x-0-0--6-6-5-6-6-5-0-0-x-0-0-0-0-1-0-0-x-0-0--6-6-5-6-6-6-||
   .         p.m    .          p.m   p.m   .         p.m   .          p.m   p.m

e|-----------------||
B|-----------------||
G|-----------------||
D|-----------------||
A|---7-7-7---5-5-5-||
E|-0-0-0-0-0-3-3-3-||
   p.m............

 Pre-Chorus:

e|----------------------------------------------------------------------------------------||
B|*---------------------------------------------------------------------------------------||
G|----------------------------------------------------------------------------------------||
D|--4--------------5s4-2-4s5-4s5-4-------------5s4-2-4s5-4s5-4--------------5s4-2-4s5-5s7-||
A|*-4--4-4-4-4-4-4-5s4-2-4s5-4s5-4-4-4-4-4-4-4-5s4-2-4s5-4s5-4--4-4-4-4-4-4-5s4-2-4s5-5s7-||
E|--2--2-2-2-2-2-2-3s2-0-2s3-2s3-2-2-2-2-2-2-2-3s2-0-2s3-2s3-2--2-2-2-2-2-2-3s2-0-2s3-3s5-||
       p.m........                 p.m........                  p.m........              

e|-------------------------------------------|--------------------------||
B|-----------------------------------------*-|--------------------------||
G|-----------------0h5h7---------------------|--0h5h7-------------------||
D|-4---------------------0h5h7---------------|--------0h5h7-------------||
A|-4--4-4-4-4-4-4--------------0h5h7-0h2h3-*-|--------------0h5h7-0h2h3-||
E|-2--2-2-2-2-2-2----------------------------|--------------------------||
      p.m........

e|------------------------------||
B|------------------------------||
G|------------------------------||
D|-2---------------3-2-0-3-(3)3-||
A|-2--2-2-2-2-2-2--3-2-0-3-(3)3-||
E|-0--0-0-0-0-0-0---------------||
      p.m........

 Chorus:

e|-----------------------------------------------------------||
B|-----------------------------------------------------------||
G|-2~---4~----5~---------------------------------------------||
D|-2~---4~----5~----------3--2---------------3-2-0-3-(3)3----||
A|-0~---2~----3~--(3)p0---3--2--2-2-2-2-2-2--3-2-0-3-(3)3----||
E|------------------------1--0--0-0-0-0-0-0------------------||
                                p.m........

e|------------------------------------------------||
B|------------------------------------------------||
G|-2~---4~----------------------------------------||
D|-2~---4~---------3--2--------------3-2-0-3-(3)3-||
A|-0~---2~--(2)p0--3--2--2-2-2-2-2-2-3-2-0-3-(3)3-||
E|-----------------1--0--0-0-0-0-0-0--------------||
                         p.m........

                                                                            X2
e|------------------------------|-------------------------------------------||
B|------------------------------|*-----------------------------------------*||
G|-2~---4~--------5~------------|-------------------------------------------||
D|-2~---4~---5~---5~---3~-(3)s8-|--8-8-7-8-8-7------------8-8-7-------------||
A|-0~---2~---5~---3~---3~-(3)s8-|*-8-8-7-8-8-7--5h7-7-5---8-8-7--5h7-7-5---*||
E|-----------3~--------1~-(1)s6-|--6-6-5-6-6-5----------7-6-6-5----------7--||
                                   p.m   p.m              p.m  

e|-------------||
B|-------------||
G|-------------||
D|-8-8-7-5-5-4-||
A|-8-8-7-5-5-4-||
E|-6-6-5-3-3-2-||
   p.m   p.m

                                                                                  X3
e|--------------------------------------------------------------------------------||
B|--------------------------------------------------------------------------------||
G|--------------------------------------------------------------------------------||
D|---2-x-2-2-----3----2-x-2-2--8-8-7-8-8-7---2-x-2-2-----3---2-x-2-2--8-8-7-8-8-8-||
A|---2-x-2-2-----3----2-x-2-2--8-8-7-8-8-7---2-x-2-2-----3---2-x-2-2--8-8-7-8-8-8-||
E|-0-0-x-0-0-0-0-1--0-0-x-0-0--6-6-5-6-6-5-0-0-x-0-0-0-0-1-0-0-x-0-0--6-6-5-6-6-6-||
   .         p.m    .          p.m   p.m   .         p.m   .          p.m   p.m


e|-----------------||
B|-----------------||
G|-----------------||
D|-----------------||
A|---7-7-7---5-5-5-||
E|-0-0-0-0-0-3-3-3-||
   p.m............

 Pre-Chorus:

e|----------------------------------------------------------------------------------------||
B|*---------------------------------------------------------------------------------------||
G|----------------------------------------------------------------------------------------||
D|--4--------------5s4-2-4s5-4s5-4-------------5s4-2-4s5-4s5-4--------------5s4-2-4s5-5s7-||
A|*-4--4-4-4-4-4-4-5s4-2-4s5-4s5-4-4-4-4-4-4-4-5s4-2-4s5-4s5-4--4-4-4-4-4-4-5s4-2-4s5-5s7-||
E|--2--2-2-2-2-2-2-3s2-0-2s3-2s3-2-2-2-2-2-2-2-3s2-0-2s3-2s3-2--2-2-2-2-2-2-3s2-0-2s3-3s5-||
       p.m........                 p.m........                  p.m........              

e|-------------------------------------------|--------------------------||
B|-----------------------------------------*-|--------------------------||
G|-----------------0h5h7---------------------|--0h5h7-------------------||
D|-4---------------------0h5h7---------------|--------0h5h7-------------||
A|-4--4-4-4-4-4-4--------------0h5h7-0h2h3-*-|--------------0h5h7-0h2h3-||
E|-2--2-2-2-2-2-2----------------------------|--------------------------||
      p.m........

e|------------------------------||
B|------------------------------||
G|------------------------------||
D|-2---------------3-2-0-3-(3)3-||
A|-2--2-2-2-2-2-2--3-2-0-3-(3)3-||
E|-0--0-0-0-0-0-0---------------||
      p.m........

 Chorus:

e|-----------------------------------------------------------||
B|-----------------------------------------------------------||
G|-2~---4~----5~---------------------------------------------||
D|-2~---4~----5~----------3--2---------------3-2-0-3-(3)3----||
A|-0~---2~----3~--(3)p0---3--2--2-2-2-2-2-2--3-2-0-3-(3)3----||
E|------------------------1--0--0-0-0-0-0-0------------------||
                                p.m........

e|------------------------------------------------||
B|------------------------------------------------||
G|-2~---4~----------------------------------------||
D|-2~---4~---------3--2--------------3-2-0-3-(3)3-||
A|-0~---2~--(2)p0--3--2--2-2-2-2-2-2-3-2-0-3-(3)3-||
E|-----------------1--0--0-0-0-0-0-0--------------||
                         p.m........

                                                                            X2
e|------------------------------|-------------------------------------------||
B|------------------------------|*-----------------------------------------*||
G|-2~---4~--------5~------------|-------------------------------------------||
D|-2~---4~---5~---5~---3~-(3)s8-|--8-8-7-8-8-7------------8-8-7-------------||
A|-0~---2~---5~---3~---3~-(3)s8-|*-8-8-7-8-8-7--5h7-7-5---8-8-7--5h7-7-5---*||
E|-----------3~--------1~-(1)s6-|--6-6-5-6-6-5----------7-6-6-5----------7--||
                                   p.m   p.m              p.m  

e|-------------------------------------------------------------------------||
B|-------------------------------------------------------------------------||
G|------------------------------3-2-0---2-0-----0--------------------------||
D|-8---8-7---8-7-6---8-7-6-5----3-2-0-3-2-0-3-2-0-3-2-0-3-2-----3--2--0----||
A|-8---8-7---8-7-6---8-7-6-5----------3-----3-2---3-2-0-3-2-----3--2--0--3-||
E|-6---6-5---6-5-4---6-5-4-3---------------------------------------------3-||
       .     p.m     p.m..  

e|---------------------------||
B|---------------------------||
G|---------------------------||
D|--2-0-----0--------2~~~----||
A|--2-0-3-2-0-3-2-0--2~~~----||
E|------3-2---3-2-0--0~~~----||
    p.m............

e|-------------------------||
B|-------------------------||
G|-------------------0h5h7-||
D|-------------0h5h7-------||
A|-0h2h3-0h5h7-------------||
E|-------------------------||

 Pre-Solo backing riff(pre-Chorus).....see at the end for solo
e|----------------------------------------------------------------------------------------||
B|*---------------------------------------------------------------------------------------||
G|----------------------------------------------------------------------------------------||
D|--4--------------5s4-2-4s5-4s5-4-------------5s4-2-4s5-4s5-4--------------5s4-2-4s5-5s7-||
A|*-4--4-4-4-4-4-4-5s4-2-4s5-4s5-4-4-4-4-4-4-4-5s4-2-4s5-4s5-4--4-4-4-4-4-4-5s4-2-4s5-5s7-||
E|--2--2-2-2-2-2-2-3s2-0-2s3-2s3-2-2-2-2-2-2-2-3s2-0-2s3-2s3-2--2-2-2-2-2-2-3s2-0-2s3-3s5-||
       p.m........                 p.m........                  p.m........              

e|-------------------------------------------|--------------------------||
B|-----------------------------------------*-|--------------------------||
G|-----------------0h5h7---------------------|--0h5h7-------------------||
D|-4---------------------0h5h7---------------|--------0h5h7-------------||
A|-4--4-4-4-4-4-4--------------0h5h7-0h2h3-*-|--------------0h5h7-0h2h3-||
E|-2--2-2-2-2-2-2----------------------------|--------------------------||
      p.m........

e|-------------||
B|-------------||
G|-5-5-4-5-5-4-||
D|-5-5-4-5-5-4-||
A|-3-3-2-3-3-2-||
E|-------------||
   p.m   p.m

 Solo backing riff:                                                             X2
e|------------------------------------------------------------------------------||
B|------------------------------------------------------------------------------||
G|------------------------------------------------------------------5-5-4-5-5-4-||
D|---4----4-4---4-5----4----4-4---4-5----4----4-4---4-5----4---4-4--5-5-4-5-5-4-||
A|---4----4-4---4-5----4----4-4---4-5----4----4-4---4-5----4---4-4--3-3-2-3-3-2-||
E|-0-2--0-2-2-0-2-3--0-2--0-2-2-0-2-3--0-2--0-2-2-0-2-3--0-2-0-2-2--------------||
   .    .     p.m    .    .     p.m    .    .     p.m    .   ,      p.m   p.m

e|---------------------------------||
B|---------------------------------||
G|---------------------------------||
D|---9-9-9-----------9-9-9---------||
A|---7-7-7---5-5-5---7-7-7---5-5-5-||
E|-0-0-0-0-0-3-3-3-0-0-0-0-0-3-3-3-||
   p.m............................

                                                                                  X2
e|--------------------------------------------------------------------------------||
B|--------------------------------------------------------------------------------||
G|--------------------------------------------------------------------------------||
D|---2-x-2-2-----3----2-x-2-2--8-8-7-8-8-7---2-x-2-2-----3---2-x-2-2--8-8-7-8-8-8-||
A|---2-x-2-2-----3----2-x-2-2--8-8-7-8-8-7---2-x-2-2-----3---2-x-2-2--8-8-7-8-8-8-||
E|-0-0-x-0-0-0-0-1--0-0-x-0-0--6-6-5-6-6-5-0-0-x-0-0-0-0-1-0-0-x-0-0--6-6-5-6-6-6-||
   .         p.m    .          p.m   p.m   .         p.m   .          p.m   p.m

e|-------------------------------------------------||
B|-------------------------------------------------||
G|-------------------------------------------------||
D--7-7-5-7-7-5-5-5-4-5-5-4-4-4-4-4-4-4-3-3-3-3-3-3-||
A|-7-7-5-7-7-5-5-5-4-5-5-4-4-4-4-4-4-4-3-3-3-3-3-3-||
E|-5-5-3-5-5-3-3-3-2-3-3-2-2-2-2-2-2-2-1-1-1-1-1-1-||
   p.m   p.m   p.m   p.m   p.m   p.m     p.m......

e|------------------------------------------------------------------||
B|------------------------------------------------------------------||
G|--------------------------------------------------------------2---||
D|-6-7-9--6h7p6-4-5-5-4-7-4--2-3-5--2h3p2-0-2-2-0-2-0-0-2-2-0-2---3-||
A|-7------------5-----5---5--3------------2-2-2-2-2-2-1-1-1-1-1---1-||
E|------------------------------------------------------------------||
                p.m.............          .....................

 (gtr.1)
e|------------------------------------------------------------------|\
B|------------------------------------------------------------------||
G|--------------------------------------------------------------2---||
D|-6-7-9--6h7p6-4-5-5-4-7-4--2-3-5--2h3p2-0-2-2-0-2-0-0-2-2-0-2---3-||
A|-7------------5-----5---5--3------------2-2-2-2-2-2-1-1-1-1-1---1-||
E|------------------------------------------------------------------||
                p.m.............          .....................     ||
                                                                    ||
 (gtr.2)                                                            ||
e|------------------------------------------------------------------||
B|------------------------------------------------------------------||
G|--------------------------------------------------------------2---||
D|-6-7-9--6h7p6-4-5-5-4-7-4--2-3-5--2h3p2-0-2-2-0-2-0-0-2-2-0-2---3-||
A|----------------------------------------2-2-2-2-2-2-1-1-1-1-1---1-||
E|------------------------------------------------------------------|/
                                                .           .


 (gtr.1)
e|------------------------------------------------------------------|\
B|------------------------------------------------------------------||\
G|--------------------------------------------------------------2---|| \
D|-6-7-9--6h7p6-4-5-5-4-7-4--2-3-5--2h3p2-0-2-2-0-2-0-0-2-2-0-2---3-||  \
A|-7------------5-----5---5--3------------2-2-2-2-2-2-1-1-1-1-1---1-||   \
E|------------------------------------------------------------------||    \
                p.m.............          .....................     ||     \
                                                                    ||      |
 (gtr.2)                                                            ||      |
e|------------------------------------------------------------------||      | 
B|------------------------------------------------------------------||      | 
G|--------------------------------------------------------------2---||      |
D|-6-7-9--6h7p6-4-5-5-4-7-4--2-3-5--2h3p2-0-2-2-0-2-0-0-2-2-0-2---3-||      | X3
A|----------------------------------------2-2-2-2-2-2-1-1-1-1-1---1-||      |
E|------------------------------------------------------------------||      |
                                                .           .       ||      |
                                                                    ||      |
 (gtr.3)                                                            ||     /
e|------------------------------------------------------------------||    /
B|------------------------------------------------------------------||   /
G|-------9-----------7-7h9p7-------5-4--------2---2-------------2-3-||  /
D|-6-7-9-------4-5-7---------2-3-5--------0-2-2-0-2-0-0-2-2-0-2-----|| /
A|----------------------------------------2-2---2---2-1-1-1-1-1-----||/
E|------------------------------------------------------------------|/
                                          p..   .     . .   . 

e|------------------------------------------------------------------||
B|------------------------------------------------------------------||
G|-9-----9--7-----7--5-----5--4-----4--3-----3--3-----3--3-----3----||
D|-9-----9--7-----7--5-----5--4-----4--3-----3--3-----3--3-----3----||
A|-7-----7--5-----5--3-----3--2-----2--1-----1--1-----1--1-----1----||
E|-7-7-7-7--5-5-5-5--3-3-3-3--2-2-2-2--1-1-1-1--1-1-1-1--1-1-1-1----||
     p.m      p.m      p.m      p.m      p.m      p.m      p.m

e|------|--------------------------------------------|-----------------||
B|------|*------------------------------------------*|-----------------||
G|------|--------------------------------------------|-----------------||
D|-2~~~-|--8-8-7-8-8-7-------------8-8-7-------------|-8-8-7-5-5-4-----||
A|-2~~~-|*-8-8-7-8-8-7--5h7-7-5----8-8-7--5h7-7-5---*|-8-8-7-5-5-4-----||
E|-0~~~-|--6-6-5-6-6-5----------7--6-6-5----------7--|-6-6-5-3-3-2-----||
           p.m   p.m               p.m                 p.m   p.m


                                                                                  X2
e|--------------------------------------------------------------------------------||
B|--------------------------------------------------------------------------------||
G|--------------------------------------------------------------------------------||
D|---2-x-2-2-----3----2-x-2-2--8-8-7-8-8-7---2-x-2-2-----3---2-x-2-2--8-8-7-8-8-8-||
A|---2-x-2-2-----3----2-x-2-2--8-8-7-8-8-7---2-x-2-2-----3---2-x-2-2--8-8-7-8-8-8-||
E|-0-0-x-0-0-0-0-1--0-0-x-0-0--6-6-5-6-6-5-0-0-x-0-0-0-0-1-0-0-x-0-0--6-6-5-6-6-6-||
   .         p.m    .          p.m   p.m   .         p.m   .          p.m   p.m

e|---------------------------------||
B|---------------------------------||
G|---------------------------------||
D|---------------------------------||
A|---7-7-7---5-5-5---7-7-7---5-5-5-||
E|-0-0-0-0-0-3-3-3-0-0-0-0-0-3-3-3-||
   p.m............................

e|----------------------------------------------------------------------------------------||
B|*---------------------------------------------------------------------------------------||
G|----------------------------------------------------------------------------------------||
D|--4--------------5s4-2-4s5-4s5-4-------------5s4-2-4s5-4s5-4--------------5s4-2-4s5-5s7-||
A|*-4--4-4-4-4-4-4-5s4-2-4s5-4s5-4-4-4-4-4-4-4-5s4-2-4s5-4s5-4--4-4-4-4-4-4-5s4-2-4s5-5s7-||
E|--2--2-2-2-2-2-2-3s2-0-2s3-2s3-2-2-2-2-2-2-2-3s2-0-2s3-2s3-2--2-2-2-2-2-2-3s2-0-2s3-3s5-||
       p.m........                 p.m........                  p.m........              

e|-------------------------------------------|--------------------------||
B|-----------------------------------------*-|--------------------------||
G|-----------------0h5h7---------------------|--0h5h7-------------------||
D|-4---------------------0h5h7---------------|--------0h5h7-------------||
A|-4--4-4-4-4-4-4--------------0h5h7-0h2h3-*-|--------------0h5h7-0h2h3-||
E|-2--2-2-2-2-2-2----------------------------|--------------------------||
      p.m........

e|------------------------------||
B|------------------------------||
G|------------------------------||
D|-2---------------3-2-0-3-(3)3-||
A|-2--2-2-2-2-2-2--3-2-0-3-(3)3-||
E|-0--0-0-0-0-0-0---------------||
      p.m........
 
 Chorus:

e|-----------------------------------------------------------||
B|-----------------------------------------------------------||
G|-2~---4~----5~---------------------------------------------||
D|-2~---4~----5~----------3--2---------------3-2-0-3-(3)3----||
A|-0~---2~----3~--(3)p0---3--2--2-2-2-2-2-2--3-2-0-3-(3)3----||
E|------------------------1--0--0-0-0-0-0-0------------------||
                                p.m........

e|------------------------------------------------||
B|------------------------------------------------||
G|-2~---4~----------------------------------------||
D|-2~---4~---------3--2--------------3-2-0-3-(3)3-||
A|-0~---2~--(2)p0--3--2--2-2-2-2-2-2-3-2-0-3-(3)3-||
E|-----------------1--0--0-0-0-0-0-0--------------||
                         p.m........

                                                                                                  X2
e|------------------------------|-----------------------------------------------------------------||
B|------------------------------|*-------------10b12-10b12r10-8-7-5---10b12-10b12r12-8-7---7h8---*||
G|-2~---4~--------5~------------|-----------------------------------7--------------------7-----9--||
D|-2~---4~---5~---5~---3~-(3)s8-|--8-8-7-8-8-7----------------------------------------------------||
A|-0~---2~---5~---3~---3~-(3)s8-|*-8-8-7-8-8-7---------------------------------------------------*||
E|-----------3~--------1~-(1)s6-|--6-6-5-6-6-5----------------------------------------------------||
                                   p.m   p.m
 
e|--------------------------------------------------------------||
B|-10b12-10b12r10-8-7-5-----------------------------------------||
G|----------------------2~---4~---------5~----------------------||
D|----------------------2~---4~---5~----5~----3~----8-8-7-8-8-7-||
A|----------------------0~---2~---5~----3~----3~----8-8-7-8-8-7-||
E|--------------------------------3~----------1~----6-6-5-6-6-5-||
                                                    p.m   p.m

 (gtr.1)
e|---------------------------------------------------------------------------------------------------|\
B|-10b12-10b12r10-8-7-5---10b12-10b12r10-8-7-5---10b12-10b12r10-8-7-5---10b12-10b12r10-8-7-5---------||\
G|----------------------7----------------------7----------------------7----------------------7-------|| \
D|---------------------------------------------------------------------------------------------------||  |
A|---------------------------------------------------------------------------------------------------||  |
E|---------------------------------------------------------------------------------------------------||  |
                                                                                                     ||  |X2
 (gtr.2)                                                                                             ||  |
e|---------------------------------------------------------------------------------------------------||  |
B|---------------------------------------------------------------------------------------------------||  |
G|-9~---------------------7~---------------------5~---------------------4~---------------------------||  |
D|-9~---------------------7~---------------------5~---------------------4~---------------------5-4-2-|| /
A|-7~---------------------5~---------------------3~---------------------2~---------------------5-4-2-||/
E|-7~---------------------5~---------------------3~---------------------2~---------------------3-2-0-|/
                                                                                               p.m

 Outro:

e|---------------------------||
B|-10b12-10b12r10-8-7--------||
G|---------------------------||
D|--------------------5-4-2--||
A|--------------------5-4-2--||
E|--------------------3-2-0--||
                      p.m

_____________________________________________________________________________

 Pre-Solo
e|---------------------------------------------||
B|--------8-7----------------------------------||
G|-----9------9-7-5-4-4--4h5p4----4------------||
D|-s9--------------------------7-----7--3h5-2--||
A|---------------------------------------------||
E|---------------------------------------------||

e|---------------------------------------------||
B|--------8-7----------------------------------||
G|-----9------9-7-5-4-4-4h5p4------------------||
D|-s9-------------------------3s2--------------||
A|---------------------------------------------||
E|---------------------------------------------||

e|---------------------------------------------||
B|--------8-7--5h7p5s3-------s10-8-7h8p7-5-----||
G|-----9-------------------9-------------------||
D|-s9------------------s9----------------------||
A|---------------------------------------------||
E|---------------------------------------------||

e|---------------------------------------------||
B|--------s12--12p10p8-12p10p8-12p10p8-12p10p8-||
G|-----9---------------------------------------||
D|-s9------------------------------------------||
A|---------------------------------------------||
E|---------------------------------------------||

e|-----------------------------------------------------||
B|-10p9p7-10p9p7-10p9p7-10p9p7-9p7p5-9p7p5-9p7p5-9p7p5-||
G|-----------------------------------------------------||
D|-----------------------------------------------------||
A|-----------------------------------------------------||
E|-----------------------------------------------------||

 Sorry I Don't have the solo but everything is there 

 Enjoy 

 Lyrics:

 Halls of justice painted green
 Money talking
 Power wolves beset your door
 Hear them stalking
 Soon you'll please their appetite
 They devour
 Hammer of justice crushes you
 Overpower

 The ultimate in vanity
 Exploiting their supremacy
 I can't believe the things you say
 I can't believe, I can't believe the price you pay
 Nothing can save you

 Justice is lost
 Justice is raped
 Justice is gone
 Pulling your strings
 Justice is done
 Seeking no truth
 Winning is all
 Find it so grim, so true, so real

 Apathy their stepping stone
 So unfeeling
 Hidden deep animosity
 So deceiving
 Through your eyes their light burns
 Hoping to find
 Inquisition sinking you
 With prying minds

 The ultimate in vanity
 Exploiting their supremacy
 I can't believe the things you say
 I can't believe, I can't believe the price you pay
 Nothing can save you
 Justice is lost
 Justice is raped
 Justice is gone
 Pulling your strings
 Justice is done
 Seeking no truth
 Winning is all
 Find it so grim, so true, so real

 Lady Justice has been raped
 Truth assassin
 Rolls of red tape seal your lips
 Now you're done in

 Their money tips her scales again
 Make your deal
 Just what is truth, I cannot tell
 Cannot feel

 The ultimate in vanity
 Exploiting their supremacy
 I can't believe the things you say
 I can't believe, I can't believe the price we pay
 Nothing can save us

 Justice is lost
 Justice is raped
 Justice is gone
 Pulling your strings
 Justice is done
 Seeking no truth
 Winning is all
 Find it so grim, so true, so real

 Seeking no truth
 Winning is all
 Find it so grim, so true, so real
comments
print report bad tab
64 comments total. Showing first comments.
+11 reply
Devil boy wrote on January 29 2006, 12:29 pm

Damn. Well done!
You've obviously put in alot of
effort to get it all down. I probably
won't be able to play it, though.
But thanks for giving me the chance to try.

+11 reply
FearOfTheDark1 wrote on March 2 2006, 06:49 pm

very good job bro the tab was almost perfect. You must have took your time when tabbing it out. 2 thumbs up

+8 reply
darkenedmalice wrote on April 1 2006, 09:43 pm

great tab but i don't know if it was just me but it's kind of hard to read at the into

I want to post or [tab]
guest
You may want to rate the tab now too:
select rating
Please do not post tabs as comments. Select "correction" instead!