Oops, an error
Loading. Please wait.

Anesthesia - Pulling Teeth Bass Tab

ver1
ver1

Whole song

More versions @911Tabs.com
192,626 views 562 this week
66 commentsread comments
1 2 3 4 5
excellent!
x 123
Autoscroll
+/-
esc
set tempo
stop
WARNING: You are trying to view
                                    content from Ultimate-Guitar.com
                                    in an unauthorized application,
                                    which is prohibited.

                                    Please use an official Ultimate
                                    Guitar Tabs application for iPhone,
                                    iPad or Android to access legitimate
                                    chords, guitar, bass, and drum tabs
                                    from Ultimate-Guitar.com database.

                                    Type "ultimate guitar tabs" in Apple
                                    App Store's or Android Market's
                                    search to find the application.
Metallica
(ANESTHESIA)-PULLING TEETH
Tabbed by: Ben Quirk (whiteadrenaline86@hotmail.com)
play with Wah and distortion
 o = open (bass)
 + = closed (treble)

3/4       harm       152 bpm
  o                  4/4
|--------|----------||------10-14----10-14----10-|-14----10-14----10-14-----|
|-0--0-0-|-12--/19\-||-o-12-------12-------12----|----12-------12-------12\-|
|--------|----------||-o-------------------------|--------------------------|
|--------|----------||---------------------------|--------------------------|
  q. e q   l    q        e  e  e  e  e  e  e  e    e  e  e  e  e  e  e  e

                                            2 times
|-------9-12----9-12----9-|-12----9-12----9-12---||----10-14----10-14----10-|
|-\(10)------10------10---|----10------10------o-||-12-------12-------12----|
|-------------------------|--------------------o-||-------------------------|
|-------------------------|----------------------||-------------------------|
    e   e e  e  e e  e  e   e  e  e e  e  e q       e  e  e  e  e  e  e  e

                                                                     rit.
|-14----10-14----10-14-|----12-16----12-16----12-|-16----12-16----12-16----|
|----12-------12-------|-14-------14-------14----|----14-------14-------14-|
|----------------------|-------------------------|-------------------------|
|----------------------|-------------------------|-------------------------|
  e  e  e  e  e  e  q    e  e  e  e  e  e  e  e    e  e  e  e  e  e  e  e

a tempo
|----14-17----14-17----17-|----12-16----12-16----16-|---------------||
|-15-------15-------15----|-14-------14-------14----|-14--12--12-12-||
|-------------------------|-------------------------|-12--10--------||
|-------------------------|-------------------------|---------------||
  e  e  e  e  e  e  e  e    e  e  e  e  e  e  e  e    h   l    s  s

132 bpm                   +  o                           +  o
|----14----10----|-------12----|----14----10----|-------------|
|-12----12----12-|-14-10-10----|-12----12----12-|-14-10-14----|
|----------------|-------------|----------------|-------12----|
|----------------|-------------|----------------|-------------|
  q  e  e  e  e    q  q  q       q  e  e  e  e    q  q  q

                          +  o
|----14----10----|-------12----|----14----10----|-------------|
|-12----12----12-|-14-10-10----|-12----12----12-|-14-10/------|
|----------------|-------------|----------------|--------0-13-|
|----------------|-------------|----------------|-------------|
  q  e  e  e  e    q  q  q       q  e  e  e  e    q   e  e q


|------------------|-------14-15---|------------------|-------14-15p14----|
|------13-12-------|----15---------|------13-12-------|----15----------15-|
|-12---------15-12-|-13----------0-|-12---------15-12-|-13----------------|
|------------------|---------------|------------------|-------------------|
  q +q e  e  e  e    q  e  e  e  e   q +q e  e  e  e    q  e. s  e  e  e
     [3]  [  3  ]                       [3]  [  3  ]             [  3  ]

                                 + o
|------------------|-------14-15-----|------------------|-------14-15p14----|
|------13-12-------|----15-----------|------13-12-------|----15----------15-|
|-12---------15-12-|-13----------0---|-12---------15-12-|-13----------------|
|------------------|-----------------|------------------|-------------------|
  q +q e  e  e  e    q  e  e  e  e     q +q e  e  e  e    q  e. s  e  e  e
     [3]  [  3  ]                         [3]  [  3  ]             [  3  ]

5/8                 3/4                 5/8
||---------16-------|-------14----14----|-------13-------|
||-o----16----16----|----14----14----14-|----11----11----|
||-o-14----------14-|-12----------------|-11----------11-|
||------------------|-------------------|----------------|
     e  e  e  e  e    e  e  e  e  e  e    e  e  e  e  e

3/4            2 times 5/8              3/4
|-------14----14------||-------16-------|-------17----17----|
|----12----12----12-o-||----16----16----|----17----17----17-|
|-12----------------o-||-14----------14-|-15----------------|
|---------------------||----------------|-------------------|
  e  e  e  e  e  e       e  e  e  e  e    e  e  e  e  e  e

                    5/8                                3/4
|-------19----------|----19----19----|-------/12-------|-------12----------|
|----17----17-------|-19----19----19-|----14-----14----|----14----14----14-|
|-17----------17-17-|----------------|-15-----------15-|-14----------14----|
|-------------------|----------------|-----------------|-------------------|
  e  e  e  e  e  e    e  e  e  e  e    e  e   e  e  e    e  e  e  e  e  e
                                                                  |    |
                                                                 let ring

                    5/4
|-------11----12----|----14-12h14p12----12----------------------|
|----12----12----12-|----------------16----16-14-12-------------|
|-12----------------|-12----------------------------15-14-12-14-|
|-------------------|-------------------------------------------|
  e  e  e  e  e  e    e  q  s  s  s  e  e  s  s  e  s  s  s  s
                            [  3  ]

3/4
|-------12---------|-17-19-17h19p17-16-17-16h17p16-|----16-------------|
|----14----14----0-|-------------------------------|-17----17----17-17-|
|-15----------15---|-------------------------------|----------17-------|
|------------------|-------------------------------|-------------------|
  e  e  e  e  e  e   e  e  s  s  s  e  e  s  s  s    e  e  e  e  e  e
                           [  3  ]        [  3  ]

5/8                                          3/4
|----------------------16---|-------12-------|-------12----------|
|-17-17-17-19-19-19-19------|----14----14----|----14----14----14-|
|-------------------------0-|-15----------15-|-14----------14----|
|---------------------------|----------------|-------------------|
  s  s  s  e  s  s  s  e  e   e  e  e  e  e    e  e  e  e  e  e
  [  3  ]     [  3  ]                                   |    |
                                                       let ring

                    5/4
|-------11----12----|----14-12h14p12----12----------------------|
|----12----12----12-|----------------16----16-14-12-------------|
|-12----------------|-12----------------------------15-14-12-14-|
|-------------------|-------------------------------------------|
  e  e  e  e  e  e    e  q  s  s  s  e  e  s  s  e  s  s  s  s
                            [  3  ]

5/8              6/4
|-------12-------|---19-b1-r-17h19p17-16-17-16h17p16----16----------|
|----14----14----|-0---------------------------------19----17----17-|
|-15----------15-|--------------------------------------------17----|
|----------------|--------------------------------------------------|
  e  e  e  e  e    e e   (e) s  s  s  e  e  s  s  s  e  e  e  e  e
                             [  3  ]        [  3  ]

3/4                             5/8            3/4
|-------------------------16\---|--------------|--------------------|
|-17-17-17-17-19-19-19-19-----0-|------10------|-------14----14-----|
|-------------------------------|---10----10---|----14----14----14/-|
|-------------------------------|-8----------8-|-12-----------------|
  e  s  s  s  e  s  s  s  e   e   e e  e  e  e   e  e  e  e  e  e
     [  3  ]     [  3  ]

                               +o                               +o
|------------------|---------|------10----10----|-----7/(9)-9/(12)-|
|------14----14----|---------|---10----10----10-|---7--------------|
|-0-12----12----12-|-12-10-7-|-8----------------|-5----------------|
|------------------|---------|------------------|------------------|
  e e  e  e  e  e    q  q  q   e e  e  e  e  e    e e e  e  e  e

                            5/8           3/4 +
|-------12----12----|-------|--------------|--------------------|
|----12----12----12-|-------|------10------|-------14----14-----|
|-10----------------|-------|---10----10---|----14----14----14/-|
|-------------------|-3-5-7-|-8----------8-|-12-----------------|
  e  e  e  e  e  e    q q q   e e  e  e  e   e  e  e  e  e  e

  o                                                    +o
|------------------|---------------------------------|------10----10----|
|------14----14----|---------------------------------|---10----10----10-|
|-0-12----12----12-|-12-12-12-12-10-10-10-10-7-7-7-7-|-8----------------|
|------------------|---------------------------------|------------------|
  e e  e  e  e  e    e  s  s  s  e  s  s  s  e s s s   e e  e  e  e  e
                        [  3  ]     [  3  ]    [ 3 ]

                                       5/4
|-----7/(9)-9/(12)-|-------12----12----|-------------------||
|---7--------------|----12----12----12-|-------------------||
|-5----------------|-10----------------|----------------0--||
|------------------|-------------------|-3-5-7-b1/2-r-5----||
  e e e  e  e  e     e  e  e  e  e  e    q q q.       l q

200 bpm
 4/4
||-----------------------------|-----------------|
||-o-7-7---9-9---10-10---9-9---|-7-7---6-6---7---|
||-o-----0-----0-------0-----0-|-----0-----0---0-|
||-----------------------------|-----------------|
     e e e e e e e  e  e e e e   e e e e e e q q
     [ 3 ] [ 3 ] [  3  ] [ 3 ]   [ 3 ] [ 3 ]

                            |1.                        |2. 2/4
|---------------------------|-------------------------||-----------------|
|-7-7---9-9---10-10---9-9---|-10-10---14-14---13\---o-||-10-10---14-14---|
|-----0-----0-------0-----0-|-------0-------0-----0-o-||-------0-------0-|
|---------------------------|-------------------------||-----------------|
  e e e e e e e  e  e e e e   e  e  e e  e  e q   q      e  e  e e  e  e
  [ 3 ] [ 3 ] [  3  ] [ 3 ]   [  3  ] [  3  ]            [  3  ] [  3  ]

4/4                                                       +
|------------------|----------------|-------18----19----|-18-18-18----18----|
|-13---14--13---14-|-13---14-13-/19-|-19-19-19-19-19-19-|-19-19-19-19-19-19-|
|----0--------0----|----0-----------|-0--0--0-----0-----|-0--0--0-----0-----|
|------------------|----------------|-------------------|-------------------|
  q  e q   q  e q    q  e q  q   q    q  q  e  e  e  e    q  q  e  e  e  e
  [ 3]     [ 3]      [ 3]
     |   |    |   |      let ring    let A-string ring ---------------------
   let ring  let ring

                                               o            +
|-19----18----19-18----|-19----18----19----19-----|--------------||
|-19-19-19-19-19-19-19-|-19-19-19-19-19-19-19-----|--------------||
|-0-----0-----0--0-----|-0-----0-----0-----0--(0)-|-(0)----------||
|----------------------|--------------------------|---------/X\--||
  e  e  e  e  q  e  e    e  e  e  e  e  e  e  (e)   (l)      q

-------------------------------------------------------------|

Drums enter
 o                                   +                                   o
|----------------|---------------|------------------|---------------------|
|----------------|---------------|---------5---5-7-b1/2-r-b/12-r-b1/2-r-5-|
|-----2-0--------|------5----5-7-|---5-5-7---7------|---------------------|
|-0-3-----3-3-5/-|-/(7)----7-----|-0----------------|---------------------|
  q e e e e e e      q  q. e e e   q e s s e e e e  + (h.)              q

        +                          o    +
|-------7-b1-r---|------------------|-----14-b1-14-14-|
|-----5--------5-|---5-7-b1-r-5---5-|-----------------|
|---x------------|-7------------7---|-----------------|
|-0--------------|------------------|-0---------------|
  q e e q.     e   e e q      e e q   h+e q     s   s

                          o
|-14-b1-14-14-14-b1-14-14\-|-----12---11-|-12---11-12-12-12-11---|
|--------------------------|--------0----|----0----------------0-|
|--------------------------|-------------|-----------------------|
|--------------------------|-0-0---------|-----------------------|
  q     s  s  q     e  q     q q e  e q    e  e q  e  s  s  e  e
                                    |  |      |  |
                                 let ring  let ring

  T     T     T     T     T       T     T     T     T        +o    +o
|-------------------------------|----------------------|-16-12-16-12-16-|
|-17p14-19p14-19p14-21p14-19p14-|-17p14-19p14-21p14-17-|----------------|
|-------------------------------|----------------------|----------------|
|-------------------------------|----------------------|----------------|
  e  e  s  e  t  t  e  e  e  e    e  e  e  e  e  e  q    q  e  q  e  q

   +o    +o                                                  +
|-12-16-12-16-16-|-16p12----12-16p12----12-16p12-12-12-12-12-14-|
|----------------|-------14----------14-------------------------|
|----------------|----------------------------------------------|
|----------------|----------------------------------------------|
  e  q  e  q  q    s  s  s  s  s  s  s  s  s  s  s  s  s  s  e.
                                                 [  3  ]

                     o                      +
|-b1-r-12----12-b1/2-----|-------------------------|
|---------14---------14\-|-----21-17-17----20-b1/2-|
|------------------------|--------------19---------|
|------------------------|-0-0---------------------|
 (q)   e  e  q       q     q e q  s  s  e  e

|---------------------R--------|----19----------19---------19---------19-|
|-20-20-b1/2-20-19-17----19-b1-|-------19-b1/2-----19-b1/2----19-b1/2----|
|------------------------------|-----------------------------------------|
|------------------------------|-----------------------------------------|
  e  e       e  e  q  e. s      (e) e  e        e  e       e  e       e

                                o                 +o  +o
|---------19-19-19-b1---r-----|-------------|-----------|-------------|
|-19-b1/2-----------------17\-|-------------|-----------|-------2-0---|
|-----------------------------|-------------|-----------|-----------3-|
|-----------------------------|-0-0-0-0-0-0-|-0-0-0-0-0-|-0-0-0-------|
  e       e  e  q.        q     q e q e e e   e e q q q   q e q e e e

                                   +
|------------|-------------|------------|-15-14-12-14p12----12-15-14-12-|
|------------|-------5-----|-5-----5/-0-|----------------14-------------|
|-2-1-0------|---5-7---5-7-|---5-7------|-------------------------------|
|-------3--0-|-0-----------|------------|-------------------------------|
  e e e q. q   q e e e q e   q q q q  q   e  e  e  e  e  e  q  e  e  e
                             [ 3 ]        [  3  ]  [  3  ]     [  3  ]

|-14p12----12-15-14-12-14p12----|-12-------------------------------|
|-------14-------------------14-|----14-12-14p12----12-------------|
|-------------------------------|----------------14----14-12-13-14-|
|-------------------------------|----------------------------------|
  e  e  e  q  e  e  e  e  e  e    e  e  e  s  s  s  e. e  s  s  e
  [  3  ]     [  3  ]  [  3  ]    [  3  ]

                     o
|-----------------------|-----------------|-----------------|-------------|
|-12-14p12-12----12-12\-|-----------------|---------------2-|-------------|
|-------------14--------|-----------------|-----------2-----|-------------|
|-----------------------|-0-0-0-0-0-0-0-0-|-(0)-0-0-0---0---|-0-0-0-0-0-0-|
  e  s  e. e  e  e  q     e e e e e e e e   (e) e e e e e q   q e q e e e

                                                      Harm
|-------------|-12----11----------11-|-12----14-14-12---|--------------|
|-------14-14-|-11-11----11-14-11----|----11------------|------------6-|
|-------------|-0--------------------|----------------9-|-7-0-9-10-0---|
|-0-0-0-------|----------------------|------------------|--------------|
  q q q e  e    e  e  e  e  e  e  q    e  e  e  e  q  q   e e q e  e q
                let A-string ring

|--------------------|----------------|----------------------------|
|-6-6-6-10-7-7-7-7-7-|-8-11-9-9-12-10-|-10-11-11-14-14-11-11-14-12-|
|--------------------|----------------|----------------------------|
|--------------------|----------------|----------------------------|
  e s s e. s s e s q   q e  e q e  e    h  s  s  s  s  s  s  s  s
                   /   /      /         /
                   /   /      /         /
                   /   /      /         /

|------------------------------------------|-------16-15-16-17-19-19-b1-|
|-(12)-15-12-14-16-14-16-15-17-17-16-17-19-|-17-19----------0-----------|
|------------------------------------------|----------------------------|
|------------------------------------------|----------------------------|
  (s)  e  s  s  s  s  s  e  e  e  e  e  e    e  e  e  e  e  e  e  q
                         [  3  ]  [  3  ]    [  3  ]

|-(19)-19-19-19-19-|-19-b1-r-16----16-19-16-|
|------------------|------------17----------|
|------------------|------------------------|
|------------------|------------------------|
  (h.) s  s  s  s    q       e  e  e  e  q

|-19p16----16h19p16----16h19p16----16h19p16----|-16h19---19-b1-r-16----|
|-------17----------17----------17----------17-|--------------------17-|
|----------------------------------------------|-----------------------|
|----------------------------------------------|-----------------------|
  s  s  s  s  s  s  s  s  s  s  s  s  s  e  s    s  e.+e q.       e  e

                                                    o
|-16----------------------|---------------------------|
|----17----17----------17-|-19-b1/2-r-b1/2-r-b1/2-19\-|
|-------19----19-17-19----|---------------------------|
|-------------------------|---------------------------|
  e  e  e  e  e  e  e  e    h.                    q
       let ring

                  +o  +o
|-------------|---------|----------------|---------------|-----------------|
|-------------|---------|----------------|---------------|-----------------|
|-------------|---------|---------5-b1-r-|-b1-r-b1-r-2---|---------0-----0-|
|-0-0-0-0-0-0-|-0-0-0-0-|-0-0-0-0--------|-------------0-|-0-0-0-0---3-0---|
  q e q e e e   q q q q   e e e q q.       (h)       q q   e e e e e e e e

                                + o                 +o      Harm --
|-----------------|-----------------|-----------------|-----------|
|-----------------|-----------------|-----------------|-----5-5-5-|
|-0-0-4h5-0-4h5-0-|-4h5-0-4h5-0-4h5-|-0-0-0-0-0-0-0-0-|-----------|
|-----------------|-----------------|-----------------|-0-0-------|
  e e e e e e e e   e e e e e e e e   e e e e e e e e   q q q e e

                  A.H.------------------------------------------------
---------------|  T      T      T       T     T      T     T      T
|---------------|-12(19)-10(17)-9(16)-|-9(16)---------------------9(16)-|
|-(5)-5-------5-|---------------------|-------10(17)-9(16)-10(17)-------|
|---------------|---------------------|---------------------------------|
|-------4-4-4---|---------------------|---------------------------------|
  (e) e q e e q   q.     q.      q      q     q      e     e      q

                                                    A.H.----------------|
----------------------------------------------|  Harm             +   +o
  T      T     T      T     T      T     T           T      T     T
|-----------------------------------------------|-------------------------|
|-10(17)-9(16)---------------------9(16)-10(17)-|----10(17)-9(16)---------|
|--------------10(17)-9(16)-10(17)--------------|-19--------------12(19)\-|
|-----------------------------------------------|-------------------------|
  e      e     e      e     q      e     e        q  q      q     q

                    +           o
|---------|------------|----------|   end by sliding over the strings and
|---------|---------16-|-(16)-----|   then tapping the open D and G strings
|---------|---14-14-14-|-(14)-----|   against your pickup.
|-0-0-0-0-|-0-0--0--0--|-(0)------|
  q q q q   q q q q q    (l)
===========
"(Anesthesia)-Pulling Teeth"
(Anesthesia)-Pulling Teeth
written by Burton
as performed on Kill 'Em All
tab by Allen Canterbury  acanterb@vt.edu


Notes:  Yeah, I'm sure you actually want to read some notes about this song.
Cliff Burton was a master on the bass guitar--he used numerous techniques
in this song, so I will try to explain them here.

Wah and distortion are used throughout the song.  The distortion is on all
of the time, but the wah is applied only at certain points.  The points are
marked with a + when the wah is closed (trebly sound) and a o when the wah
is open (normal bass sound).
A lot of bended notes are used.  My notation is, for example 17b(18)r(17).
This means, fret and strike the 17th fret, bend up to the pitch of the 18th
fret, then release back to the 17th fret.  If there is no 'r(17) then it means
to bend up to the 18th fret but don't release back to the original tone.
When Tapping technique is used, a "T" above the tapped note is used.  At the
end of the song, artifical harmonics are produced by tapping.  A fret is
pressed down, and another fret is tapped.  In notation form, the fretted note
is written and the tapped fret is in paren's, i.e., 12(19) means hold on 12th
fret and tap the 19th fret with a left hand finger.  This has to be done 
quickly and precisely to get the harmonic tone.  Practice it--sounds nice.
Cliff does some tremelo picking toward the end of the song also.  This is
denoted by slashes underneath the note that is being tremelo picked.  Tremelo
picking is done by very quickly picking the note--as fast as you can (as in
like 32nd notes).
Lastly, the very end of the song has some weird stuff going on.  Cliff drags
his right-hand nails along the E and A strings from the first fret up the
neck, then begins tapping the open D and G strings against the pick-ups
in a sixteenth note rhythm pattern.  This is how the song ends, and Whiplash
comes in.
    This is a masterpiece bass solo, in my opinion.  It's hard to learn, esp.
the triplets and different techniques he uses...but once you learn it, it 
sounds great!  Good luck.

R. Allen Canterbury
    
-------------------------------------    
Intro    
    FREE TIME
                  harm.    sl.   sl.
G:------------------------------------|
D:--0-------0--0---12--------/-19----|
A:------------------------------------|
E:------------------------------------|

  * w/ wah & dist.  +=closed  o=open


    TIME = 152
                                                    sl.
G:------10-14----10-14----10-14----10-14----10-14---------9--12----9--12----9|
D:*--12-------12-------12-------12-------12-------12--10-------10-------10--|
A:*--------------------------------------------------------------------------|
E:---------------------------------------------------------------------------|


G:--12----9--12----9--12--|
D:-----10-------10-------*|
A:-----------------------*|
E:------------------------|


G:-----10-14----10-14----10-14----10-14----10-14----12-16----12-16----12-16--|
D:--12-------12-------12-------12-------12-------14-------14-------14--------|
A:---------------------------------------------------------------------------|
E:---------------------------------------------------------------------------|


G:---12-16----12-16-------14-17----14-17----14-17----17----12-16----12-16----|
D:14-------14-------14-15-------15-------15-------15----14-------14-------14-|
A:---------------------------------------------------------------------------|
E:---------------------------------------------------------------------------|

                                   Time=132
                                                                          +
G:16---------------------------------------14-------10--------------------12-|
D:---14-----------12--------12-12--12-----------12------12--14-----10-----10-|
A:---12-----------10---------------------------------------------------------|
E:---------------------------------------------------------------------------|


   o                                           +   o
G:--------------14-------10--------------------------------------14--------10|
D:------12-----------12------12--14-----10-----14-------12------------12-----|
A:---------------------------------------------12----------------------------|
E:---------------------------------------------------------------------------|

                       +   o                                            sl.
G:---------------------12------------------14--------10----------------------|
D:---12--14-----10-----10---------12------------12--------12--14------10-/---|
A:--------------------------------------------------------------------------0|
E:---------------------------------------------------------------------------|


G:-------------------------------------------14--15--------------------------|
D:-------------------13-12---------------15------------------------13-12-----|
A:---13---12---------------15-12-13------------------0--12---------------15--|
E:---------------------------------------------------------------------------|

                                                                           +
G:----------------14-15p14-----------------------------------------14--15----|
D:-----------15-------------15------------13-12---------------15-------------|
A:12-13--------------------------12--------------15-12-13------------------0-|
E:---------------------------------------------------------------------------|


  o
G:-------------------------------------14-15p14-----|
D:------------13-12---------------15-------------15-|
A:-12---------------15-12-13------------------------|
E:--------------------------------------------------|


G:---------16--------------14----14----------13-------------14----14------|
D:*-----16----16--------14----14----14----11----11-------12----12----12--*|
A:*--14-----------14-12----------------11----------11-12-----------------*|
E:------------------------------------------------------------------------|


G:-------16--------------17----17----------19-------------19----19----|
D:----16----16--------17----17----17----17----17-------19----19----19-|
A:-14----------14--15----------------17----------17-17----------------|
E:--------------------------------------------------------------------|


         sl. first time only
G:--------/12--------------12----------------11----12-------14-----12h14p12--|
D:*-----14----14--------14----14----14----12----12----12---------------------|
A:*--15----------15--14----------14----12----------------12------------------|
E:---------------------------------------------------------------------------|

                               1.
                              |~~~~~~~~~~~~~~~~~~~~~~~~~~~~~~~~~~~~~~~~~~~~~~
G:---12------------------------------12----------17--19--17h19p17-16--17--16h|
D:16----16-14--12-----------------14----14----0------------------------------|
A:----------------15-14-12-14--15----------15--------------------------------|
E:---------------------------------------------------------------------------|


  ~~~~~~~~~~~~~~~~~~~~~~~~~~~~~~~~~~~~~~~~~~~~~~~~~~~~~~~~~~~~~~~~~~
G:17p16------16-------------------------------------------16---------|
D:-------17------17------17--17-----17-17-17-19--19-19-19-----------*|
A:-------------------17-------------____3___-----____3___-------0---*|
E:-------------------------------------------------------------------|
                                    triplet.     triplet.

   2.
  |~~~~~~~~~~~~~~~      full bend.
G:--------12------------19b(21)r19--17h19p17-16---17---16h17p16------16------|
D:-----14----14-----0-------------------------------------------19-------17--|
A:--15----------15-----------------------------------------------------------|
E:---------------------------------------------------------------------------|

                                        sl.
G:------------------------------------16------|
D:----17--17----17-17-17-19--19-19-19----------|
A:17------------____3___-----____3___-------0--|
E:---------------------------------------------|
                triplet.     triplet.


                    +               sl. o
G:---------------------------------------------------------------------------|
D:*--------10-------------14----14------------14----14-----------------------|
A:*-----10----10-------14----14----14/--0--12----12----12--12--12-12-12-10---|
E:---8-----------8--12-----------------------------------------____3___------|
                    *wah second time only                      triplet.      
                                                            (triplets on   
                                                             second time only)

                     + o                         sl.    sl. + o
G:-------------------------10----10-------------7-/-9---9-/-12--------12-----|
D:----------------------10----10----10------7----------------------12----12--|
A:10-10-10-7---7-7-7--8-----------------5-----------------------10-----------|
E:____3___-----__3__---------------------------------------------------------|
  triplet.   triplet.                                   *wah first time only
                                                                  

          1.                       2.
         |~~~~~~~~~~~~~~~~~~~~~   |~~~~~~~~~~~~~~~~~~~~~~~~~~~~~~~
G:12----------------------------|-----------------------------------|
D:---12------------------------*|-----------------------------------|
A:-----------------------------*|------------------------------0----|
E:--------3------5------7-------|----3-----5-----7-b(8)r---5--------|
                                                1/2 bend.

    TIME = 200

G:---------------------------------------------------------------------------|
D:*--7--7-----9--9-----10-10----9--9-----7--7-----6--6-----7---------7--7----|
A:*--------0--------0--------0--------0--------0--------0--------0---------0-|
E:---------------------------------------------------------------------------|

                               1.
                              |~~~~~~~~~~~~~~~~~~~~~~~~~
G:-----------------------------------------------sl.-------|
D:-9--9-----10-10----9--9-----10-10----14-14----13-------*|
A:-------0--------0--------0--------0--------0---------0--*|
E:---------------------------------------------------------|

    2.
   |~~~~~~~~~~~~~~~~~                                         sl.
G:---------------------------------------------------------------------------|
D:---10-10----14-14----13-----14---13-----14---13-----14---13--/19---19---19-|
A:---------0--------0------0-----------0-----------0------------------0----0-|
E:---------------------------------------------------------------------------|


                       +
G:--18--------19--------18-----18-----18--------18--------19--------18-------|
D:--19---19---19---19---19-----19-----19---19---19---19---19---19---19---19--|
A:---0---------0---------0------0------0---------0---------0---------0-------|
E:---------------------------------------------------------------------------|


                                                    o             sl.+ sl. o
G:-19-----18--------19--------18--------19--------18-------------------------|
D:-19-----19---19---19---19---19---19---19---19---19-------------------------|
A:--0------0---------0---------0---------0---------0----(0)------------------|
E:------------------------------------------------------------------/-X-----|


   (drums enter)
G:---------------------------------------------------------------------------|
D:-----------------------------------------------------------------------5---|
A:-----------2---0--------------------5------------5---7-------5---5--7-----7|
E:0------3-----------3---3---5-/-7-------------7-----------0-----------------|G:---------------------------------------7b(9)r(7)---------------------------|
D:--5--7b(8)r(7)b(8)r(7)--5-----------5--------------5-------5--7b(9)r(7)--5-|
A:---------------------------------X---------------------7-------------------|
E:----------------------------0--------------------------------full-bend.----|
     3 1/2 step bends.                  full bend.

                                                                          sl.
G:-------------------------14b(16)---14-14-14b(16)---14-14-14b(16)---14--14-|
D:-------5-------------------------------------------------------------------|
A:--7------------------------------------------------------------------------|
E:------------0--------------------------------------------------------------|
                          full bend.      full bend.      full bend.

                                                           Tap and pull-off
                                                          |~~~~~~~~~~~~~~~~~~
                                                          T      T      T
G:---------------12-----11---12-----11---12-12-12-11-------------------------|
D:-------------------0-----------0--------------------0---17p14--19p14--19p14|
A:---------------------------------------------------------------------------|
E:---0-----0-----------------------------------------------------------------|


  ~~~~~~~~~~~~~~~~~~~~~~~~~~~~~~~~~~~~~~|
    T      T      T      T      T      T            + o        + o        + o
G:-------------------------------------------16-----12--16-----12--16-----12-|
D:--21p14--19p14--17p14--19p14--21p14--17------------------------------------|
A:---------------------------------------------------------------------------|
E:---------------------------------------------------------------------------|

          + o                                                         +
G:-16-----12--16-----16----16p12----12-16p12----12-16p12-12-12-12-12--14--(14|
D:-------------------------------14----------14------------------------------|
A:---------------------------------------------------------------------------|
E:---------------------------------------------------------------------------|

                                   o sl.
G:)b(16)r(14)--12------12b(13)r(12)------------------------------------------|
D:-----------------14----------------14--------------21-----17-17----20b(21)|
A:-----------------------------------------------------------------19--------|
E:------------------------------------------0-----0--------------------------|

        +
G:----------------------------------------------19-----------19-----------19-|
D:--20--20b(21)--20--19--17-------19b(21)r(19)------19b(20)------19b(20)-----|
A:---------------------------------------------------------------------------|
E:---------------------------------------------------------------------------|

                                                           sl. o
G:----------19----------19---19---19---19b(21)r(19)--------------------------|
D:-19b(20)------19b(20)-----------------------------------17----------------|
A:---------------------------------------------------------------------------|
E:----------------------------------------------------------------0----0--0--|

                    +  o       +  o
G:---------------------------------------------------------------------------|
D:------------------------------------------------2---0----------------------|
A:--------------------------------------------------------3---2---1---0------|
E:----0-0--0--0--0--0-----0----0-----0---0--0-----------------------------3--|

                                         sl.
G:--------------------------------------------------15-14-12-14p12----12-----|
D:--------------------5---------5--------5/---0--------------------14--------|
A:--------------5--7-----5---7-----5--7--------------------------------------|
E:------0---0----------------------------------------------------------------|


G:15-14-12-14p12----12---15-14-12-14p12----12--------------------------------|
D:--------------14----------------------14----14-12-14p12----12--------------|
A:--------------------------------------------------------14-------14--12-13-|
E:---------------------------------------------------------------------------|

                             sl.
G:---------------------------------------------------------------------------|
D:---12-14p12---12------12--12---------------------------------------------2|
A:14----------------14------------------------------------------------2------|
E:--------------------------------0--0--0--0--0--0--0--0-----0--0--0-----0---|G:-------------------------------------------12------11--------------11--12--|
D:-------------------------------------14-14-11--11------11--14--11----------|
A:--------------------------------------------0------------------------------|
E:--0-----0--0----0--0--0--0---0---0-----------------------------------------|


                  harm.
G:----14--14--12-------------------------------------------------------------|
D:11--------------------------------------6---6-6-6--10---7-7-7-7---8----11--|
A:------------------9----7--0--9---10--0------------------------/---/--------|
E:--------------------------------------------------------------/---/--------|
                                                                /   /

               +
G:---------------------------------------------------------------------------|
D:9--9---12--10--10---------11-11-14-14-11-11-14-12---15-12-14-16-14-16-15-17|
A:---/------------/----------------------------------------------------------|
E:---/------------/----------------------------------------------------------|
     /            /


G:-------------------|
D:-17-16-17-19-17-19-|
A:-------------------|
E:-------------------|


                       hold.
G:--16-15-16-17-19-19/~~~~~~~~~~--19-19-19-19-19-16----16---19-16-19p16-----|
D:------------0--------------------------------------17------------------17--|
A:---------------------------------------------------------------------------|
E:---------------------------------------------------------------------------|
                      full bend.


G:16h19p16----16h19p16----16h19p16-----16h19--19b(21)r(19)-16----16----------|
D:---------17----------17----------17-------------------------17----17----17-|
A:---------------------------------------------------------------------19----|
E:---------------------------------------------------------------------------|

                     sl. o                              +  o        +  o
G:---------------------------------------------------------------------------|
D:------- -17-19------19----------------------------------------------------|
A:19-17-19-------------------------------------------------------------------|
E:--------------------------0-----0--0-----0--0--0--0----0-----0-----0------0|G:---------------------------------------------------------------------------|
D:---------------------------------------------------------------------------|
A:-----------5/7--5/7--5----2-------------------0--------0--0--0--4h5--0---|
E:--0--0--0-----------------------0---0--0--0--0-----3--0--------------------|

                                                                    Harm.
                                                      + o          |~~~~~~~~~
G:---------------------------------------------------------------------------|
D:-----------------------------------------------------------------5-----5--5|
A:4h5--0--4h5--0--4h5--0----4h5--0--0--0--0--0--0--0--0----------------------|
E:-------------------------------------------------------0----0--------------|


  ~~~~~~~~~~~~~~~~~~~~~       T         T        T        T         T      T
G:------------------------12(19)----10(17)----9(16)----9(16)-----------------|
D:-----5--------------5-----------------------------------------10(17)--9(16)|
A:---------------------------------------------------------------------------|
E:---------4----4--4---------------------------------------------------------|

  
        T      T       T      T       T      T       T          T       T
G:----------9(16)------------------------------------------------------------|
D:--10(17)---------10(17)--9(16)-----------------------------9(16)--10(17)---|
A:--------------------------------10(17)--9(16)--10(17)----------------------|
E:---------------------------------------------------------------------------|


  harm.
   T        T        T     +   T  o
G:---------------------------------------------------------------------------|
D:------10(17)----9(16)------------------------------------------------------|
A:19-----------------------12(19)-----------------------------14-----14-----|
E:------------------------------------0----0----0----0----0-----0------0-----|
                                sl.


  FREE TIME
  +                                  o  sl.
G:--------------------------------------X-----------------------------------|
D:16------------------------------------X-----------------------------------|
A:14--------------------------------------------X-/--------------------------|
E:-0--------------------------------------------X-/--------------------------|
                                                drag R.H. nails along E
                                                and A strings start at 1st 
                                                fret

       **                                                          *
G:-----X--X--X--X--X--X--X--X--X--X--X--X--X--X--X--X--X--X--X--X--X/--X--X--|
D:-----X--X--X--X--X--X--X--X--X--X--X--X--X--X--X--X--X--X--X--X--X/--X--X--|
A:---------------------------------------------------------------------------|
E:---------------------------------------------------------------------------|
       ** Tap open D and G strings against pickups in rhythm     *nail     
                                                                  scrape

 
 
====
66 comments total. Showing first comments. show 2 bad comments
+7 reply
skwerl066 wrote on April 12 2004, 12:00 am

you did alot of work figuring out this song. awesome job

I want to post or [tab]
guest
You may want to rate the tab now too:
select rating
Please do not post tabs as comments. Select "correction" instead!