Oops, an error
Loading. Please wait.

Astronomy Tab

ver4
ver4

Whole song

Interactive

More versions @911Tabs.com
9,487 views 6 this week
1 commentread comment
1 2 3 4 5
accurate
x 8
Autoscroll
+/-
esc
set tempo
stop
Hey! There's an official Ultimate Guitar app which is ideal
for learning songs when you're away from computer. Get the app
WARNING: You are trying to view
                                    content from Ultimate-Guitar.com
                                    in an unauthorized application,
                                    which is prohibited.

                                    Please use an official Ultimate
                                    Guitar Tabs application for iPhone,
                                    iPad or Android to access legitimate
                                    chords, guitar, bass, and drum tabs
                                    from Ultimate-Guitar.com database.

                                    Type "ultimate guitar tabs" in Apple
                                    App Store's or Android Market's
                                    search to find the application.
Em
x 7 9 9 8 x  D
x 5 7 7 7 x  C
x 3 5 5 5 x  B
x 2 4 4 4 x  
Em(type 2)
0 2 2 0 0 0  C(type 2)
x 3 2 0 1 0  G6
3 x 0 0 3 0  B7
x 2 1 2 0 2  
D5
x 5 7 7 x x  C5
x 3 5 5 x x  

Gtr I (Eb Ab Db Gb Bb Eb) - 'Kirk Hammett - Rhythm clean electric w/chrous'
Gtr II (Eb Ab Db Gb Bb Eb) - 'James Hetfield - Rhythm clean electric'
Gtr III (Eb Ab Db Gb Bb Eb) - 'Kirk Hammett - Rhythm clean electric '
Gtr IV (Eb Ab Db Gb Bb Eb) - 'Kirk Hammett - Rhythm w/dist'
Gtr V (Eb Ab Db Gb Bb Eb) - 'James Hetfield - Rhythm w/dist'
Gtr VI (Eb Ab Db Gb Bb Eb) - 'Kirk Hammett - Lead w/dist'

Intro
  Q=86
 4/4
  Gtr I
  W          W          E S S E S S +S  E. E S S
|----------|----------|--------------------------|
|----------|----------|--------------------------|
|----------|----------|-------2-2-0-(0)----------|
|----------|----------|-2-2-2-----------4--------|
|----------|----------|--------------------5-5-5-|
|----------|----------|--------------------------|


  E S S +S  S E +S  E S E S S
|-----------------------------|
|-------------------2-2-3-3-3-|
|-------------2-(2)-2-2-------|
|-----4-(4)-4-4-(4)-----------|
|-5-5-5-(5)-5-----------------|
|-----------------------------|


  +S  S E Q  Q  E E   E. S +S  S E +S  E S E S S
|-----------------3-|-5----------0-(0)------------|
|-(3)-3-3-----------|----5-(5)-5-3-(3)------------|
|-------------------|------------------0-0-2-2-2--|
|-------------------|-----------------------------|
|-------------------|-----------------------------|
|-------------------|-----------------------------|


  Gtr I
                               >
   Q   H            E    E    +H           H
|------------------12------|----------------------------|
|-----------------------12-|-(12)-----------------------|
|--------------------------|----------------------------|
|--------------------------|----------------------------|
|------7-------------------|----------------------------|
|--------------------------|----------------------------|
|
| Gtr II
|  Q.    E +S  E S  S S  E     E. S +E  E +S  E S S S E
|-^0-----------0-0---------|---0--0-(0)---------0-------|
|-^0-----------0-----------|---0--0-(0)-------0---------|
|-^0----------------4-2--0-|---0--------------0---4-2-0-|
|-^2-----------------------|---2----------------------0-|
|-^2-----------------------|---2------------------------|
|-^0-----0-(0)-------------|---0--------0-(0)-----------|
                           |-Rhy Fig 1

  Gtr II
  E. S +S  S E +S  E S S S E   E. S +S  S E +S  S S S S S S S
|-0--------0---------0-------|-0--------0-----------0---------|
|-0--0-(0)-0-------0---------|-0--0-(0)-0-------0-0-----------|
|-0--0-(0)---------0---4p2-0-|-0--0-(0)---------0-0---4p2-0h2-|
|-2--------------------------|-2------------------------------|
|-2--------------------------|-2------------------------------|
|-0----------0-(0)-----------|-0----------0-(0)---------------|


  E. S +S  S E +S  E S S S E   E. S +S  S E +S  E S S S E
|-0--------0---------0-------|-0--------0---------0-------||
|-0--0-(0)-0-------0---------|-0--0-(0)-0-------0---------||
|-0--0-(0)---------0---4-2-0-|-0--0-(0)---------0---4-2-0-||
|-2--------------------------|-2--------------------------||
|-2--------------------------|-2--------------------------||
|-0----------0-(0)-----------|-0----------0-(0)-----------||
               end Rhy Fig 1-|


   Verses
    $
                                  2/4
    Gtr III
                 D                 C     B
    H            H                 Q     Q
    |            |                 |     |
    /            /                 /     /

    Gtr II
    E. S +S  E S E S S +S  S S S   E S S E S S
||--0--------0-0-2---0-(0)-0-----|-----3---3-3-|
||o-0--0-(0)-0-0-3---3-(3)-3---0-|---3-----3-3-|
||--0--0-(0)-----2---2-(2)-2-3---|---0-----0-0-|
||--2------------0-0-------------|-2-----------|
||o-2----------------------------|-3-----2-----|
||--0----------------------------|-------------|
 |-Rhy Fig 2                     end Rhy Fig 2-|

 4/4
  Em(type 2)                 Em           D
  W                          H            H
  |                          |            |
  /                          /            /

  E. S +E  E +S  E S S S E   E. S +S  E S E S S +S  S S S
|----------0-(0)-0-0-------|-0--------0-0-2---0-(0)-0---0-|
|----------0-(0)-0-0-------|-0--0-(0)-0-0-3---3-(3)-3-3-3-|
|----------0---------4-2-0-|-0--0-(0)-----2---2-(2)-2---0-|
|-2--2-(2)-2---------------|-2------------0-0-------------|
|-2--2-(2)-2---------------|-2----------------------------|
|-0--0-(0)-0---------------|-0----------------------------|


  C     B       Em(type 2)
 2/4           4/4
  Q     Q       W
  |     |       |
  /     /       /

  E S S E S S   E. S +E  E +S  E S E E
|---0-0---0-0-|----------0-(0)-0-0-0-0-|
|---3-3---3-3-|----------0-(0)-0-0-0-0-|
|---0-0---0-0-|----------0-(0)-----0---|
|-2-----------|-2--2-(2)-2-(2)-----2---|
|-3-----2-----|-2--2-(2)-2-(2)---------|
|-------------|-0--0-(0)-0-(0)---------|


  C(type 2)    G6              C(type 2)    B7
  H            H               H            H
  |            |               |            |
  /            /               /            /

  E. S +S  E S E S S +S  E S   E. S +S  E S E. S +S  E S
|----0-(0)-0-0-------------0-|----0-(0)-0-0------------0-|
|----3-(3)-3-3-----3-(3)-3---|----3-(3)-3-3----0-(0)-0-0-|
|----0-(0)-0-0-----0-(0)-0---|----0-(0)-0-0----0-(0)-0-0-|
|-2--------------0-------0---|-2---------------4-(4)-4---|
|-3--------------------------|-3------------2------------|
|--------------3-------------|---------------------------|


  Em           D                 C     B
                                2/4
  H            H                 Q     Q
  |            |                 |     |
  /            /                 /     /
|------------------------------|-------------|
|-w/Rhy Fig 2

  1.
 4/4
  Em(type 2)
  W                          +W
  |                           |
  /                           /
|--------------------------|-----------------------------|
|-w/Rhy Fig 1

  W
  |
  /
|---------------------------|


  W
  |
  /

  E. S +S  S E +S  E S S S E
|-0--------0---------0--------||
|-0--0-(0)-0-------0---------o||
|-0--0-(0)---------0---4-2-0--||
|-2---------------------------||
|-2--------------------------o||
|-0----------0-(0)------------||


  2.,D.S.
   Em(type 2)
   W                          W
   |                          |
   /                          /
|--------------------------|-----------------------------|
|-w/Rhy Fig 1 (1st 2 bars only)


   Interlude
    Gtr II
 |-Rhy Fig 3                              end Rhy Fig 3-|
    Em(type 2)      D      C                     Em(type 2)
    H               H      H                     H
    |               |      |                     |
    /               /      /                     /

    Gtr IV
                    ~                            ~
    S S  S S S  S E H      S S  S S S  S    +E   H
||-----------------------|-----------------------------||
||o----------------------|----------------------------o||
||-----------------------|-----------------------------||
||--9p7s=5h7----5---4----|-9p7s=5h7----5b6==(5)r-------||
||o----------------------|-----------------------7----o||
||-----------------------|-----------------------------||
|
|   Gtr V
|                   ~                            ~
|   S S  S S S  S E H      S S  S S S  S     E   H
||-----------------------|-----------------------------||
||o----------------------|----------------------------o||
||-----------------------|-----------------------------||
||--9p7----7-------------|-9p7----7--------------------||
||o-----10-----10---9----|-----10-----10---------7----o||
||-----------------------|-----------------------------||


w/Rhy Fig 3
                     ~                         ~
  S S  S S S  S S  S H      S S  S S S  S S  S H
|-------------------------|-------------------------|
|-5p3h=5-5----------------|-------------------------|
|-------------4----4s7----|-5p4----5----4----2s4----|
|-------------------------|------7------------------|
|-------------------------|-------------------------|
|-------------------------|-------------------------|
|
|                    ~                         ~
| S S  S S S  S S  S H      S S  S S S  S S  S H
|-------------------------|-------------------------|
|-------------------------|-------------------------|
|-------------------------|-------------------------|
|-9p7----7----------------|-9p7----7----------------|
|-----10-----10---10-9----|-----10-----10---10-7----|
|-------------------------|-------------------------|


                                     To Coda
  Em(type 2)         D      C
                           2/4
  H                  H      H
  |                  |      |
  /                  /      /

                     ~
  S S  S S S  S S  S H      S S  S S S  S S  S
|-------------------------|---------------------|
|-5p3h=5-5----------------|---------------------|
|-------------4----4s7----|-5p4----5----4----4h=|
|-------------------------|------7--------------|
|-------------------------|---------------------|
|-------------------------|---------------------|
|
|                    ~
| S S  S S S  S S  S H      S S  S S S  S S  S
|-------------------------|---------------------|
|-------------------------|---------------------|
|-------------------------|---------------------|
|-9p7----7----------------|-9p7----7------------|
|-----10-----10---10-9----|-----10-----10---10--|
|-------------------------|---------------------|


           D
 4/4
  H         H                 W
  |         |
  /         /

  ~~        ~~~                 PM      PM  PM|
  E. S E E  E. S +E   E       E S S +S  S E S S e E E
|-------------------------||----------------------------|
|-------------------------||o---------------------------|
|-5------5-/7---------7---||--------------------5-5-5S==|
|----5-5-------7-(7)------||--2---2-(2)---2-----5-5-5S==|
|-------------------------||o-2---2-(2)---2-----3-3-3S==|
|-------------------------||--0-0-0-(0)-0-0-0-0---------|
|-Rhy Fill 1            --||-Rhy Fig 4
|
| ~~~~~~~~~~~~~~~~~~~~~~~~
| H         Q.       +E       E S S +S  S E S S e E S S
|-------------------------||----------------------------|
|-------------------------||o-8-x-8-(8)---------5-5-x-x-|
|-------------------------||--9-x-9-(9)-x-9-x-x---------|
|-------------------------||--9-x-9-(9)-x-9-x-x-5-5-x-x-|
|-5--------/9--------(9)\-||o-7-x-7-(7)-x-7-x-x-3-3-x-x-|
|-------------------------||----------------------------|
|-Rhy Fill 1A           --||-Rhy Fig 4A

  1.                              2.
    PM      PM                        PM      PM
  E S S +S  S E S S e   E E         E S S +S  S E S S e E E
|------------------------------||-----------------------------||
|-----------------------------o||-----------------------------||
|-7---7-(7)---7-x-x------------||--/7---7-(7)---7-x-x---------||
|-7---7-(7)---7-x-x-2---2-2----||--/7---7-(7)---7-x-x-2-2-2---||
|-5-5-5-(5)-5-5-x-x-2---2-2---o||--/5-5-5-(5)-5-5-x-x-2-2-2---||
|-------------------0---0-0----||---------------------0-0-0---||
|                end Rhy Fig 4-|
|
| E S S +S  S E S S S S E S S       E S S +S  S E S S e E S S
|-------------5-x-x------------||---------------5-x-x---------||
|-7-x-7-(7)-x-5-x-x-----------o||---7-x-7-(7)-x-5-x-x---------||
|-------------7-x-x-9---9-x-x--||---------------7-x-x-9-9-x-x-||
|-7-x-7-(7)-x-7-x-x-9-9-9-x-x--||---7-x-7-(7)-x-7-x-x-9-9-x-x-||
|-5-x-5-(5)-x-5-x-x-7---7-x-x-o||---5-x-5-(5)-x-5-x-x-7-7-x-x-||
|------------------------------||-----------------------------||
                 end Rhy Fig 4-|

   Bridge
   Rhy Fig 4 + 4A x4


   Bridge
   Rhy Fig 4 + 4A x3.5

Gtrs IV, V
  D  C         C
  E. S +E E +S S e S S E
  |  |  | |  | | | | | |
  /  /  / /  / / / / / /
|-------------------------|


  D5 C5   D5   C5          D5 C5   D5   C5
  E. S +E E +S S e S S E   E. S +E E +S S e E E
  |  |  | |  | | | | | |   |  |  | |  | | | |
  /  /  / /  / / / / / /   /  /  / /  / / / /
|------------------------|----------------------|


  Gtr IV
                                                     ~~~
   Q          +E.      +S     S   S  S  S S  E       S
|------------------------------------------------------|
|------------------------------------------------------|
|----------------------------16p=14s12-12---12b13------|
|---------------------------------------------------14-|
|--7----------(7)------(7)/----------------------------|
|------------------------------------------------------|
|
| Gtr V
|                             ~~~~
|  S  S  S  S  S   S S  S    +Q.                  E
|-19p17----17------------------------------------------|
|-------20--------20---17---(17)-----------------------|
|------------------------------------------------------|
|------------------------------------------------------|
|------------------------------------------------------|
|------------------------------------------------------|


 ~~~~~~
   +H                  S  S S S  S  E    S
|---------------------------------------------|
|---------------------------------------------|
|---------------------------------------------|
|-(14)----------------\9p=7s5h7-----5b6-------|
|----------------------------------------7----|
|---------------------------------------------|
|
|                   ~~~~~~~~~~~~~~~~
|   S S  S S S  S S S +Q        +E.     +S
|---------------------------------------------|
|---------------------------------------------|
|---------------------------------------------|
|---9p7----7----------------------------------|
|-------10-----10---7-(7)-------(7)-----(7)\--|
|---------------------------------------------|


                                      >
  +W                    +W           +W
|---------------------|------------|------------------||
|---------------------|------------|------------------||
|---------------------|------------|------------------||
|---------------------|------------|------------------||
|-(7)-----------------|-(7)--------|-(7)--------------||
|---------------------|------------|------------------||
|
|  S S S S S S E H      +W           +E   Q.   +H
|---------------------|------------|-----^0----(0)----||
|---------------------|------------|-----^0----(0)----||
|---------------------|------------|-----^0----(0)----||
|---------------------|------------|-----^2----(2)----||
|-\2p0---0------------|------------|------------------||
|------3-----3---0----|-(0)--------|-(0)--------------||


w/Rhy Fig 1
  Em(type 2)
  W                          W
  |                          |
  /                          /
|--------------------------|----------------------------|



  W                                W
  |                                |
  /                                /                    D.S. al Coda
|--------------------------|----------------------------|


  &
w/Fill 1 + 1A
    C                     D
    H                     H
    |                     |
    /                     /

  Gtr VI
    E   S  S  S  S  S  S  Q     E   E
|---------------------------------------||
|---------------------------------------||
|------------------------------11-------||
|-/14--14-14-14-14-14-14-----------14---||
|---------------------------------------||
|---------------------------------------||


 Guitar Solo
w/Rhy Fig 4 + 4A (both) x4
                    ~~~~~~~
   E.    S  +S   S  E  +S   S  S  S  S  S  S  S
|-----------------------------------------------|
|-----------------------------------------------|
|-----------------------------------------------|
|-14----12-(12)-12-14-(14)----------14----14-12-|
|--------------------------14-12h14----15-------|
|-----------------------------------------------|

                      ~~~~~~~           ~~
   S  S  S  S  S   S  E  +E     E       E  S  S
|-----------------------------------------------|
|------------------------------14b15------------|
|------------------------------14b16---12----12-|
|-14-14----12-----12-14-(14)--------------14----|
|-------14--------------------------------------|
|-----------------------------------------------|


   E      +S    S      +E      S      +S   +S    S      +E    S  S  S  S
|----------------------------------------------------------------------------|
|-14b15==(14)r-14b15==(14)r---14b15==(14)-(14)r-14b15==(14)r-----------------|
|-14b16==(14)r-14b16==(14)r---14b16==(14)-(14)r-14b16==(14)r-12----12-14b16==|
|---------------------------------------------------------------14-----------|
|----------------------------------------------------------------------------|
|----------------------------------------------------------------------------|


   +S    S  T  T  S  S   S  S  S       +S   +S   S  S  E  +S  T T
|-------12--------------------------------------------------------|
|----------15p12--------------------------------------------------|
|-(14)r----------14-12-----12-14pb16==(14)r(14)-12-14-12-(12)S9p7-|
|-----------------------14----------------------------------------|
|-----------------------------------------------------------------|
|-----------------------------------------------------------------


  E S S +S  S  E  +S  S S  S  S  S S S
|-----------------------7s=9--9--9------|
|-----8-(8)---10-(10)-8-8s10-10-10------|
|-9-9-7-(7)-7--9--(9)-7-7s=9--9--9-9-9--|
|-9-9-----------------------------------|
|---------------------------------------|
|---------------------------------------|


                                                               ~~
    S  S  S  S  +E     E E    S  S  E  S S    S  S S  S  S  S  E  +S   S  S  S  S  S  S  S
|-/12-12-10-12-(12)----0-0---------12-12-x-|-----------------------------------------------|
|-----------10-(10)----------11s12-------x-|--------------------------------------12-------|
|---------------------/9-9-----------------|--------------------------------------12-------|
|------------------------------------------|-14-14-x-12-----x-14-(14)----------14----14-12-|
|------------------------------------------|--------------------------12-12h14-------------|
|------------------------------------------|-----------------------------------------------|


   S  S  S  S  S   S S  S S  S  E    E  +E
|-----------------------------------------------||
|----------12-----12---12---12-12---------------||
|----------12-----12---12---12-12---------------||
|-14-14-14--------------------------14-(14)\----||
|-----------------------------------------------||
|-----------------------------------------------||


   Bridge
   Rhy Fig 4 + 4A x3


 Interlude
  Gtr VI
               ~~~~~~~~~~            ~~~~~~~~~~~~~~~~~~~~~~
   W           H     +Q.     E       W           H     +Q.    E
|-15--------|------------------|--------------|-----------------|
|-----------|-13----(13)----15h|====17--------|-----------------|
|-----------|------------------|--------------|-12----(12)---14-|
|-----------|------------------|--------------|-----------------|
|-----------|------------------|--------------|-----------------|
|-----------|------------------|--------------|-----------------|
|
| Gtr IV
|              ~~~~~~~~~~            ~~~~~~~~~~~~~~~~~~~~~~
|  W           H     +Q.     E    a  W           H     +Q.    E
|-----------|------------------|--------------|-----------------|
|-12--------|--8-----(8)---/10-|-10h12--------|-----------------|
|-----------|------------------|--------------|--9-----(9)---11-|
|-----------|------------------|--------------|-----------------|
|-----------|------------------|--------------|-----------------|
|-----------|------------------|--------------|-----------------|


      ~~~~~~~~~~~~~~                ~~~~~~~~~~
      W           H     +Q.    E    H     +Q.          S  S
|--------------|-----------------|---------------------------|
|----12--------|-----------------|-12----(12)---------12h13--|
|--------------|-12----(12)---14-|---------------------------|
|--------------|-----------------|---------------------------|
|--------------|-----------------|---------------------------|
|--------------|-----------------|---------------------------|
|
|     ~~~~~~~~~~~~~~~~~~~~~~~~~~~~~~~~~~~~~~~~~~~~~~~~
|  a  W           H     +Q.    E    H     +E. +S  +Q
|--------------|-----------------|---------------------------|
|--------------|-----------------|---------------------------|
|-11h12--------|-\5-----(5)----4-|-/9-----(9)-(9)-(9)--------|
|--------------|-----------------|---------------------------|
|--------------|-----------------|---------------------------|
|--------------|-----------------|---------------------------|


    ~~~~~~~~~~
    W
|------------------------------------------------------------------------------------------------------------------|
|--12--------------------------------------------------------------------------------------------------------------|
|------------------------------------------------------------------------------------------------------------------|
|------------------------------------------------------------------------------------------------------------------|
|------------------------------------------------------------------------------------------------------------------|
|------------------------------------------------------------------------------------------------------------------|
|
|   |-------3--------|
|  +E         +E    +E         +S    +S         +S    +S         +E    +S         +S    +E         +S    +S
|------------------------------------------------------------------------------------------------------------------|
|------------------------------------------------------------------------------------------------------------------|
|-(<9>)b9.5==(<9>)r(<9>)b9.5==(<9>)r(<9>)b9.5==(<9>)r(<9>)b9.5==(<9>)r(<9>)b9.5==(<9>)r(<9>)b9.5==(<9>)r(<9>)b9.5==|
|------------------------------------------------------------------------------------------------------------------|
|------------------------------------------------------------------------------------------------------------------|
|------------------------------------------------------------------------------------------------------------------|


    E.                     S         +E     E    +S    E.  E  E
|---------------------------------------------------------14----||
|--12---------------------13--------(13)---15---(15)--17-----15-||
|---------------------------------------------------------------||
|---------------------------------------------------------------||
|---------------------------------------------------------------||
|---------------------------------------------------------------||
|
|                                                 ~~~~~
|  +S    +S         +S    +S         +E    +E    +H
|---------------------------------------------------------------||
|---------------------------------------------------------------||
|-(<9>)r(<9>)b9.5==(<9>)r(<9>)b9.5==(<9>)r(<9>)-(<9>)-----------||
|---------------------------------------------------------------||
|---------------------------------------------------------------||
|---------------------------------------------------------------||


   E.      S   +E    E  +S    E.  E  E
|---------14--(14)--15-(15)-/17--19-17-||
|-17-----------------------------------||
|--------------------------------------||
|--------------------------------------||
|--------------------------------------||
|--------------------------------------||
|
|               TP
|  S  S S  S    H.
|--------------------------------------||
|--------------------------------------||
|--------------------------------------||
|--------------------------------------||
|--------------------------------------||
|--x\-0-0-<2>--<2>/--------------------||


 Outro - Double Time Feel
   E.      S      +E      E      +E      E     Q
|-15------15-----(15)----15-----(15)----14----14--------|
|-18b20---18b20==(18)r---18b20==(18)r---17b19-17b19-----|
|-------------------------------------------------------|
|-------------------------------------------------------|
|-------------------------------------------------------|
|-------------------------------------------------------|
|
|Gtrs IV, V
|       PM             PM         PM--|
|  E    S  S      +S   S  E       S   S  e     E    S S
|-------------------------------------------------------|
|-------------------------------------------------------|
|----------------------------------------7-----7----x-x-|
|--2-------2------(2)-----2--------------7-----7----x-x-|
|--2-------2------(2)-----2--------------5-----5----x-x-|
|--0----0--0------(0)--0--0-------0---0-----------------|
|-Rhy Fig 5

   E.      S      +E      E      +E      E     Q
|-12------12-----(12)----12-----(12)----14----14--------|
|-15b17---15b17==(15)r---15b17==(15)r---17b19-17b19-----|
|-------------------------------------------------------|
|-------------------------------------------------------|
|-------------------------------------------------------|
|-------------------------------------------------------|
|
|       PM             PM
|  E    S  S      +S   S  E       S   S  e     E    S S
|-------------------------------------------------------|
|-------------------------------------------------------|
|--5-------5------(5)-----5-------x---x--7-----7----x-x-|
|--5-------5------(5)-----5-------x---x--7-----7----x-x-|
|--3----3--3------(3)--3--3-------x---x--5-----5----x-x-|
|-------------------------------------------------------|
                                          end Rhy Fig 5-|

w/Rhy Fig 5 to end
                          ~~~~~~~~~~~~
                                               |-----3-----|
   E.      S      +E      E      +E      S  S  S      +S   S  S  T      +T
|-15------15-----(15)----15-----(15)----15-17-17pb19r(17)p15-17-17pb19r(17)-|
|-18b20---18b20==(18)r---18b20==(18)r---------------------------------------|
|---------------------------------------------------------------------------|
|---------------------------------------------------------------------------|
|---------------------------------------------------------------------------|
|---------------------------------------------------------------------------|


                                                                                 ~~
    |-----------6-----------|                   |--3---|  |------3------|
   +S   S  S  S      +S     S  S   T      +T   +S   S  S  S      +S     S  S  S  Q
|-(17)p15-17-17pb19r(17)p==15-17--17pb19r(17)-(17)p15-17-17pb19r(17)p==15-17-15--------|
|-------------------------------------------------------------------------------15-----|
|--------------------------------------------------------------------------------------|
|--------------------------------------------------------------------------------------|
|--------------------------------------------------------------------------------------|
|--------------------------------------------------------------------------------------|


   E.      S      +E      E      +E      E     Q
|-15------15-----(15)----15-----(15)----14----14--------|
|-18b20---18b20==(18)r---18b20==(18)r---17b19-17b19-----|
|-------------------------------------------------------|
|-------------------------------------------------------|
|-------------------------------------------------------|
|-------------------------------------------------------|


                                               ~~~~~
   E.      S      +E      E      +E      E     Q
|-12------12-----(12)----12-----(12)----14----14--------|
|-15b17---15b17==(15)r---15b17==(15)r---17b19-17b19-----|
|-------------------------------------------------------|
|-------------------------------------------------------|
|-------------------------------------------------------|
|-------------------------------------------------------|


                                               |--3--|
   E.      S      +S   S   E     E       S  S  T  T  T  S  S  S
|-15------15-----(15)-15--15----15------15-19-15h19p15----15-19-|
|-18b20---18b20==(18)-18r-18b20-18b20------------------17-------|
|---------------------------------------------------------------|
|---------------------------------------------------------------|
|---------------------------------------------------------------|
|---------------------------------------------------------------|


                                                       ~~
   |--3--|           |--3---|
   T  T  T  S  S  S  T   T  T  S  S  S  T  T  S  S  S  Q
|-15h19p15----15-19-15h=19p15----15-19-19p15----15-17--------|
|----------17-----------------17-------------17-------15-----|
|------------------------------------------------------------|
|------------------------------------------------------------|
|------------------------------------------------------------|
|------------------------------------------------------------|


   E.      S      +E      E      +E      E     Q
|-15------15-----(15)----15-----(15)----14----14--------|
|-18b20---18b20==(18)r---18b20==(18)r---17b19-17b19-----|
|-------------------------------------------------------|
|-------------------------------------------------------|
|-------------------------------------------------------|
|-------------------------------------------------------|


                                               ~~~~~
   E.      S      +E      E      +E      E     Q
|-12------12-----(12)----12-----(12)----14----14--------|
|-15b17---15b17==(15)r---15b17==(15)r---17b19-17b19-----|
|-------------------------------------------------------|
|-------------------------------------------------------|
|-------------------------------------------------------|
|-------------------------------------------------------


                                               ~~~~~
   E.      S      +E      E      +E      E     Q
|-15------15-----(15)----15-----(15)----17----17--------|
|-18b20---18b20==(18)r---18b20==(18)r---20b22-20b22-----|
|-------------------------------------------------------|
|-------------------------------------------------------|
|-------------------------------------------------------|
|-------------------------------------------------------|


   S     S  S  S      +S    S  S     S  S     S  S     S  S     S  S     S
|-19----19-19--------------19-------19-------19-------19-------19-------19-|
|-22b24-------22b24==(22)r----22b24----22b24----22b24----22b24----22b24----|
|--------------------------------------------------------------------------|
|--------------------------------------------------------------------------|
|--------------------------------------------------------------------------|
|--------------------------------------------------------------------------|


   S     S  S     S  S     S  S  S      +S    S  S     S  S     S  S  S
|-------19-------19-------19-19--------------19-------19-------19-19-------|
|-22b24----22b24----22b24-------22b24==(22)r----22b24----22b24-------22b24-|
|--------------------------------------------------------------------------|
|--------------------------------------------------------------------------|
|--------------------------------------------------------------------------|
|--------------------------------------------------------------------------|


   S     S  S     S  S     S  S     S  S     S  S     S  S     S  S     S
|-------19-------19-------19-------19-------19-------19-------19-------19-|
|-22b24----22b24----22b24----22b24----22b24----22b24----22b24----22b24----|
|-------------------------------------------------------------------------|
|-------------------------------------------------------------------------|
|-------------------------------------------------------------------------|
|-------------------------------------------------------------------------|


                              |-----5-----|
   S     +S   S  S  S   T  T  T  T  T  T  T  T  T  S  S  S  S  S  S  S
|-22b24r(22)-19-20-22--20p19-19h20p19-20p19-20p19-17-15-17-15-14----14--|
|----------------------------------------------------------------17-----|
|-----------------------------------------------------------------------|
|-----------------------------------------------------------------------|
|-----------------------------------------------------------------------|
|-----------------------------------------------------------------------|


   S     +S   S  S  S   S    S  S     +S   S  T  T  S  a  E E
|---------------------------------------------------------------|
|-17b20r(17)-15----15--17b20---17b20r(17)-15-17p15----15h17-----|
|---------------16---------------------------------16-----------|
|---------------------------------------------------------------|
|---------------------------------------------------------------|
|---------------------------------------------------------------|


   S S  S S  S  S  S S S  S  S  S  S      +S    E
|----------------------------------------------------|
|-12---12---12----12-----14-14-12-12-----------12----|
|-12---12---12----12-----14-14-12-12b15==(12)r-12----|
|----------------------------------------------------|
|----------------------------------------------------|
|----------------------------------------------------|


   PM---|                                       ~~~
   S  S  S  S  S   S S  S S  S  S      +S    T  S.  S  S
|--------------------------------------------------------|
|--------------------------------------------------------|
|------------------------------12b14==(12)r-12--------12-|
|-------12-14-----14---14---14-----------------14--14----|
|-12-14--------------------------------------------------|
|--------------------------------------------------------|


         |---3---|
   S  S  S  S    S  S   S  S  S  S      +E     S      +S   a      +E     S
|-------------------------------------------------------------------------------|
|----12-15p12------12-----------------------------------------------------------|
|-14------------14-12-----12-14-14pb16r(14)---14pb16r(14)-14pb16r(14)---14pb16r=|
|----------------------14-------------------------------------------------------|
|-------------------------------------------------------------------------------|
|-------------------------------------------------------------------------------|


                                    ~~~~~~~
   +E   S  S  S   S  S  S  S  S  S  S  +S.  T  S  S
|---------------------------------------------------|
|----------------------15---------------------------|
|-(14)-12----12--14s16----16s14-12------------------|
|---------14-----------------------14-(14)-14-14-14-|
|---------------------------------------------------|
|---------------------------------------------------|


         |---3---|  |--------6--------|  |-------6--------|  |-------6--------|
   S  S  S  S    S  S   S    S  S  S  S  S  S    S  S  S  S  S  S  S  S  S    S
|--------------------------------------------------------------------------------|
|-------12---------------------12------------------12----------------12----------|
|-12-14----15---14-12--14---12----15-14-12-14---15----15-14-12-14-15----15---14--|
|--------------------------------------------------------------------------------|
|--------------------------------------------------------------------------------|
|--------------------------------------------------------------------------------|


                                                                            ~~
                                     |-----5-----|
   T  T  T  T  S  T  T  T   T  T  T  T  T  T  T  T  T  T  T  T  T  T  T  T  E  S  S
|-----------------------------------------------------------------------------------|
|-----------------------------12----------------------------------------------------|
|-12h14p12----12----12-14h=15----15-14-12h14p12----12h14p12----12h14p12----12----12-|
|----------14----14-----------------------------14----------14----------14----14----|
|-----------------------------------------------------------------------------------|
|-----------------------------------------------------------------------------------|


   |-------6--------|  |--------6--------|
   S  S  S  S  S    S  S   S    S  S  S  S  T  T  S  S  S  S  S   S  S
|-------------------------------------------------------------------------|
|-------12----------------------------------------------------------15----|
|-14-15----15-14---12-14p=12------12----------------------12-14-/16-------|
|------------------------------14----14-12-14p12----12-14-----------------|
|------------------------------------------------14-----------------------|
|-------------------------------------------------------------------------|


    S  S  a  S  T  T  T   T  S  S  S  S  S  S  S      +S   +S   S  S
|-----15-15h19-19p17-17p=15----15------------------------------------|
|-/17-----------------------17----17-15----15-17b20==(17)r(17)-15-17-|
|---------------------------------------17---------------------------|
|--------------------------------------------------------------------|
|--------------------------------------------------------------------|
|--------------------------------------------------------------------|


      ~~
   a  Q      S     +S   S  S  a  Q     Q
|--------------------------------------------*|
|-15h17-----17b20r(17)-15-17-15h17-----------*|
|--------------------------------------------*|
|--------------------------------------------*|
|--------------------------------------------*|
|--------------------------------------------*|
comments
print report bad tab
1 comment total.
+1 reply
r_lightning wrote on September 10 2004, 12:00 am

I gave u 4stars cuz I'm cool

I want to post or [tab]
guest
You may want to rate the tab now too:
select rating
Please do not post tabs as comments. Select "correction" instead!