Oops, an error
Loading. Please wait.

Astronomy Tab

ver5
ver5

Whole song

Interactive

More versions @911Tabs.com
5,206 views 18 this week
no commentswrite comment
1 2 3 4 5
accurate
x 4
Autoscroll
+/-
esc
set tempo
stop
Difficulty
intermediate
WARNING: You are trying to view
                                    content from Ultimate-Guitar.com
                                    in an unauthorized application,
                                    which is prohibited.

                                    Please use an official Ultimate
                                    Guitar Tabs application for iPhone,
                                    iPad or Android to access legitimate
                                    chords, guitar, bass, and drum tabs
                                    from Ultimate-Guitar.com database.

                                    Type "ultimate guitar tabs" in Apple
                                    App Store's or Android Market's
                                    search to find the application.
Artist: METALLICA 
song  : Astonomy
Album : Garage INC. 
Originally recorded by the Blue Oyster Cult.
Tabbed by Robbie

This is one of my favorites and I coul'nd find anywhere A decent tab that is Correct
or readeble. And im sure my spelling and Grammar suck to 
cuz im Dutch. so my apologies for that. This is also my first tab It's not 100%
complete cuz there is no solo in it and I did'nt put in the tab
for both guitars. but this will let you play along troughout the whole song. 
~~~~~~~~~~~~~~~~~~~~~~~~~~~~~~~~~~~~~~~~~~~~~~~~~~~~~~~~~~~~~~~~~~~~~~~~~~~~
intro    e|--5------|----5-9h10-|-5----------|---------|
         B|5---8-7-5|--7--------|---8-5------|---------|
         G|---------|7----------|-------7-6--|---------|
         D|---------|-----------|-----------7|------7-5|
         A|---------|-----------|------------|9-5-7----|
         E|---------|-----------|------------|---------|

Part A   e|--0-0-------|
         B|--0-0-0-----|
         G|--0-0--2-0--| 
         D|--2-2-------|
         A|--2-2-------|
         E|--0-0-------|

Part B   e|--0--2--0-----0|    |-0--3--0-----0--2--0-----0|
         B|--0--3--1--0--0|    |-1--3--1-----0--3--1--0--0|
         G|--0--2--0--0--0|    |-0--0--0--4--0--2--0--0--0| 
         D|--2--0--2--0--2|    |-2--0--2--4--2--0--2--0--2|
         A|--2-----3--2--2|    |-3-----3--2--2-----3--2--2|
         E|--0-----------0|<2X |----3--------0-----------0|

Part Ce|-7-5---5--------|--7-5---5-------|--7-5---5--------|--7-5---5-----|
      B|-----8---8-7----|------8---8-5---|------8---8-7----|------8---8-5-|
      G|----------------|----------------|-----------------|--------------|
      D|----------------|----------------|-----------------|--------------|
      A|----------------|----------------|-----------------|--------------|
      E|----------------|----------------|-----------------|--------------|


 e|-7-5---5---------|--7-5---5--------|--7-5---5--------|--7-5---5---------|
 B|-----8---8-8-7---|------8---8-8-5--|------8---8-8-7--|------8---8-8-5---|
 G|-----------------|-----------------|-----------------|------------------|
 D|-----------------|-----------------|-----------------|------------------|
 A|-----------------|-----------------|-----------------|------------------|
 E|-----------------|-----------------|-----------------|------------------|

Part D   e|--------------------------|
         B|--------------------------|
         G|--9--9-9--5-5--7-7-7--9-9-|
         D|--9--9-9--5-5--7-7-7--9-9-|
         A|--7--7-7--3-3--5-5-5--7-7-|
         E|--0-0--0--------------0-0-|

Part E   e|--11-9----9----------------------------------------------|
         B|-------12---12-9-----------------------------------------|
         G|-------------------14-12----12---------------------------|
         D|-------------------------15----15-12---11-9----9---------|
         A|--------------------------------------------12---12-9----|
         E|---------------------------------------------------------|

outro    e|--------------------------|
         B|--------------------------|
         G|--9--9-9--7-7--5-5-5--7-7-|
         D|--9--9-9--7-7--5-5-5--7-7-|
         A|--7--7-7--5-5--3-3-3--5-5-|
         E|--0-0--0------------------|

----------------------------------------------------------------------------
 INTRO   e|--5------|----5-9h10-|-5----------|---------|
         B|5---8-7-5|--7--------|---8-5------|---------|
         G|---------|7----------|-------7-6--|---------|
         D|---------|-----------|-----------7|------7-5|
         A|---------|-----------|------------|9-5-7----|
         E|---------|-----------|------------|---------|

Part A   e|--0-0-------|
         B|--0-0-0-----|
         G|--0-0--2-0--| 
         D|--2-2-------|
         A|--2-2-------|
         E|--0-0-------|
~~~~~~~~~~~~~~~~~~~~~~~~~~~~~~~~~~~~~~~~~~~~~~~~~~~~~~~~~~~~~~~~~~~~~~~~~~~~
Part B   e|--0--2--0-----0|    |-0--3--0-----0--2--0-----0|
         B|--0--3--1--0--0|    |-1--3--1-----0--3--1--0--0|
         G|--0--2--0--0--0|    |-0--0--0--4--0--2--0--0--0| 
         D|--2--0--2--0--2|    |-2--0--2--4--2--0--2--0--2|
         A|--2-----3--2--2|    |-3-----3--2--2-----3--2--2|
         E|--0-----------0|<2X |----3--------0-----------0|
          
         Clock strikes twelve and moondrops burst
         Out at you from their hiding place
         Like acid and oil on a madman's face
         His reason tends to fly away
         Like lesser birds on the four winds
         Like silver scrapes in May
         And now the sand's become a crust
         Most of you have gone away
~~~~~~~~~~~~~~~~~~~~~~~~~~~~~~~~~~~~~~~~~~~~~~~~~~~~~~~~~~~~~~~~~~~~~~~~~~~~
Part B   e|--0--2--0-----0|    |-0--3--0-----0--2--0-----0|
         B|--0--3--1--0--0|    |-1--3--1-----0--3--1--0--0|
         G|--0--2--0--0--0|    |-0--0--0--4--0--2--0--0--0|
         D|--2--0--2--0--2|    |-2--0--2--4--2--0--2--0--2|
         A|--2-----3--2--2|    |-3-----3--2--2-----3--2--2|
         E|--0-----------0|<2X |----3--------0-----------0|

         Come Susie dear, let's take a walk
         Just out there upon the beach
         I know you'll soon be married
         And you'll want to know where winds come from
         Well it's never said at all
         On the map that Carrie reads
         Behind the clock back there you know
         At the Four Winds Bar
~~~~~~~~~~~~~~~~~~~~~~~~~~~~~~~~~~~~~~~~~~~~~~~~~~~~~~~~~~~~~~~~~~~~~~~~~~~~
Part Ce|-7-5---5--------|--7-5---5-------|--7-5---5--------|--7-5---5------
      B|-----8---8-7----|------8---8-5---|------8---8-7----|------8---8-5---
      G|----------------|----------------|-----------------|----------------
      D|----------------|----------------|-----------------|----------------
      A|----------------|----------------|-----------------|----------------
      E|----------------|----------------|-----------------|----------------


  e|-7-5---5---------|--7-5---5--------|--7-5---5--------|--7-5---5--------|
  B|-----8---8-8-7---|------8---8-8-5--|------8---8-8-7--|------8---8-8-5-7|
  G|-----------------|-----------------|-----------------|-----------------|
  D|-----------------|-----------------|-----------------|-----------------|
  A|-----------------|-----------------|-----------------|-----------------|
  E|-----------------|-----------------|-----------------|-----------------|
                                                                                  
YEAH HEY!!!
~~~~~~~~~~~~~~~~~~~~~~~~~~~~~~~~~~~~~~~~~~~~~~~~~~~~~~~~~~~~~~~~~~~~~~~~~~~~
Part D   e|--------------------------|
         B|--------------------------|
         G|--9--9-9--5-5--7-7-7--9-9-|
         D|--9--9-9--5-5--7-7-7--9-9-|
         A|--7--7-7--3-3--5-5-5--7-7-|
         E|--0-0--0--------------0-0-|repeat 10 times
         Hey! Hey! Hey! Hey!

         Four winds at the Four Winds Bar
         Two doors locked and windows barred
         One door to let to take you in
         The other one just mirrors it

         Hey! Hey! Hey! Hey!

         Hellish glare and inference
         The other one's a duplicate
         The Queenly flux, eternal light
         Or the light that never warms
         Yes the light that never, never warms
         Or the light that never
         Never warms
         Never warms
         Never warms
~~~~~~~~~~~~~~~~~~~~~~~~~~~~~~~~~~~~~~~~~~~~~~~~~~~~~~~~~~~~~~~~~~~~~~~~~~~~
Part E   e|--11-9----9----------------------------------------------|
         B|-------12---12-9-----------------------------------------|
         G|-------------------14-12----12---------------------------|
         D|-------------------------15----15-12---11-9----9---------|
         A|--------------------------------------------12---12-9----|
         E|---------------------------------------------------------|
~~~~~~~~~~~~~~~~~~~~~~~~~~~~~~~~~~~~~~~~~~~~~~~~~~~~~~~~~~~~~~~~~~~~~~~~~~~~
Part A   e|--0-0-------|
         B|--0-0-0-----|
         G|--0-0--2-0--| 
         D|--2-2-------|
         A|--2-2-------|
         E|--0-0-------|
~~~~~~~~~~~~~~~~~~~~~~~~~~~~~~~~~~~~~~~~~~~~~~~~~~~~~~~~~~~~~~~~~~~~~~~~~~~~
Part B   e|--0--2--0-----0|    |-0--3--0-----0--2--0-----0|
         B|--0--3--1--0--0|    |-1--3--1-----0--3--1--0--0|
         G|--0--2--0--0--0|    |-0--0--0--4--0--2--0--0--0| 
         D|--2--0--2--0--2|    |-2--0--2--4--2--0--2--0--2|
         A|--2-----3--2--2|    |-3-----3--2--2-----3--2--2|
         E|--0-----------0|<2X |----3--------0-----------0|
          
        The clock strikes twelve and moondrops burst
        Out at you from their hiding place
        Miss Carrie nurse and Susie dear
        Would find themselves at Four Winds Bar

        It's the nexus of the crisis
        And the origin of storms
        Just the place to hopelessly
        Encounter time and then came me
~~~~~~~~~~~~~~~~~~~~~~~~~~~~~~~~~~~~~~~~~~~~~~~~~~~~~~~~~~~~~~~~~~~~~~~~~~~~
Part Ce|-7-5---5--------|--7-5---5-------|--7-5---5--------|--7-5---5-------
      B|-----8---8-7----|------8---8-5---|------8---8-7----|------8---8-5---
      G|----------------|----------------|-----------------|----------------
      D|----------------|----------------|-----------------|----------------
      A|----------------|----------------|-----------------|----------------
      E|----------------|----------------|-----------------|----------------


  e|-7-5---5---------|--7-5---5--------|--7-5---5--------|--7-5---5--------|
  B|-----8---8-8-7---|------8---8-8-5--|------8---8-8-7--|------8---8-8-5-7|
  G|-----------------|-----------------|-----------------|-----------------|
  D|-----------------|-----------------|-----------------|-----------------|
  A|-----------------|-----------------|-----------------|-----------------|
  E|-----------------|-----------------|-----------------|-----------------|
                                                                                  YEAH HEY!!!
~~~~~~~~~~~~~~~~~~~~~~~~~~~~~~~~~~~~~~~~~~~~~~~~~~~~~~~~~~~~~~~~~~~~~~~~~~~~
SOLO "SORRY PEOPLE I COULDNT FIGURE IT OUT Neither FIND IT ANYWHERE ELSE ON THE INTERNET"
Part D   e|--------------------------|
         B|--------------------------|
         G|--9--9-9--5-5--7-7-7--9-9-|
         D|--9--9-9--5-5--7-7-7--9-9-|
         A|--7--7-7--3-3--5-5-5--7-7-|
         E|--0-0--0--------------0-0-|
         Hey! Hey! Hey! Hey!

         Call me Desdinova
         Eternal light
         These gravely digs of mine
         Will surely prove a sight
         And don't forget my dog
         Fixed and consequent
~~~~~~~~~~~~~~~~~~~~~~~~~~~~~~~~~~~~~~~~~~~~~~~~~~~~~~~~~~~~~~~~~~~~~~~~~~~~
missing this part to sorry
~~~~~~~~~~~~~~~~~~~~~~~~~~~~~~~~~~~~~~~~~~~~~~~~~~~~~~~~~~~~~~~~~~~~~~~~~~~~
outro solo is missing to sorry for that to.
outro    e|--------------------------|
         B|--------------------------|
         G|--9--9-9--7-7--5-5-5--7-7-|
         D|--9--9-9--7-7--5-5-5--7-7-|
         A|--7--7-7--5-5--3-3-3--5-5-|
         E|--0-0--0------------------|
         Astronomy...a star 
~~~~~~~~~~~~~~~~~~~~~~~~~~~~~~~~~~~~~~~~~~~~~~~~~~~~~~~~~~~~~~~~~~~~~~~~~~~~
comments
print report bad tab
I want to post or [tab]
guest
You may want to rate the tab now too:
select rating
Please do not post tabs as comments. Select "correction" instead!