Oops, an error
Loading. Please wait.

Battery Drum Tab

7,121 views 15 this week
no commentswrite comment
1 2 3 4 5
excellent!
x 1
Autoscroll
+/-
esc
set tempo
stop
Contributor
WARNING: You are trying to view
                                    content from Ultimate-Guitar.com
                                    in an unauthorized application,
                                    which is prohibited.

                                    Please use an official Ultimate
                                    Guitar Tabs application for iPhone,
                                    iPad or Android to access legitimate
                                    chords, guitar, bass, and drum tabs
                                    from Ultimate-Guitar.com database.

                                    Type "ultimate guitar tabs" in Apple
                                    App Store's or Android Market's
                                    search to find the application.
Battery
Metallica
Master Of Puppets (1986)


Note: t1= small tom t2= second smallest tom, ect.  C=choke.



Intro

| repeat 16x     |  repeat 8x     |
C  |----------------|X-----X---------|X---X---X---X---|
T3 |----------------|----oo----------|----------------|
T4 |----------------|----oo----------|----------------|
B  |----------------|0-----0---------|0---0---0---0---|

Tempo speeds up
|  repeat 3x     |
C  |c---------------|----------------|C---------C-C-C-|C---------------|
B  |0---------------|----------------|0---------0-0-0-|0---------------|

C  |----------------|--X---X---X-----|X---------------|----------------|
H  |----------------|----------------|--x-x-x-x-x-x-x-|x-x-x-x-x-x-x-x-|
S  |----------------|o-------------o-|--o---o---o---o-|--o---o---o---o-|
B  |----------------|--0---0---0-----|0---00--0----0--|0---00--0----0--|

C  |----------X-----|--X-------------|-------X---X-----|----------------|
H  |x-x-x-x-x---x-x-|x---x-x-x-x-x-x-|x------------x-x-|x-x-x-x-x-x-x-x-|
S  |--o---o---o---o-|--o---o---------|-------o---o---o-|--o---o---o---o-|
t1 |----------------|----------o---o-|o-ttto-----------|----------------|
B  |0---00--0----0--|0---00--0---00--|0----00--0----0--|0---00--0----0--|

C  |--X-------------|----------------|X----------------|-----------------|
H  |x---x-x-x-x-x-x-|--x---x---x-----|----x-x-x-x--x-x-|x-x-x-x-x-x--x-x-|
S  |--o---o---o---o-|o-------------o-|----o--------o---|----o--------o---|
B  |0---00--0---00--|--0---0---0-----|0---------ttt----|0---------ttt----|

C  |------------X---|
H  |x-x-x-x---------|
S  |----o-----------|
t3 |--------o-o-----|
t4 |--------o-o-----|
B  |0-----------0---|

Verse 1

C  |X---------------|----------------|----------------|--X---X---------|
H  |--x-x-x-x-x-x-x-|x-x-x-x-x-x-x-x-|x-x-x-x-x-x-x-x-|x---x---x-x-x-x-|
S  |--o---o---o---o-|--o---o---o---o-|--o---o---o---o-|--o---o---------|
t1 |----------------|----------------|----------------|----------o---o-|
B  |0---00--0----0--|0---00--0----0--|0---00--0---0---|0---00--0---0---|

C  |--X-------------|----------------|----------------|----------------|
H  |x---x-x-x-x-x-x-|x-x-x-x-x-x-x-x-|x-x-x-x-x-x-x-x-|x-x-x-x-x-x-x-x-|
S  |--o---o---o---o-|--o---o---o---o-|--o---o---o---o-|----------o---o-|
t1 |----------------|----------------|----------------|--o---o---------|
B  |0---00--0----0--|0---00--0----0--|0---00--0---00--|0---00--0----0--|

|  repeat 2x      |
C  |X----------------|
H  |----x-x-x-x--x-x-|
S  |----o--------o---|
B  |0---------ttt----|

C  |X-----------X---|X---------------|----------X---X-|
H  |----x-x---------|--x-x-x-x-x-x-x-|x-x-x-x-x---x---|
S  |----o-----------|--o---o---o---o-|--o---o---o---o-|
t3 |--------o-o-----|----------------|----------------|
t4 |--------o-o-----|----------------|----------------|
B  |0-----------0---|0---00--0---00--|0---00--0---00--|

| repeat 2x
C  |----------------|----------X---X-|X----------------|
H  |x-x-x-x-x-x-x-x-|x-x-x-x-x---x---|----x-x-x-x--x-x-|
S  |--o-------------|----------o---o-|----o--------o---|
t1 |------o---o---o-|--o---o---------|-----------------|
B  |0---00--0---00--|0---00--0---00--|0---------ttt----|

C  |------------X---|X---------------|--X-------------|X-------X-------|
H  |----------------|--x-x-x-x-x-x-x-|x---x-x-x-x-x-x-|----------------|
S  |o-ooo-o---------|--o---o---o---o-|--o-----------o-|----------------|
T2 |----------------|----------------|----------------|----oooo--------|
T3 |--------o-o-----|----------------|----------------|------------oooo|
T4 |--------o-o-----|----------------|----------------|----------------|
B  |------------0---|0---00--0---00--|0---00--0---00--|0-------0-------|

C  |X-------X---X---|X---------------|----------X---X-|
H  |----------------|--x-x-x-x-x-x-x-|x-x-x-x-x---x---|
S  |----oooo--------|--o---o---o---o-|--o-------o---o-|
B  |0-------0---0---|0---00--0----0--|0---00--0---00--|

5/4 C  |----------------X-X-|
H  |x-x-x-x-x-x-x-x-----|
S  |--------------o-o-o-|
B  |0---00--0---0-------|

C  |----------------|----------X---X-|----------------|X---X---C-------|
H  |x-x-x-x-x-x-x-x-|x-x-x-x-x---x---|x-x-x-x-x-x-x-x-|----------------|
S  |--o---o---o---o-|--o---o---o---o-|--o---o-------o-|----------------|
B  |0---00--0----0--|0---00--0---00--|0---00--0---00--|0---0---0-------|


| repeat 2x       |
C  |X----------------|------------X---|
H  |----x-x-x-x--x-x-|----------------|
S  |----o--------o---|ooooo-o---------|
t1 |-----------------|--------o-o-----|
B  |0---------ttt----|------------0---|

Verse 2

C  |X---------------|----------------|--X-------------|--X-------------|
H  |--x-x-x-x-x-x-x-|x-x-x-x-x-x-x-x-|x---x-x-x-x-x-x-|x---x-x-x-x-x-x-|
S  |--o---o---o---o-|--o---o---o---o-|--o---o---o---o-|--o---o---------|
t1 |----------------|----------------|----------------|----------o---o-|
B  |0---00--0----0--|0---00--0----0--|0---00--0---00--|0---00--0---00--|

C  |--X-------------|----------X---X-|----------------|--------------X-|
H  |x---x-x-x-x-x-x-|x-x-x-x-x---x---|x-x-x-x-x-x-x-x-|x-x-x-x-x-x-x---|
S  |--o---o---o---o-|--o---o---o---o-|--o---o---o-----|--------------o-|
t1 |----------------|----------------|--------------o-|--o---o---o-----|
B  |0---00--0----0--|0---00--0----0--|0---00--0---00--|0---00--0----0--|




C  |X----------------|X----------------|
H  |--x-x-x-x-x--x-x-|--x-x-x-x-x--x-x-|
S  |----o--------o---|----o--------o---|
B  |0---------ttt----|0---------ttt----|

C  |X-----------X---|X---------------|--X-------X-----|----------------|
H  |----x-x---------|--x-x-x-x-x-x-x-|x---x-x-x---x-x-|x-x-x-x-x-x-x-x-|
S  |----o-----------|--o---o---o---o-|--o---o---o---o-|----------------|
t1 |----------------|----------------|----------------|--o---o---o---o-|
t4 |--------o-o-----|----------------|----------------|----------------|
Ft |--------o-o-----|----------------|----------------|----------------|
B  |0-----------0---|0---00--0----0--|0---00--0---00--|0---00--0---00--|

|  repeat 2x      |
C  |--X---X---------|X----------------|------------X---|X---------------|
H  |x---x---x-x-x-x-|----x-x-x-x--x-x-|----------------|--x-x-x-x-x-x-x-|
S  |--o---o---o---o-|----o--------o---|o-ooo-o---------|--o---o---o---o-|
t4 |----------------|-----------------|--------o-o-----|----------------|
Ft |----------------|-----------------|--------o-o-----|----------------|
B  |0---00--0---00--|0---------ttt----|------------0---|0---00--0---00--|

C  |----------------|X-------X-------|X-------X---X---|X---------------|
H  |x-x-x-x-x-x-x-x-|----------------|----------------|--x-x-x-x-x-x-x-|
S  |--o---o---o---o-|----------------|----oooo--------|--o---o---o---o-|
t2 |----------------|----oooo--------|----------------|----------------|
t3 |----------------|------------oooo|----------------|----------------|
B  |0---00--0---00--|0-------0-------|0-------0---0---|0---00--0----0--|

C  |----------------|    |----------------X-X-|    |----------------|
H  |x-x-x-x-x-x-x-x-| 5/4|x-x-x-x-x-x-x-x-----| 4/4|x-x-x-x-x-x-x-x-|
S  |--o---o---o---o-|    |--o---o---o---o-o-o-|    |--o---o---o---o-|
B  |0---00--0----0--|    |0---00--0---0-------|    |0---00--0---00--|

C  |--X---X---------|--X-------------|X---X---C-------| not |X---------------|
H  |x---x---x-x-x-x-|x---x-x-x-x-x-x-|----------------| in  |----------------|
S  |--o---o---------|--o---o---o---o-|----------------| time|----------------|
t1 |----------o---o-|----------------|----------------|     |----------------|
B  |0---00--0---00--|0---00--0---00--|0---0---0-------|     |0---------------|

Interlude
C  |X---------------|----------------|----------------|----------------|
H  |----x-x-x-x-x-x-|x-x-x-x-x-x-x-x-|x-x-x-x-x-x-x-x-|x-x-x-x-x-x-x-x-|
S  |--------o-------|--------o---o---|--------o-------|o-------o-------|
B  |0-----0---0---0-|0---0-0---0---0-|0---0-0---------|--0---0---0---0-|

C  |--------X---X---|------------X---|X---------------|--------X-X-----|
H  |x-x-x-x---------|x-x-x-x-x-x-----|----x-x-x-x-x-x-|x-x-x-x---------|
S  |--------o---o---|--------0---0---|--------o-------|--------o-o-----|
B  |0---0-0---------|0-----0---------|0-----0-------0-|0-----d-o-o-----|

C  |X---------------|----------------|--------X-------|------------X---|
H  |--x-x-x-x-x-x-x-|x-x-x-x-x-x-x-x-|x-x-x-x---x-x-x-|x-x-x-x-x-x-----|
S  |--------o-------|--------o---o---|--------o-------|o-o---o-o---o---|
B  |0-----0---0---0-|0---0-0---0---0-|0---0-0-------0-|----o-----------|

C  |X---------------|------------X---|X---------------|X---------------|
H  |--x-x-x-x-x-x-x-|x-x-x-x-x-x-----|--x-x-x-x-x-x-x-|----------------|
S  |--------o-------|--------o---o---|--------o-------|o-ooo-o---------|
t4 |----------------|----------------|----------------|--------o-o-o-o-|
B  |0-----0---0---0-|0-----d---------|0-----0-------0-|----------------|



C  |X---------------|------------X---|X---------------|----------------|
H  |----x-x-x-x-x-x-|x-x-x-x-x-x-----|----x-x-x-x-x-x-|x-x-x-x-x-------|
S  |--------o-------|--------o---o---|--------o-------|----------ooo-o-|
B  |0-----0---0---0-|0-----d---------|0-----0---0---0-|0-----0---------|




| t=16th notetriplet
|
C  |--------X-------|X-----X-----X---|X---------------|--------------------|
H  |x-x-x-x---------|----------------|----------------|--------------------|
S  |--------o-------|----------------|----------------|F-tt----F-tt----F---|
T4 |------------o-o-|----------------|----------------|--------------------|
Ft |------------o-o-|----------------|----------------|--------------------|
B  |0-----0---------|0-----0-----0---|0---------------|----tttt----tttt----|
1e&a2e&a3e&a4e&a

C  |--X---X---X-----|X---------------|----------------|----------------|
H  |----------------|--x-x-x-x-x-x-x-|x-x-x-x-x-x-x-x-|x-x-x-x-x-x-x-x-|
S  |o-------------o-|--o---o---o---o-|--o---o---o---o-|--o---o---o---o-|
B  |--0---0---0-----|0---00--0---00--|0---00--0---00--|0---00--0----0--|

C  |----------------|--X-------------|----------------|--X-------------|
H  |x-x-x-x-x-x-x-x-|x---x-x-x-x-x-x-|x-x-x-x-x-x-x-x-|x---x-x-x-x-x-x-|
S  |--o---o---o---o-|--o---o---o---o-|--o---o---o---o-|--o---o---o---o-|
B  |0---00--0---00--|0---00--0---00--|0---00--0---00--|0---00--0---00--|

H  |--x---x---x-----|x-x-x-x-x-x-x-x-|x-x-x-x-x-x-x-x-|x-x-x-x-x-x-x-x-|
S  |o------------f--|--o---o---o---o-|--o---o---o---o-|--o---o---o---o-|
B  |--0---0---0-----|0---00--0---00--|0---0---0---00--|0---00--0---00--|

C  |----------X---X-|X-X-X-X-X-X-X-X-|X---------------|----------------|
H  |x-x-x-x-x---x---|----------------|--x-x-x-x-x-x-x-|x-x-x-x-x-x-x-x-|
S  |--o---o---o---o-|--o---o---o---o-|--o---o---o---o-|--o---o---o---o-|
B  |0---00--0---00--|0---00--0---00--|0---00--0---00--|0---00--0---00--|

|  repeat 3x      |                |   repeat 2x     |
C  |----------------|X----------------|----X-------X---|X----------------|
H  |--x---x---x-----|--x-x-x-x-x--x-x-|x-x-------------|----x-x-x----x-x-|
S  |o-------------o-|----o--------o---|----o-------o---|----o--------o---|
B  |--0---0---0-----|0---------ttt----|0-0-----0-0-----|0---------ttt----|

C  |X---------------|----------------|----------------|----------------|
H  |----x-x-x-x-x-x-|x-x-x-x-x-x-x-x-|x-x-x-x-x-x-x-x-|x-x-x-x-x-x-----|
S  |o---o---o---o---|o---o---o---o---|o---o---o---o---|o---o---o---F---|
B  |0000000000000000|0000000000000000|0000000000000000|0000000000000000|

C  |X---------------|----------------|
H  |----x-x-x-x-x-x-|x-x-x-x-x-x-x-x-|
S  |o---o---o---o---|o---o---o---o---|   repeat 2 x
B  |0000000000000000|0000000000000000|

C  |X---------------|----------------|X---X-X---X-X---|    |----------X---|
H  |--x-x-x-x-x-x-x-|x-x-x-x-x-x-x---|----------------|    |--------------|
S  |o---o---o---o---|o---o---o---o---|o---o-o---o-o-oo|    |ooo-o---------|
t4 |----------------|----------------|----------------| 7/8|------o-o-----|
Ft |----------------|----------------|----------------|    |------o-o-----|
B  |0000000000000000|0000000000000000|0000000000000000|    |000-------0---|





Verse 3
C  |X---------------|----------------|----------X-----|----------------|
H  |--x-x-x-x-x-x-x-|x-x-x-x-x-x-x-x-|x-x-x-x-x---x-x-|x-x-x-x-x-x-x-x-|
S  |--o---o---o---o-|--o---o---o---o-|--o---o---o---o-|--o---o---------|
t1 |----------------|----------------|----------------|----------o---o-|
B  |0---00--0----0--|0---00--0----0--|0---00--0---00--|0---00--0---00--|

C  |--X-------------|----------------|
H  |x---x-x-x-x-x-x-|x-x-x-x-x-x-x-x-|
S  |--o---o---o---o-|--o---o---o---o-|
B  |0---00--0----0--|0---00--0----0--|
|  repeat 2x      |
C  |----------------|----------X---X-|X----------------|X-----------X---|
H  |x-x-x-x-x-x-x-x-|x-x-x-x-x---x---|----x-x-x-x--x-x-|----x-x---------|
S  |--o---o---o-----|----------o---o-|----o--------o---|----o-----------|
t1 |--------------o-|--o---o---------|-----------------|----------------|
t4 |----------------|----------------|-----------------|--------o-o-----|
Ft |----------------|----------------|-----------------|--------o-o-----|
B  |0---00--0---00--|0---00--0---0---|0---------ttt----|0-----------0---|

C  |X---------------|----------------|----------------|-------X---X-----|
H  |--x-x-x-x-x-x-x-|x-x-x-x-x-x-x-x-|x-x-x-x-x-x-x-x-|x--------------x-|
S  |--o---o---o---o-|--o---o---o---o-|----------------|-------o---o---o-|
t1 |----------------|----------------|--o---o---o---o-|--ttto-----------|
B  |0---00--0----0--|0---00--0---00--|0---00--0---00--|0----0---0---0---|

|       repeat 2x |
C  |X----------------|------------X---|X---------------|----------------|
H  |----x-x-x-x--x-x-|----------------|--x-x-x-x-x-x-x-|x-x-x-x-x-x-x-x-|
S  |----o--------o---|ooooo-o---------|--o---o---o---o-|--o---o---o---o-|
t1 |-----------------|--------o-o-----|----------------|----------------|
B  |0---------ttt----|------------0---|0---00--0----0--|0---00--0---0---|

C  |X-------X-------|X-------X---X---|X---------------|----------X---X-|
H  |----------------|----------------|--x-x-x-x-x-x-x-|x-x-x-x-x---x---|
S  |----------------|----oooo--------|--o---o---o---o-|--o---o---o---o-|
t2 |----oooo--------|----------------|----------------|----------------|
t3 |------------oooo|----------------|----------------|----------------|
B  |0-------0-------|0-------0---0---|0---00--0----0--|0---00--0---00--|

C     |----------------X-X-|    |----------------|----------X---X-|
H  5/4|x-x-x-x-x-x-x-x-----| 4/4|x-x-x-x-x-x-x-x-|x-x-x-x-x---x---|
S     |--o---o---o---o-o-o-|    |--o---o---o---o-|--o---o---o---o-|
B     |0---00--0---00------|    |0---00--0----0--|0---00--0---00--|

C  |----------------|    |X---X---|    |X---------------|----------X-----|
H  |x-x-x-x-x-x-x-x-| 2/4|--------| 4/4|--x-x-x-x-x-x-x-|x-x-x-x-x---x-x-|
S  |--o---o---o---o-|    |--------|    |--o---o---o---o-|--o---o---o---o-|
B  |0---00--0---00--|    |0---0---|    |0---00--0----0--|0---00--0---00--|

C     |----------------X-X-|    |----------------|----------X-----|
H     |x-x-x-x-x-x-x-x-----|    |x-x-x-x-x-x-x-x-|x-x-x-x-x---x-x-|
S  5/4|----------o---o-o-o-| 4/4|--o---o---o---o-|--o---o---o---o-|
t1    |--o---o-------------|    |----------------|----------------|
B     |0---00--0---00------|    |0---00--0----0--|0---00--0---00--|

C  |----------------|X---X---C-------|X---------------|----------------|
H  |x-x-x-x-x-x-x-x-|----------------|----x-x-x-x-x-x-|x-x-x-x-x-x-----|
S  |--o---o---o---o-|----------------|o---o---o---o---|o---o---o---oo--|
B  |0---00--0---00--|0---0---0-------|0000000000000000|0000000000000000|



_________________________________
|    repeat 2x                    |
C  |X---------------|----------------|X---------------|X---------------|
H  |----x-x-x-x-x-x-|x-x-x-x-x-x-----|----x-x-x-x-x-x-|----------------|
S  |o---o---o---o---|o---o---o-------|o---o---o---o---|o-o-o-ooo-ooo-o-|
t1 |----------------|------------oo--|----------------|----------------|
B  |0000000000000000|0000000000000000|0000000000000-0-|----------------|

C  |X---------------|----------------|X---------------|----------------|
H  |--x-x-x-x-x-x-x-|x-x-x-x-x-x-x-x-|--x-x-x-x-x-x-x-|x-x-x-x-x-x-x-x-|
S  |--o---o---o---o-|--o---o---o---o-|--o---o---o---o-|--o---o---o---o-|
B  |0---00--0---00--|0---00--0---00--|0---00--0---00--|0----0--0---00--|

C  |X---------------|----------------|X---------------|X---------------|
H  |--x-x-x-x-x-x-x-|x-x-x-x-x-x-x-x-|--x-x-x-x-x-x-x-|----------------|
S  |--o---o---o---o-|--o---o---o---o-|--o---o---o---o-|----------------|
B  |0---00--0----0--|0---00--0---00--|0---00--0---00--|0---------------|

C  |----------------|----------------|X---------------|
H  |----------------|--x---x---x-----|----------------|
S  |----------------|o-------------f-|----------------|
B  |----------------|--0---0---0-----|0---------------|
comments
We did not receive enough feedback on this tab! Please rate:
print report bad tab
1 2 3 4 5
I want to post or [tab]
guest
You may want to rate the tab now too:
select rating
Please do not post tabs as comments. Select "correction" instead!