Oops, an error
Loading. Please wait.

Battery Bass Tab

ver4
ver4
More versions @911Tabs.com
1,993 views 1 this week
no commentswrite comment
1 2 3 4 5
worth learning
x 2
Autoscroll
+/-
esc
set tempo
stop
Difficulty
advanced
Hey! There's an official Ultimate Guitar app which is ideal
for learning songs when you're away from computer. Get the app
WARNING: You are trying to view
                                    content from Ultimate-Guitar.com
                                    in an unauthorized application,
                                    which is prohibited.

                                    Please use an official Ultimate
                                    Guitar Tabs application for iPhone,
                                    iPad or Android to access legitimate
                                    chords, guitar, bass, and drum tabs
                                    from Ultimate-Guitar.com database.

                                    Type "ultimate guitar tabs" in Apple
                                    App Store's or Android Market's
                                    search to find the application.
                                    Battery                                     


                                                                       Metallica
Bass



     W                   W                   W                 
G||-------------------|-------------------|-------------------|
D||-------------------|-------------------|-------------------|
A||-------------------|-------------------|-------------------|
E||-------------------|-------------------|-------------------|


  W                   W                   W                   W                 
-------------------|-------------------|-------------------|-------------------|
-------------------|-------------------|-------------------|-------------------|
-------------------|-------------------|-------------------|-------------------|
-------------------|-------------------|-------------------|-------------------|


  W                   W                   W                   W                 
-------------------|-------------------|-------------------|-------------------|
-------------------|-------------------|-------------------|-------------------|
-------------------|-------------------|-------------------|-------------------|
-------------------|-------------------|-------------------|-------------------|


  W                   W                   W                 
-------------------|-------------------|-------------------|
-------------------|-------------------|-------------------|
-------------------|-------------------|-------------------|
-------------------|-------------------|-------------------|


  Q    S S E  H           Q    S S E  H           Q    S S E  H         
-----------------------|-----------------------|-----------------------|
-----------------------|-----------------------|-----------------------|
-----------------------|-----------------------|-----------------------|
--0----0-0-1--L--------|--2----2-2-3--L--------|--0----0-0-1--L--------|


  Q    S S E  E  E  S S E     Q    S S E  H           Q    S S E  H         
---------------------------|-----------------------|-----------------------|
---------------------------|-----------------------|-----------------------|
---------------------------|-----------------------|-----------------------|
--2----2-2-3--L--3--3-1-0--|--0----0-0-1--L--------|--2----2-2-3--L--------|


  Q    S S E  H           Q    S S E  E  E  S S E     Q    Q    Q    Q     
-----------------------|---------------------------|----------------------|
-----------------------|---------------------------|----------------------|
-----------------------|---------------------------|-------2---------6----|
--0----0-0-1--L--------|--2----2-2-3--L--3--3-1-0--|--0---------3---------|


  E  E  Q    H           W                   W                 
----------------------|-------------------|-------------------|
----------------------|-------------------|-------------------|
----------------------|-------------------|-------------------|
--0-------------------|-------------------|-------------------|


  W                   E  E  Q    E  E  E  E     E  E  H.            
-------------------|-------------------------|---------------------|
-------------------|-------------------------|---------------------|
-------------------|-------------------------|---------------------|
-------------------|--0-------------6--6--5--|--0------------------|


  W                   E  E  E  E  E  E  E  E     E  S S E  S S E  E  E  E   
-------------------|--------------------------|----------------------------|
-------------------|--------------------------|----------------------------|
-------------------|--------------------------|----------------------------|
-------------------|--6--5-----5-----5-----5--|--0--0-0-0--0-0-0--6--6--5--|


  E  S S E  S S E  E  E  E     E  S S E  S S E  E  E  E   
----------------------------|----------------------------|
----------------------------|----------------------------|
----------------------------|----------------------------|
--0--0-0-0--0-0-0--3--3--2--|--3--0-0-0--0-0-0--6--6--5--|


  E  Q    E  E  Q    E     E  S S E  S S E  E  E  E   
------------------------|----------------------------|
------------------------|----------------------------|
------------------------|----------------------------|
--0--2----3--0--3----4--|--0--0-0-0--0-0-0--6--6--5--|


  E  S S E  S S E  E  E  E     E  S S E  S S E  E  E  E   
----------------------------|----------------------------|
----------------------------|----------------------------|
----------------------------|----------------------------|
--0--0-0-0--0-0-0--3--3--2--|--3--0-0-0--0-0-0--6--6--5--|


  E  E  E  E  E  E  E  E     Q    Q    E  E  E  E   
--------------------------|------------------------|
--------------------------|------------------------|
--------------------------|-------7----L-----7--7--|
--6--5-----5-----5-----5--|--0------------0--------|


  E  E  E  S S E  S S E  E     E  E  E  E  E  E  Q     
----------------------------|-------------------------|
--------5-------------5--5--|--------7--7-------------|
----------------------------|--------------7--7--6----|
--3--3-----2-2-3--3-3-------|--5--5-------------------|


  E  S S E  S S E  E  E  E     E  S S E  S S E  E  E  E   
----------------------------|----------------------------|
----------------------------|----------------------------|
----------------------------|----------------------------|
--0--0-0-0--0-0-0--6--6--5--|--0--0-0-0--0-0-0--3--3--2--|


  E  S S E  S S E  E  E  E     E  Q    E  E  Q    E   
----------------------------|------------------------|
----------------------------|------------------------|
----------------------------|------------------------|
--3--0-0-0--0-0-0--6--6--5--|--0--2----3--0--3----4--|


  E  S S E  S S E  E  E  E     E  S S E  S S E  E  E  E   
----------------------------|----------------------------|
----------------------------|----------------------------|
----------------------------|----------------------------|
--0--0-0-0--0-0-0--6--6--5--|--0--0-0-0--0-0-0--3--3--2--|


  E  S S E  S S E  E  E  E     E  Q    E  E  Q    E     Q    Q    E  E  E  E   
----------------------------|------------------------|------------------------|
----------------------------|------------------------|------------------------|
----------------------------|------------------------|-------7----L-----7--7--|
--3--0-0-0--0-0-0--6--6--5--|--0--2----3--0--3----4--|--0------------0--------|


  E  E  E  S S E  S S E  E     E  E  E  E  E  E  Q     
----------------------------|-------------------------|
--------5-------------5--5--|--------7--7-------------|
----------------------------|--------------7--7--6----|
--3--3-----2-2-3--3-3-------|--5--5-------------------|


  E  S S E  S S E  E  E  E     E  S S E  S S E  E  E  E   
----------------------------|----------------------------|
----------------------------|----------------------------|
----------------------------|----------------------------|
--0--0-0-0--0-0-0--6--6--5--|--0--0-0-0--0-0-0--3--3--2--|


  E  S S E  S S E  E  E  E     E  Q    E  E  Q    E     Q    Q    E  E  E  E   
----------------------------|------------------------|------------------------|
----------------------------|------------------------|------------------------|
----------------------------|------------------------|-------7----L-----7--7--|
--3--0-0-0--0-0-0--6--6--5--|--0--2----3--0--3----4--|--0------------0--------|


  E  E  E  S S E  S S E  E     E  E  E  E  E  E  Q     
----------------------------|-------------------------|
--------5-------------5--5--|--------7--7-------------|
----------------------------|--------------7--7--6----|
--3--3-----2-2-3--3-3-------|--5--5-------------------|


  E  S S E  S S E  E  E  E     E  S S E  S S E  E  E  E   
----------------------------|----------------------------|
----------------------------|----------------------------|
----------------------------|----------------------------|
--0--0-0-0--0-0-0--6--6--5--|--0--0-0-0--0-0-0--3--3--2--|


  Q    Q    Q    Q       Q    Q    Q    Q       E  S S E  S S E  E  E  E   
----------------------|----------------------|----------------------------|
-----------------5----|----------------------|----------------------------|
-------7--------------|-------2---------6----|----------------------------|
--0---------7---------|--3---------0---------|--0--0-0-0--0-0-0--6--6--5--|


  E  S S E  S S E  E  E  E     E  S S E  S S E  E  E  E  E  E   
----------------------------|----------------------------------|
----------------------------|----------------------------8-----|
----------------------------|-------------------------------8--|
--0--0-0-0--0-0-0--3--3--2--|--0--0-0-0--0-0-0--6--6--5--------|


  E  S S E  S S E  E  E  E     E  S S E  S S E  E  E  E   
----------------------------|----------------------------|
----------------------------|----------------------------|
----------------------------|----------------------------|
--0--0-0-0--0-0-0--6--6--5--|--0--0-0-0--0-0-0--3--3--2--|


  E  S S E  S S E  E  E  E     Q    Q    Q    Q       E  E  Q    E  E  Q     
----------------------------|----------------------|------------------------|
----------------------------|----------------------|------------------------|
----------------------------|----------------------|--------7----------7----|
--3--0-0-0--0-0-0--6--6--5--|--6----1----0---------|--0--0-------0--0-------|


  E  E  Q    E  E  Q       E  S S E  E  E  E  Q     
------------------------|--------------------------|
--------5----------5----|--------------------------|
------------------------|---------------------6----|
--3--3-------3--3-------|--5--5-5-5--5--3--0-------|


  E  S S E  S S E  E  E  E     E  S S E  S S E  E  E  E   
----------------------------|----------------------------|
----------------------------|----------------------------|
----------------------------|----------------------------|
--0--0-0-0--0-0-0--6--6--5--|--0--0-0-0--0-0-0--3--3--2--|


  E  S S E  S S E  E  E  E     E  Q    E  E  Q    E   
----------------------------|------------------------|
----------------------------|------------------------|
----------------------------|------------------------|
--3--0-0-0--0-0-0--6--6--5--|--0--2----3--0--3----4--|


  E  S S E  S S E  E  E  E     E  S S E  S S E  E  E  E   
----------------------------|----------------------------|
----------------------------|----------------------------|
----------------------------|----------------------------|
--0--0-0-0--0-0-0--6--6--5--|--0--0-0-0--0-0-0--3--3--2--|


  E  S S E  S S E  E  E  E     E  Q    E  E  Q    E     Q    Q    E  E  E  E   
----------------------------|------------------------|------------------------|
----------------------------|------------------------|------------------------|
----------------------------|------------------------|-------7----L-----7--7--|
--3--0-0-0--0-0-0--6--6--5--|--0--2----3--0--3----4--|--0------------0--------|


  E  E  E  S S E  S S E  E     E  E  E  E  E  E  Q     
----------------------------|-------------------------|
--------5-------------5--5--|--------7--7-------------|
----------------------------|--------------7--7--6----|
--3--3-----2-2-3--3-3-------|--5--5-------------------|


  E  S S E  S S E  E  E  E     E  S S E  S S E  E  E  E   
----------------------------|----------------------------|
----------------------------|----------------------------|
----------------------------|----------------------------|
--0--0-0-0--0-0-0--6--6--5--|--0--0-0-0--0-0-0--3--3--2--|


  E  S S E  S S E  E  E  E     E  Q    E  E  Q    E     Q    Q    E  E  E  E   
----------------------------|------------------------|------------------------|
----------------------------|------------------------|------------------------|
----------------------------|------------------------|-------7----L-----7--7--|
--3--0-0-0--0-0-0--6--6--5--|--0--2----3--0--3----4--|--0------------0--------|


  E  E  E  S S E  S S E  E     E  E  E  E  E  E  Q     
----------------------------|-------------------------|
--------5-------------5--5--|--------7--7-------------|
----------------------------|--------------7--7--6----|
--3--3-----2-2-3--3-3-------|--5--5-------------------|


  E  S S E  S S E  E  E  E     E  S S E  S S E  E  E  E   
----------------------------|----------------------------|
----------------------------|----------------------------|
----------------------------|----------------------------|
--0--0-0-0--0-0-0--6--6--5--|--0--0-0-0--0-0-0--3--3--2--|


  Q    Q    Q    Q       Q    Q    Q    Q       E  S S E  S S E  E  E  E   
----------------------|----------------------|----------------------------|
-----------------5----|----------------------|----------------------------|
-------7--------------|-------2---------6----|----------------------------|
--0---------7---------|--3---------0---------|--0--0-0-0--0-0-0--6--6--5--|


  E  S S E  S S E  E  E  E     E  S S E  S S E  E  E  E  E  E   
----------------------------|----------------------------------|
----------------------------|----------------------------8-----|
----------------------------|-------------------------------8--|
--0--0-0-0--0-0-0--3--3--2--|--0--0-0-0--0-0-0--6--6--5--------|


  E  S S E  S S E  E  E  E     E  S S E  S S E  E  E  E   
----------------------------|----------------------------|
----------------------------|----------------------------|
----------------------------|----------------------------|
--0--0-0-0--0-0-0--6--6--5--|--0--0-0-0--0-0-0--3--3--2--|


  E  S S E  S S E  E  E  E     Q    Q    Q    Q       W                 
----------------------------|----------------------|-------------------|
----------------------------|----------------------|-------------------|
----------------------------|----------------------|-------------------|
--3--0-0-0--0-0-0--6--6--5--|--6----1----0---------|--0----------------|


  W                   Q    E  E  E  E  E  E     Q    E  E  E  E  E  E   
-------------------|-------------------------|-------------------------|
-------------------|-------------------------|-------------------------|
-------------------|-------------7-----------|-------------7-----7-----|
--L----------------|--0----0--0-----0-----0--|--0----0--0-----0-----0--|


  Q    E  E  E  E  E  E     E  E  E  E  E  E  Q       Q    E  E  E  E  E  E   
-------------------------|-------------------------|-------------------------|
-------------5-----------|--5--------5-------------|-------------------------|
-------------------------|-------------------------|-------------7-----7-----|
--3----3--3-----3--3--3--|-----3--3--------3--3----|--0----0--0-----0-----0--|


  Q.     E  E  E  E  E     Q.     E  E  E  E  E     Q.     E  E  E  Q     
------------------------|------------------------|-----------------------|
------------------------|------------5-----------|-----------------------|
------------7-----7-----|------------------------|------------2--2-------|
--0------0-----0-----0--|--3------3-----3--3--3--|--3------3-------------|


  Q    E  E  E  E  E  E     E  E  E  E  E  E  E  E     Q    E  E  E  E  E  E   
-------------------------|--------------------------|-------------------------|
-------------------------|--------------------------|-------------------------|
-------------7-----7-----|--------7--7--------------|----------------------7--|
--0----0--0-----0-----0--|--0--0--------8--8--0--0--|--3----3--3--3--0--------|


  E  E  E  E  E  E  Q       Q    E  E  E  E  E  E     E  E  E  E  E  E  E  E   
-------------------------|-------------------------|--------------------------|
--------5-----4--5--7----|-------------------------|--------------------------|
--7--7-----7-------------|-------------7-----7-----|--------7--7--------------|
-------------------------|--0----0--0-----0-----0--|--0--0--------8--8--0--0--|


  Q    E  E  E  E  E  E     E  E  E  E  E  E  Q       Q    E  E  E  E  E  E   
-------------------------|-------------------------|-------------------------|
-------------------------|--------5-----4--5--7----|-------------------------|
----------------------7--|--7--7-----7-------------|-------------7-----7-----|
--3----3--3--3--0--------|-------------------------|--0----0--0-----0-----0--|


  E  E  E  E  E  E  E  E     Q    E  E  E  E  E  E     E  E  E  E  E  E  Q     
--------------------------|-------------------------|-------------------------|
--------------------------|-------------------------|--------5-----4--5--7----|
--------7--7--------------|----------------------7--|--7--7-----7-------------|
--0--0--------8--8--0--0--|--3----3--3--3--0--------|-------------------------|


  Q    E  E  E  E  E  E     Q.     E  Q    Q       W                 
-------------------------|----------------------|-------------------|
-------------------------|----------------------|-------------------|
-------------7-----7-----|-----------------3----|-------------------|
--0----0--0-----0-----0--|--0------3--L---------|--3----------------|


  W                   E  E  E  E  E  E  E  E     E  S S E  S S E  E  E  E   
-------------------|--------------------------|----------------------------|
-------------------|--------------------------|----------------------------|
-------------------|--------------------------|--7------7------7-----------|
--L----------------|--6--5-----5-----5-----5--|-----0-0----0-0----6--6--5--|


  E  E  E  E  E  E  E  E     E  S S E  S S E  E  E  E   
--------------------------|----------------------------|
--------------------------|----------------------------|
--------------------------|--7------7------7-----------|
--0--7--6--5--0--7--6--5--|-----0-0----0-0----6--6--5--|


  E  E  E  E  E  E  E  E     E  S S E  S S E  E  E  E   
--------------------------|----------------------------|
--------------------------|----------------------------|
--------------------------|--7------7------7-----------|
--0--7--6--5--0--3--2--2--|-----0-0----0-0----6--6--5--|


  E  E  E  E  E  E  E  E     E  S S E  S S E  E  E  E   
--------------------------|----------------------------|
--------------------------|----------------------------|
--------------------------|--7------7------7-----------|
--0--7--6--5--0--7--6--5--|-----0-0----0-0----6--6--5--|


  E  E  E  E  E  E  E  E     E  S S E  S S E  E  E  E   
--------------------------|----------------------------|
--------------------------|----------------------------|
--------------------------|--7------7------7-----------|
--6--5-----5-----5-----5--|-----0-0----0-0----6--6--5--|


  E  E  E  E  E  E  E  E     E  S S E  S S E  E  E  E   
--------------------------|----------------------------|
--------------------------|----------------------------|
--------------------------|--7------7------7-----------|
--0--7--6--5--0--7--6--5--|-----0-0----0-0----6--6--5--|


  E  E  E  E  E  E  E  E     E  S S E  S S E  E  E  E   
--------------------------|----------------------------|
--------------------------|----------------------------|
--------------------------|--7------7------7-----------|
--0--7--6--5--0--3--2--2--|-----0-0----0-0----6--6--5--|


  E  E  E  E  E  E  E  E     E  S S E  S S E  E  E  E   
--------------------------|----------------------------|
--------------------------|----------------------------|
--------------------------|--7------7------7-----------|
--0--7--6--5--0--7--6--5--|-----0-0----0-0----6--6--5--|


  E  E  E  E  E  E  E  E     Q    E  E  E  E  E  E     Q    E  E  E  E  E  E   
--------------------------|-------------------------|-------------------------|
--------------------------|-------------------------|-------------5-----------|
--------------------------|-------------7-----7-----|-------------------------|
--6--5-----5-----5-----5--|--0----0--0-----0-----0--|--3----3--3-----3--3--3--|


  Q    E  E  E  E  E  E     Q    E  E  E  E  E  E     Q    E  E  E  E  E  E   
-------------------------|-------------------------|-------------------------|
-------------7-----7-----|-------------4-----------|-------------------------|
-------------------------|-------------------------|-------------7-----7-----|
--5----5--5-----5-----5--|--2----2--2-----2--2--2--|--0----0--0-----0-----0--|


  Q    E  E  E  E  E  E     E  E  E  E  E  E  E  E     H        Q    E  E   
-------------------------|--------------------------|----------------------|
-------------5-----------|--------------------------|----------------------|
-------------------------|--------------------------|----------------------|
--3----3--3-----3--3--3--|--5-----------------------|----------------3--2--|


  E  E  E  E  E  E  E  E     E  E  E  E  E  E  Q       E  E  E  E  E  E  E  E   
--------------------------|-------------------------|--------------------------|
--------------------------|-------------------------|--------------------------|
--------1-----2-----1-----|--2-----1-----2----------|--------1-----2-----1-----|
--1--0-----0-----0-----0--|-----0-----0-----0--2----|--1--0-----0-----0-----0--|


  E  E  E  E  E  E  Q       E  E  E  E  E  E  E  E     E  E  E  E  E  E  Q     
-------------------------|--------------------------|-------------------------|
-------------------------|--------------------------|-------------------------|
--2-----1-----2----------|--------1-----2-----1-----|--2-----1-----2----------|
-----0-----0-----0--2----|--1--0-----0-----0-----0--|-----0-----0-----0--2----|


  E  E  E  E  E  E  E  E     E  E  E  E  E  E  Q       E  E  E  E  E  E  E  E   
--------------------------|-------------------------|--------------------------|
--------------------------|-------------------------|--------------------------|
--------1-----2-----1-----|--2-----1-----2----------|--------------------------|
--1--0-----0-----0-----0--|-----0-----0-----0--2----|--1-----------------------|


  H        E  E  Q       E  S S E  S S E  E  E  E   
----------------------|----------------------------|
----------------------|----------------------------|
-----------------6----|----------------------------|
-----------1--1-------|--0--0-0-0--0-0-0--6--6--5--|


  E  S S E  S S E  E  E  E     E  S S E  S S E  E  E  E   
----------------------------|----------------------------|
----------------------------|----------------------------|
----------------------------|----------------------------|
--0--0-0-0--0-0-0--3--3--2--|--3--0-0-0--0-0-0--6--6--5--|


  E  Q    E  E  Q    E     E  S S E  S S E  E  E  E   
------------------------|----------------------------|
------------------------|----------------------------|
------------------------|----------------------------|
--0--2----3--0--3----4--|--0--0-0-0--0-0-0--6--6--5--|


  E  S S E  S S E  E  E  E     E  S S E  S S E  E  E  E   
----------------------------|----------------------------|
----------------------------|----------------------------|
----------------------------|----------------------------|
--0--0-0-0--0-0-0--3--3--2--|--3--0-0-0--0-0-0--6--6--5--|


  E  Q    E  E  Q    E     Q    Q    E  E  E  E     E  E  E  S S E  S S E  E   
------------------------|------------------------|----------------------------|
------------------------|------------------------|--------5-------------5--5--|
------------------------|-------7----L-----7--7--|----------------------------|
--0--2----3--0--3----4--|--0------------0--------|--3--3-----2-2-3--3-3-------|


  E  E  E  E  E  E  Q       E  S S E  S S E  E  E  E   
-------------------------|----------------------------|
--------7--7-------------|----------------------------|
--------------7--7--6----|----------------------------|
--5--5-------------------|--0--0-0-0--0-0-0--6--6--5--|


  E  S S E  S S E  E  E  E     E  S S E  S S E  E  E  E   
----------------------------|----------------------------|
----------------------------|----------------------------|
----------------------------|----------------------------|
--0--0-0-0--0-0-0--3--3--2--|--3--0-0-0--0-0-0--6--6--5--|


  E  Q    E  E  Q    E     Q    Q    E  E  E  E     E  E  E  S S E  S S E  E   
------------------------|------------------------|----------------------------|
------------------------|------------------------|--------5-------------5--5--|
------------------------|-------7----L-----7--7--|----------------------------|
--0--2----3--0--3----4--|--0------------0--------|--3--3-----2-2-3--3-3-------|


  E  E  E  E  E  E  Q       E  S S E  S S E  E  E  E   
-------------------------|----------------------------|
--------7--7-------------|----------------------------|
--------------7--7--6----|----------------------------|
--5--5-------------------|--0--0-0-0--0-0-0--6--6--5--|


  E  S S E  S S E  E  E  E     Q    Q    Q    Q       Q    Q    Q    Q     
----------------------------|----------------------|----------------------|
----------------------------|-----------------5----|----------------------|
----------------------------|-------7--------------|-------2---------6----|
--0--0-0-0--0-0-0--3--3--2--|--0---------7---------|--3---------0---------|


  E  S S E  S S E  E  E  E     E  S S E  S S E  E  E  E   
----------------------------|----------------------------|
----------------------------|----------------------------|
----------------------------|----------------------------|
--0--0-0-0--0-0-0--6--6--5--|--0--0-0-0--0-0-0--3--3--2--|


  E  S S E  S S E  E  E  E  E  E     E  S S E  S S E  E  E  E   
----------------------------------|----------------------------|
----------------------------8-----|----------------------------|
-------------------------------8--|----------------------------|
--0--0-0-0--0-0-0--6--6--5--------|--0--0-0-0--0-0-0--6--6--5--|


  E  S S E  S S E  E  E  E     E  S S E  S S E  E  E  E     Q    Q     
----------------------------|----------------------------|------------|
----------------------------|----------------------------|------------|
----------------------------|----------------------------|------------|
--0--0-0-0--0-0-0--3--3--2--|--3--0-0-0--0-0-0--6--6--5--|--6----1----|


  E  S S E  S S E  E  E  E     E  S S E  S S E  E  E  E   
----------------------------|----------------------------|
----------------------------|----------------------------|
----------------------------|----------------------------|
--0--0-0-0--0-0-0--6--6--5--|--0--0-0-0--0-0-0--3--3--2--|


  E  S S E  S S E  E  E  E  E  E     E  S S E  S S E  E  E  E   
----------------------------------|----------------------------|
----------------------------8-----|----------------------------|
-------------------------------8--|----------------------------|
--0--0-0-0--0-0-0--6--6--5--------|--0--0-0-0--0-0-0--6--6--5--|


  E  S S E  S S E  E  E  E     E  S S E  S S E  E  E  E   
----------------------------|----------------------------|
----------------------------|----------------------------|
----------------------------|----------------------------|
--0--0-0-0--0-0-0--3--3--2--|--0--0-0-0--0-0-0--6--6--5--|


  Q    Q    Q    Q       E  E  E  E  E  E  E  E     E  E  E  E  E  E  Q     
----------------------|--------------------------|-------------------------|
----------------------|--------------------------|-------------------------|
----------------------|--------1-----2-----1-----|--2-----1-----2----------|
--6----1----0---------|--1--0-----0-----0-----0--|-----0-----0-----0--2----|


  E  E  E  E  E  E  E  E     E  E  E  E  E  E  Q       E  E  E  E  E  E  E  E   
--------------------------|-------------------------|--------------------------|
--------------------------|-------------------------|--------------------------|
--------1-----2-----1-----|--2-----1-----2----------|--------1-----2-----1-----|
--1--0-----0-----0-----0--|-----0-----0-----0--2----|--1--0-----0-----0-----0--|


  E  E  E  E  E  E  Q       E  E  E  E  E  E  E  E     E  E  E  E  E  E  Q     
-------------------------|--------------------------|-------------------------|
-------------------------|--------------------------|-------------------------|
--2-----1-----2----------|--------1-----2-----1-----|--2-----1-----2----------|
-----0-----0-----0--2----|--1--0-----0-----0-----0--|-----0-----0-----0--2----|


  E  E  E  E  E  E  E  E     E  E  E  E  E  E  Q       E  E  E  E  E  E  E  E   
--------------------------|-------------------------|--------------------------|
--------------------------|-------------------------|--------------------------|
--------1-----2-----1-----|--2-----1-----2----------|--------1-----2-----1-----|
--1--0-----0-----0-----0--|-----0-----0-----0--2----|--1--0-----0-----0-----0--|


  E  E  E  E  E  E  Q       E  E  E  E  E  E  E  E     W                 
-------------------------|--------------------------|-------------------|
-------------------------|--------------------------|-------------------|
--2-----1-----2----------|--------1-----2-----1-----|--2----------------|
-----0-----0-----0--2----|--1--0-----0-----0-----0--|-------------------|


  W                   E  E  E  E  E  E  E  E     Q    Q    Q    Q      
-------------------|--------------------------|----------------------||
-------------------|--------------------------|----------------------||
--L----------------|--------------------------|----------------------||
-------------------|--2--1-----1-----1-----1--|--0-------------------||




Duration Legend
---------------
W - whole
H - half
Q - quarter
E - 8th
S - 16th
T - 32nd
X - 64th
. - note dotted
|-n-|  - n-tuplets


Tablature Legend
----------------
L - tied note
x - dead note
g - grace note
(n) - ghost note
> - accentuded note
NH - natural harmonic
AH - artificial harmonic
TH - tapped harmonic
SH - semi harmonic
PH - pitch harmonic
h - hammer on
p - pull off
b - bend
br - bendRelease
pb - preBend
pbr - preBendRelease
brb - bendReleaseBend
\n/ - tremolo bar dip
\n - tremolo bar dive
-/n - tremolo bar Release up
/n\ - tremolo bar inverted dip
/n - tremolo bar return
-\n - tremolo bar Release down
S - shift slide
s - legato slide
/ -  slide into from below or out of upwards
\ -  slide into from above or out of downwards
~ - vibrato
W - wide vibrato
tr - trill
TP - tremolo picking
T - tapping
S - slap
P - pop
< - fade in
^ - brush up
v - brush down
comments
We did not receive enough feedback on this tab! Please rate:
print report bad tab
1 2 3 4 5
I want to post or [tab]
guest
You may want to rate the tab now too:
select rating
Please do not post tabs as comments. Select "correction" instead!