Oops, an error
Loading. Please wait.

Better Than You Tab

ver3
ver3

Whole song

Interactive

More versions @911Tabs.com
2,239 views 1 this week
no commentswrite comment
1 2 3 4 5
accurate
x 1
add to favorites launch autoscroll
font size
0
reset
Autoscroll
+/-
esc
set tempo
stop
WARNING: You are trying to view
                                    content from Ultimate-Guitar.com
                                    in an unauthorized application,
                                    which is prohibited.

                                    Please use an official Ultimate
                                    Guitar Tabs application for iPhone,
                                    iPad or Android to access legitimate
                                    chords, guitar, bass, and drum tabs
                                    from Ultimate-Guitar.com database.

                                    Type "ultimate guitar tabs" in Apple
                                    App Store's or Android Market's
                                    search to find the application.
Tunr Guitar 1/2 Down

"Better Than You"
==================

|-----------------|-----------------|-----------------|-----------------|
|-----------------|-----------------|-----------------|-----------------|
|-----------------|-----------------|-----------------|-----------------|
|-----------------|-----------------|-----9-9---------|-----------------|
|-----------------|-----------------|-----7-7---------|---------5-6-7---|
|-----------------|-----------------|-----0-0---------|---------3-4-5---|

|-----------------|-----------------|-----------------|-----------------| 2
|-----------------|-----------------|-----------------|-----------------| T
|-----------------|-----------------|-----------------|-----------------| I
|---------2-------|-(2)-------------|---------2-------|-(2)-------------| M
|-5-------2-------|-(2)-----5-6-7---|-5-------2-------|-(2)-----5-6-7---| E
|-3-------0-------|-(0)-----3-4-5---|-3-------0-------|-(0)-----3-4-5---| S

 Riff A(x2)
|-----------------|-----------------|-----------------|-----------------| 
|-----------------|-----------------|-----------------|-----------------| 
|-----------------|-----------------|-----------------|-----------------| End Of
|---------2-------|-2---------------|---------2-------|-2---------------| Riff A
|-5-------2-------|-2-------5-6-7---|-5-------2-------|-2-------5-6-7---| 
|-3-------0--0-0--|-0--0-0--3-4-5---|-3-------0--0-0--|-0--0-0--3-4-5---| 

 Riff B
|-----------------|-----------------|-----------------|-----------------| 2
|-----------------|-----------------|-----------------|-----------------| T
|-----------------|-----------------|-----------------|-----------------| I
|-5-------5----5--|-7-------7----7--|-5-------2-------|-2---------------| M
|-5-------5----5--|-7-------7----7--|-5-------2-------|-2-------5-6-7---| E
|-3-------3----3--|-5-------5----5--|-3-------0--0-0--|-0--0-0--3-4-5---| S

|-----------------|-----------------|-----------------|-----------------|
|-----------------|-----------------|-----------------|-----------------|
|-----------------|-----------------|-5-------5----5--|-7-------7----7--|
|-5-------5----5--|-7-------7----7--|-5-------5----5--|-7-------7----7--|
|-5-------5----5--|-7-------7----7--|-3-------3----3--|-5-------5----5--|
|-3-------3----3--|-5-------5----5--|-----------------|-----------------|

|-----------------|-----------------|-----------------|-----------------|
|-----------------|-----------------|-----------------|-----------------|
|-----------------|-----------------|-10------10---10-|-12--------------| End Of
|-5-------5----5--|-7-------7----7--|-10------10---10-|-12--------------| Riff B
|-5-------5----5--|-7-------7----7--|-8-------8----8--|-10------5-6-7---|
|-3-------3----3--|-5-------5----5--|-----------------|---------3-4-5---|

Riff A(x2)
Riff B
Riff A(x2)
 
 Riff C
|--------------------------|--------------------------| 2
|--------------------------|--------------------------| T
|--------------4p2---------|--------------------------| I
|-2-4-2-4-2-4------4-4p2---|-2-4-2-4--2-------3-------| M
|-2-4-0-4-2-4------------2-|-2-4-0-4--2-------3-------| E
|-0h2---2-0h2--------------|-0h2---2--0-------1-------| S

|--------------------------|--------------------------|
|--------------------------|--------------------------|
|--------------6p4---------|--------------------------|
|-4/6-4-6-4/6------4-6p4---|-4/6-4-6--4-------5-------|
|-4/6-2-6-4/6------------4-|-4/6-2-6--4-------5-------|
|-2/4---4-2/4--------------|-2/4---4--2-------3-------|

|--------------------------|--------------------------| 
|--------------------------|--------------------------| 
|--------------6p4---------|--------------------------| End Of
|-4/6-4-6-4/6------4-6p4---|-4/6-4-6--4---------------| Riff C 
|-4/6-2-6-4/6------------4-|-4/6-2-6--4-------5-6-7---| 
|-2/4---4-2/4--------------|-2/4---4--2-------3-4-5---| 

Solo 1 
Riff A(x2)
Riff B
End Of Solo 1

Riff C
Riff A(x8)

|-----------------|-----------------|-----------------|-----------------|
|-----------------|-----------------|-----------------|-----------------|
|-----------------|-----------------|-----------------|-----------------|
|-----------------|-----------------|-----------------|-----------------|
|-5---------------|-(5)-------------|-(5)-------------|-(5)-------------|
|-3---------------|-(3)-------------|-(3)-------------|-(3)-------------|

|-----------------|-----------------|-----------------|-----------------|
|-----------------|-----------------|-----------------|-----------------|
|-----------------|-----------------|-----------------|-----------------|
|-----------------|-----------------|-----------------|-----------------|
|-(5)-------------|-(5)-------------|-(5)-------------|-(5)-----5-6-7---|
|-(3)-------------|-(3)-------------|-(3)-------------|-(3)-----3-4-5---|

Solo 2                                                     
Riff A(x8)

|-----------------|-----------------|-----------------|-----------------|
|-----------------|-----------------|-----------------|-----------------|
|-----------------|-----------------|-----------------|-----------------|
|-----------------|-----------------|-----------------|-----------------|
|-5---------------|-(5)-------------|-(5)-------------|-(5)-------------|
|-3---------------|-(3)-------------|-(3)-------------|-(3)-------------|

|-----------------|-----------------|-----------------|-----------------|
|-----------------|-----------------|-----------------|-----------------|
|-----------------|-----------------|-----------------|-----------------|
|-----------------|-----------------|-----------------|-----------------|
|-(5)-------------|-(5)-------------|-(5)-------------|-(5)-------------|
|-(3)-------------|-(3)-------------|-(3)-------------|-(3)-------------|

|-----------------|-----------------|
|-----------------|-----------------|
|-----------------|-----------------| End Of
|-----------------|---------2-------| Solo 2
|-(5)-----5-6-7---|-5-------2-------|
|-(3)-----3-4-5---|-3-------0-------|

==================================
==================================
 Solo 1
|---------------------------------|-------------------------------|
|-12-13-14---12-------------------|-12-13-14--12------------------|
|-12-13-14---12-------------------|-12-13-14--12------------------|
|-----------------14-12-14--14-14-|---------------14-12-14--14-14-|
|---------------------------------|-------------------------------|
|---------------------------------|-------------------------------|

|------------------------------------|--------------------------------------|
|-12-14b16r-12----12-----------------|-12-12/14-13-12----12-----------------|
|-12-14b16r-12----12-----------------|-12-12/14-13-12----12-----------------|
|--------------14----14-12-14--14-14-|----------------14----14-12-14--14-14-|
|------------------------------------|--------------------------------------|
|------------------------------------|--------------------------------------|

|--------------------------------------------|---------------------------|
|-------------12-12---12-12--12-1414---14-14-|-12-14b16r14-12------------|
|-12----12----12-12---12-12--12-1414---14-14-|-12-14b16r14-12----12h--14-|
|----14----14--------------------------------|----------------14---------|
|--------------------------------------------|---------------------------|
|--------------------------------------------|---------------------------|

|-------------------------|---------------------------------------|
|-14-14b16r14-12----------|-1212---12-12-12-14b16r14-12-----------|
|-14-14b16r14-12----12----|-1212---12-12-12-14b16r14-12-----12----|
|----------------14---14--|-----------------------------14----14--|
|-------------------------|---------------------------------------|
|-------------------------|---------------------------------------|

|------------------------------------------------------------------------------|
|------------------------------------------------------------------------------|
|-14p12----12-14p12-14p12-----14p12-14p12----14p12----14p12-14p12----14p12-----|
|-------14----------------14--------------14-------14-------------14-----------|
|------------------------------------------------------------------------------|
|------------------------------------------------------------------------------|

|-------------------------------------------------------------------------------------|
|-------15b17----17-15-12-------12-14b16r14-12----12h--14---12-14b16r14-12-----12-----|
|-14p12-------------------14-------------------14--------------------------14------14-|
|-------------------------------------------------------------------------------------|
|-------------------------------------------------------------------------------------|
|-------------------------------------------------------------------------------------|

|---------------------------------------------------------|
|-12----------12-----------12-----------12----------------|
|-12----------12-----------12-----------12----------------|
|-----14p12------14p12--------14p12--------14p12----12h14-|
|-----------14---------14-----------14-----------14-------|
|---------------------------------------------------------|

|------------------15b------r15-|
|-12--14b16r14-12---------------|
|-12--14b16r14-12---------------|
|-------------------------------|
|-------------------------------|
|-------------------------------|

==============================
 Solo 2
|--------------------------------------------------------------------------------------|
|----------12-------------------12---------------------12---------------------12-------|
|-14-12-14-12----------14-12-14-12---------------------12---------------------12-------|
|-------------14-14----------------14-14---14-14p12-------14-14---14-14p12-------14-14-|
|---------------------------------------------------14---------------------14----------|
|--------------------------------------------------------------------------------------|

|--------------------------------------------------------------------------------------|
|----------12-------------------12-------------------12----------------------12--------|
|-14-12-14-12----------14-12-14-12-------------------12----------------------12--------|
|-------------14-14----------------14-14---14\-12-14---------------14\-12-14-----------|
|--------------------------------------------------------------------------------------|
|--------------------------------------------------------------------------------------|

|--------------------------------------------------------------------------------------|
|-14-14-14-14-14-14-14-14-14fbr-14-12-14-14fbr-14--------------------------------------|
|-14-14-14-14-14-14-14-14-14fbr-14-12-14-14fbr-14----12----------------12-14fb---------|
|-------------------------------------------------14----14----12h14-14-----------------|
|--------------------------------------------------------------------------------------|
|--------------------------------------------------------------------------------------|

|--------------------------------------------------------------------------------------|
|--------------------------------------------------------------------------------------|
|----------12-14fb-----------12-14fbr----12-14fbr--------------------------------------|
|-12h14-14----------12h14-14----------14----------14-----------------------------------|
|--------------------------------------------------------------------------------------|
|--------------------------------------------------------------------------------------|

|-------10---------10---------10---------10----10----10---------10---------10----------|
|----12----12---12----12---12----12---12----12----12----12---12----12---12----12-------|
|-14-----------------------------------------------------------------------------------|
|--------------------------------------------------------------------------------------|
|--------------------------------------------------------------------------------------|
|--------------------------------------------------------------------------------------|

|----10----10----10----10-14fb-14fb-14fb-14fb------------------------------------------|
|-12----12----12----12------------------------15p12----12----------------12------------|
|---------------------------------------------------14----14-14-14-12-14---------------|
|--------------------------------------------------------------------------------------|
|--------------------------------------------------------------------------------------|
|--------------------------------------------------------------------------------------|

|-------------15\---12/19-17-15--14-15-14----14----------------------------------------|
|-----------------------------------------17----17-15-14-14-12----12-------------------|
|-14p12----12--------------------------------------------------14----12b-12------------|
|-------14-----------------------------------------------------------------------------|
|--------------------------------------------------------------------------------------|
|--------------------------------------------------------------------------------------|

|--------------------------------------------------------------------------------------|
|------------------------------------------------------------------12-13-14-12---12\---|
|-14p12p11-12-11\9--7----------------------------------------------12-13-14-12---12\---|
|---------------------9-7\5h7-9--(9)br-------------------------------------------------|
|--------------------------------------------------------------------------------------|
|--------------------------------------------------------------------------------------|
comments
We did not receive enough feedback on this tab! Please rate:
print report bad tab
1 2 3 4 5
I want to post or [tab]
guest
You may want to rate the tab now too:
select rating
Please do not post tabs as comments. Select "correction" instead!