Oops, an error
Loading. Please wait.

Beyond Magnetic Bass Tab

2,403 views 15 this week
no commentswrite comment
1 2 3 4 5
excellent!
x 2
Autoscroll
+/-
esc
set tempo
stop
Contributor
Difficulty
advanced
Hey! There's an official Ultimate Guitar app which is ideal
for learning songs when you're away from computer. Get the app
WARNING: You are trying to view
                                    content from Ultimate-Guitar.com
                                    in an unauthorized application,
                                    which is prohibited.

                                    Please use an official Ultimate
                                    Guitar Tabs application for iPhone,
                                    iPad or Android to access legitimate
                                    chords, guitar, bass, and drum tabs
                                    from Ultimate-Guitar.com database.

                                    Type "ultimate guitar tabs" in Apple
                                    App Store's or Android Market's
                                    search to find the application.
who tabbed it
Hate train- MetallicaDMRTL
Just A Bullet Away- MetallicaDMRTL
Hell and Back- MetallicaDMRTL
Rebel of Babylon- MetallicaDMRTL

     All Credit goes to me, MetallicaDMRTL, i hope the community enjoi's
this took a week to do but i put it together this is, Beyond Magnetic - EP

and please ultimateguitar.com, dont give me trouble over these, no copying here 
these are ALL my tabs

And one last note these songs are all 5string (hate isnt but at the end i left notes abt 
a 5string part to lazy to fill in but its there) and its all standard tuning

MetallicaDMRTL

-----------------------------------------------------------------------------
                             Hate Train - Metallica
-----------------------------------------------------------------------------
UPDATE: this song is 5string, so if 4 BEAD no G, but really the B is only used once, so u decide!

Tabbed by: MetallicaDMRTL

Tuning:EADG

G|---------|---------------------|---------|---------------------|
D|-------3-|-(3)\----------------|-----5-3-|-(3)\----------------|
A|-2-3-5---|---------------------|-2-3-----|---------------------|
E|---------|------2-2-2-2--2-2-0-|---------|------2-2-2-2--2-2-0-|
B|---------|---------------------|---------|---------------------|

G|---------|---------------------|----------|----------------------|
D|-------3-|-(3)\----------------|-----5-3\-|----------------------|
A|-2-3-5---|---------------------|-2-3------|-4-4-4-4-4-4----------|
E|---------|------2-2-2-2--2-2-0-|----------|-------------0-0--1-1-|
B|---------|---------------------|----------|----------------------|

G|----------------------|-----------------|---|
D|----------------------|-----------------|---|
A|-4-4-4-4-4-4----------|-5-5-5-5-5-5-5-5-|-7-|
E|-------------0-0--1-1-|-----------------|---|
B|----------------------|-----------------|---|

G|-----------------|----------------|-----------------|----------------|
D|-----------------|----------------|-----------------|----------------| x8
A|-----------------|----------------|-----------------|----------------|
E|-0-0-0-0-0-0-0-0-|-0-0-0-0-3p0-3p0|-0-0-0-0-0-0-5\7-|-10p7-5p0-3/5-5-|
B|-----------------|----------------|-----------------|----------------|

G|--------------|------------|-------|
D|------------7-|------------|-------|
A|-----7--5h7---|-----5----7-|-------|
E|-5h7----------|-3-5---5-7--|-0-0---|
B|--------------|------------|-------|

G|--------------|-----------------|-----------------|--------|
D|--------------|-----------------|-----------------|--------|
A|--------------|-----------------|-----------------|--------|
E|-0-3p0-0-3p0-0|-3p0-0-3p0-0-3p0-|-0-0-3p0-0-3p0-0-|-5-6-7--|
B|--------------|-----------------|-----------------|--------|

G|--------------|-----------------|-----------------|--------|--------|
D|--------------|-----------------|-----------------|--------|--------|
A|--------------|-----------------|-----------------|--------|--------|
E|-0-3p0-0-3p0-0|-3p0-0-3p0-0-3p0-|-0-0-3p0-0-3p0-0-|-5-6-7--|-7-6-5--|
B|--------------|-----------------|-----------------|--------|--------|

G|---------------|-------------|---------------|------------|
D|---------------|-------------|---------------|------------| x4
A|---------------|-------------|---------------|------------|
E|-0--0-0-0-0--0-|-0--0-0-3--0-|-0--0-0-0-0--0-|-6p5h6--5p3-|
B|---------------|-------------|---------------|------------|

G|--------------|-----------------|-----------------|--------|
D|--------------|-----------------|-----------------|--------|
A|--------------|-----------------|-----------------|--------|
E|-0-3p0-0-3p0-0|-3p0-0-3p0-0-3p0-|-0-0-3p0-0-3p0-0-|-5-6-7--|
B|--------------|-----------------|-----------------|--------|

G|--------------|-----------------|-----------------|--------|--------|
D|--------------|-----------------|-----------------|--------|--------|
A|--------------|-----------------|-----------------|--------|--------|
E|-0-3p0-0-3p0-0|-3p0-0-3p0-0-3p0-|-0-0-3p0-0-3p0-0-|-5-6-7--|-7-6-5--|
B|--------------|-----------------|-----------------|--------|--------|

G|---------------|-------------|---------------|------------|
D|---------------|-------------|---------------|------------| x4
A|---------------|-------------|---------------|------------|
E|-0--0-0-0-0--0-|-0--0-0-3--0-|-0--0-0-0-0--0-|-6p5h6--5p3-|
B|---------------|-------------|---------------|------------|

G|--------------|-----------------|-----------------|--------|---------|
D|--------------|-----------------|-----------------|--------|-------3-|
A|--------------|-----------------|-----------------|--------|-2-3-5---|
E|-0-3p0-0-3p0-0|-3p0-0-3p0-0-3p0-|-0-0-3p0-0-3p0-0-|-5-6-7--|---------|
B|--------------|-----------------|-----------------|--------|---------|

G|-------------------------|     |---------|
D|-------------------------| x4  |-------3-|
A|-------------------------|     |-2-3-5---|
E|-2-2-2-2-2-2-2-2-3-2-0-3-|     |---------|
B|-------------------------|     |---------|

G|--------|---------|-------|------------|-----------|---------|------------|
D|--------|---------|-------|------------|-----------|---------|------------|
A|--------|---------|-0-----|-(0)--------|-----------|---------|-0-0-0--0-3-|
E|-0------|-(0)-----|-------|--------12\-|-0---0-(0)-|-0-0-0h3-|------------|
B|--------|---------|-------|------------|-----------|---------|------------|

G|---------|----------|----------|------------|---------|---------|---------|
D|---------|----------|----------|------------|---------|---------|---------|
A|--3-3--3-|----------|----------|-0-0-0--0-3-|--3-3--3-|-0-0h2p0-|---------|
E|---------|-0--0-(0)-|-0--0--0h3|------------|---------|---------|-3-3h5p3-|
B|---------|----------|----------|------------|---------|---------|---------|

G|---------|--------|
D|---------|--------|
A|---------|-2--2-2-|
E|-2-2h3p2-|--------|
B|---------|--------|

G|--------------|-----------------|-----------------|--------|
D|--------------|-----------------|-----------------|--------|
A|--------------|-----------------|-----------------|--------|
E|-0-3p0-0-3p0-0|-3p0-0-3p0-0-3p0-|-0-0-3p0-0-3p0-0-|-5-6-7--|
B|--------------|-----------------|-----------------|--------|

G|--------------|-----------------|-----------------|--------|--------|
D|--------------|-----------------|-----------------|--------|--------|
A|--------------|-----------------|-----------------|--------|--------|
E|-0-3p0-0-3p0-0|-3p0-0-3p0-0-3p0-|-0-0-3p0-0-3p0-0-|-5-6-7--|-7-6-5--|
B|--------------|-----------------|-----------------|--------|--------|

G|---------------|-------------|---------------|------------|
D|---------------|-------------|---------------|------------| x4
A|---------------|-------------|---------------|------------|
E|-0--0-0-0-0--0-|-0--0-0-3--0-|-0--0-0-0-0--0-|-6p5h6--5p3-|
B|---------------|-------------|---------------|------------|

G|--------------|-----------------|-----------------|--------|---------|
D|--------------|-----------------|-----------------|--------|-------3-|
A|--------------|-----------------|-----------------|--------|-2-3-5---|
E|-0-3p0-0-3p0-0|-3p0-0-3p0-0-3p0-|-0-0-3p0-0-3p0-0-|-5-6-7--|---------|
B|--------------|-----------------|-----------------|--------|---------|

G|-------------------------|     |---------|
D|-------------------------| x4  |-------3-|
A|-------------------------|     |-2-3-5---|
E|-2-2-2-2-2-2-2-2-3-2-0-3-|     |---------|
B|-------------------------|     |---------|

G|--------|---------|-------|------------|-----------|---------|------------|
D|--------|---------|-------|------------|-----------|---------|------------|
A|--------|---------|-0-----|-(0)--------|-----------|---------|-0-0-0--0-3-|
E|-0------|-(0)-----|-------|--------12\-|-0---0-(0)-|-0-0-0h3-|------------|
B|--------|---------|-------|------------|-----------|---------|------------|

G|---------|----------|--------|------------|---------|---------|---------|
D|---------|----------|--------|------------|---------|---------|---------|
A|--3-3--3-|----------|--------|-0-0-0--0-3-|--3-3--3-|-0-0h2p0-|---------|
E|---------|-0--0-(0)-|-0-0-0h3|------------|---------|---------|-3-3h5p3-|
B|---------|----------|--------|------------|---------|---------|---------|

G|---------|--------|
D|---------|--------|
A|---------|-2--2-2-|
E|-2-2h3p2-|--------|
B|---------|--------|

G|--------------|-----------------|-----------------|--------|
D|--------------|-----------------|-----------------|--------| x4
A|--------------|-----------------|-----------------|--------|
E|-0-3p0-0-3p0-0|-3p0-0-3p0-0-3p0-|-0-0-3p0-0-3p0-0-|-5-6-7--|
B|--------------|-----------------|-----------------|--------|

G|-----------------|-----------------|-----------------|--------|
D|-----------------|-----------------|-----------------|--------| x2
A|-----------------|-----------------|-----------------|-2-3-4--|
E|-2-2-5p2-2-5p2-2-|-5p2-2-5p2-2-5p2-|-2-2-5p2-2-5p2-2-|--------|
B|-----------------|-----------------|-----------------|--------|

G|----------|------|------|----------|---------|
D|-------3\-|------|------|----------|---------|
A|-2-3-5----|-9h10-|-9h10-|-9h10-7h9-|-5h7-4h5-| x4
E|----------|------|------|----------|---------|
B|----------|------|------|----------|---------|

G|------------------|------------------|------------------|------------  x4
D|------------------|------------------|------------------|------------
A|-9h10-------------|-9h10-------------|-9h10-----7h9-----|-5h7-----4h5-----|
E|------0-0-0-0-0-0-|------0-0-0-0-0-0-|------0-0-----0-0-|-----0-0-----0-0-|
B|------------------|------------------|------------------|-----------------|

G|---|   |-----------|
D|---|   |-----------|
A|---|   |-----------|
E|-0-|   |-----------|
B|---|   |-1-1-1-1-1-|

G|-----------------|    |-----------------|         
D|-----------------| x3 |-----------------| x1    Play these 2 rifts x3
A|---1-------------|    |---1-------------|
E|-0---1-0-2h3-2h3-|    |-0---1-----------|     and its either 1 or 3 on
B|-----------------|    |-------1-1-1-1-1-|         the low B part

G|-----------------|    |---------|     
D|-----------------| x9 |-------3-|
A|---1-------------|    |-2-3-5---|
E|-0---1-0-2h3-2h3-|    |---------|
B|-----------------|    |---------|

G|-------------------------|   |---------|
D|-------------------------| x4|-------3-| these 2 bars x2
A|-------------------------|   |-2-3-5---|
E|-2-2-2-2-2-2-2-2-3-2-0-3-|   |---------|
B|-------------------------|   |---------|

G|-------|--------|-------|----------|
D|-------|--------|-------|----------|
A|-------|--------|-0-----|-(0)------|
E|-0-----|-(0)----|-------|-------xx-|
B|-------|--------|-------|----------|

G|---------------------------|---------------------------|
D|---------------------------|---------------------------|
A|---------------------------|---------------------------|
E|-0-0-0-0-0-0-0-0-0-0-0-0-0-|-3-3-3-3-3-3-3-3-3-3-3-3-3-|
B|---------------------------|---------------------------|

G|---------------------------|---------------------------|
D|---------------------------|---------------------------|
A|-3-3-3-3-3-3-3-3-3-3-3-0-0-|-0-0-0-0-0-0-0-0-0-0-0-----|
E|---------------------------|-----------------------3-2-|
B|---------------------------|---------------------------|

G|---------------------------|---------------------------|
D|---------------------------|---------------------------|
A|---------------------------|-5-5-5-5-5-5-5-5-5-5-5-----|
E|-0-0-0-0-0-0-0-0-0-0-0-0-0-|-----------------------3-3-|
B|---------------------------|---------------------------|

G|---------------------------|-----------------------|
D|---------------------------|-----------------------|
A|-0-0-0-0-0-0-0-0-0-0-0-----|-----------------------|
E|-----------------------0-0-|-0-0-0-0-0-0-0-0-0-0-0-|
B|---------------------------|-----------------------|

G|-----------------------|-----------------------|
D|-----------------------|-----------------------|
A|-----------------------|-3-3-3-3-3-3-3-3-3-0-0-|
E|-3-3-3-3-3-3-3-3-3-3-3-|-----------------------|
B|-----------------------|-----------------------|

G|-------------------------|-------------------------|
D|-------------------------|-------------------------|
A|-0-0-0-0-0-0-0-0-0-0-----|-------------------------|
E|---------------------3-2-|-0-0-0-0-0-0-0-0-0-0-0-0-|
B|-------------------------|-------------------------|

G|-------------------------|
D|-------------------------|
A|-5-5-5-5-5-5-5-5-5-5-----|
E|---------------------3-3-|
B|-------------------------|

G|---------------------------------|---------------------------------|
D|---------------------------------|---------------------------------|
A|---------------------------------|-0-0-0-0-0-0-0-0-----------------|
E|-3-3-3-3-3-3-3-3-3-3-3-3-3-3-3-3-|-----------------0-0-0-0-0-0-0-0-|
B|---------------------------------|---------------------------------|

G|--------------|-----------------|-----------------|--------|
D|--------------|-----------------|-----------------|--------| x2
A|--------------|-----------------|-----------------|--------|
E|-0-3p0-0-3p0-0|-3p0-0-3p0-0-3p0-|-0-0-3p0-0-3p0-0-|-5-6-7--|
B|--------------|-----------------|-----------------|--------|

More to come...
lots of load and reload, and perhaps the dreaded lulu for shits and giggles

                            \m/METALLICA\m/

-------------------------------------------------------------------------------
                             Just A Bullet Away - Metallica
-------------------------------------------------------------------------------

this song uses a 5 string, if 4 string knock off the G and down tune BEAD
(this can be played in drop D, but i like my 5string more :P)

MetallicaDMRTL

Tuning:BEADG
6 hi hats before intro
G|---------|--------|-----------|
D|---------|--------|-----------|
A|-5-3---6-|-5-3-5--|-5-3---(6)-| x2
E|-----4---|--------|-----4-----|
B|---------|--------|-----------|

G|---------|--------|-----------|
D|---------|--------|-----------|
A|-5-3---6-|-5-3-5--|-5-3-------| 
E|-----4---|--------|-----4-----|
B|---------|--------|-------(4)-|

G|---------|--------|-----------|
D|---------|--------|-----------|
A|-5-3---6-|-5-3-5--|-5-3---(6)-| 
E|-----4---|--------|-----4-----|
B|---------|--------|-----------|

G|---------|--------|-----------|
D|---------|--------|-----------|
A|-5-3---6-|-5-3-5--|-5-3-------| 
E|-----4---|--------|-----4-----|
B|---------|--------|-------(4)-|

G|---------|--------|-----------|
D|---------|--------|-----------|
A|-5-3---6-|-5-3-5--|-5-3---(6)-| 
E|-----4---|--------|-----4-----|
B|---------|--------|-----------|

G|---------|    |---------|
D|---------|    |---------|
A|-5-3---6-| x7 |---------|
E|-----4---|    |-4-3-1---|
B|---------|    |-------4-|

G|---------------------------------------------------------|
D|---------------------------------------------------------|
A|---------------------------------------------------------| x3
E|---------------------------------------------------------|
B|-3-333-3-3-3-333-3-3-3-333-3-3-3-333-3-3-3-333-3-3-3-333-|

G|-----------|-----------|-------------------|
D|-----------|-----------|-------------------|
A|-----------|-----------|-------------------|
E|-----------|-----------|-------------------|
B|-0-1-2-3-3-|-0-1-2-3-3-|-0-1-3-4-4-4-4-4-4-|

G|-----------|-----------|---------------------|
D|-----------|-----------|---------------------|
A|-----------|-----------|-5-4-------5-4-8-7---|
E|-----------|-----------|-----5-5-4---------6-|
B|-0-1-2-3-3-|-0-1-2-3-3-|---------------------|

G|-----------|-----------|-------------------|
D|-----------|-----------|-------------------|
A|-----------|-----------|-------------------|
E|-----------|-----------|-------------------|
B|-0-1-2-3-3-|-0-1-2-3-3-|-0-1-3-4-4-4-4-4-4-|

G|-----------|-----------|-----------------|
D|-----------|-----------|-----------------|
A|-----------|-----------|-----------------|
E|-----------|-----------|-----------------|
B|-0-1-2-3-3-|-0-1-2-3-3-|-4-4--4-4--4-6-4-|

G|-----------|-----------|-------------------|
D|-----------|-----------|-------------------|
A|-----------|-----------|-------------------|
E|-----------|-----------|-------------------|
B|-0-1-2-3-3-|-0-1-2-3-3-|-0-1-3-4-4-4-4-4-4-|

G|-----------|-----------|---------------------|
D|-----------|-----------|---------------------|
A|-----------|-----------|-5-4-------5-4-8-7---|
E|-----------|-----------|-----5-5-4---------6-|
B|-0-1-2-3-3-|-0-1-2-3-3-|---------------------|

G|-----------|-----------|-------------------|
D|-----------|-----------|-------------------|
A|-----------|-----------|-------------------|
E|-----------|-----------|-------------------|
B|-0-1-2-3-3-|-0-1-2-3-3-|-0-1-3-4-4-4-4-4-4-|

G|-----------|-----------|-----------------|
D|-----------|-----------|-----------------|
A|-----------|-----------|-----------------|
E|-----------|-----------|-----------------|
B|-0-1-2-3-3-|-0-1-2-3-3-|-4-4--4-4--4-6-4-|

G|---------------------------------------------|
D|---------------------------------------------|
A|---------------------------------------------| x2
E|---------------------------------------------|
B|-3-3-3-3-3-3-3-3-3-3-3-3-4p3-4p3-4p3-4-6-7-8-|

G|---------------------------|    |-----------------|      play these 2
D|*--------------------------|    |----------------*|          x4
A|---------------------------| x3 |-----------------| x1   
E|*--------------------------|    |----------------*|        
B|-3-3-3-3-3-3-3-3-4p3-3-4p3-|    |-3-3-3-3-4-6-7-8-|

G|-----------|-----------|-------------------|
D|-----------|-----------|-------------------|
A|-----------|-----------|-------------------|
E|-----------|-----------|-------------------|
B|-0-1-2-3-3-|-0-1-2-3-3-|-0-1-3-4-4-4-4-4-4-|

G|-----------|-----------|---------------------|
D|-----------|-----------|---------------------|
A|-----------|-----------|-5-4-------5-4-8-7---|
E|-----------|-----------|-----5-5-4---------6-|
B|-0-1-2-3-3-|-0-1-2-3-3-|---------------------|

G|-----------|-----------|-------------------|
D|-----------|-----------|-------------------|
A|-----------|-----------|-------------------|
E|-----------|-----------|-------------------|
B|-0-1-2-3-3-|-0-1-2-3-3-|-0-1-3-4-4-4-4-4-4-|

G|-----------|-----------|-----------------|
D|-----------|-----------|-----------------|
A|-----------|-----------|-----------------|
E|-----------|-----------|-----------------|
B|-0-1-2-3-3-|-0-1-2-3-3-|-4-4--4-4--4-6-4-|

G|---------------------------|    |-----------------|      play these 2
D|*--------------------------|    |----------------*|          x2
A|---------------------------| x3 |-----------------| x1   
E|*--------------------------|    |----------------*|        
B|-3-3-3-3-3-3-3-3-4p3-3-4p3-|    |-3-3-3-3-4-6-7-8-|

G|-----------------------|
D|-----------------------|
A|-5-3---6-5-3-5---------| x4
E|-----4---------4-3-1---|
B|---------------------3-|

G|-----------------------|
D|-----------------------|
A|-7-5---8-7-5-7---------| x4
E|-----6---------6-5-----|
B|-------------------8-5-|

G|------------------------|
D|------------------------|
A|-9-7---10-9-7-9---------| x3
E|-----8----------8-7-5---|
B|----------------------7-|

G|-------------|
D|-------------|
A|-------------| 
E|-------------|
B|-x/x/x/x/x/x-|

G|---------------------------------------------------------|
D|---------------------------------------------------------|
A|---------------------------------------------------------| 
E|---------------------------------------------------------|
B|-3-333-3-3-3-333-3-3-3-333-3-3-3-333-3-3-3-333-3-3-3-333-|

G|-----------|-----------|-------------------|
D|-----------|-----------|-------------------|
A|-----------|-----------|-------------------|
E|-----------|-----------|-------------------|
B|-0-1-2-3-3-|-0-1-2-3-3-|-0-1-3-4-4-4-4-4-4-|

G|-----------|-----------|---------------------|
D|-----------|-----------|---------------------|
A|-----------|-----------|-5-4-------5-4-8-7---|
E|-----------|-----------|-----5-5-4---------6-|
B|-0-1-2-3-3-|-0-1-2-3-3-|---------------------|

G|-----------|-----------|-------------------|
D|-----------|-----------|-------------------|
A|-----------|-----------|-------------------|
E|-----------|-----------|-------------------|
B|-0-1-2-3-3-|-0-1-2-3-3-|-0-1-3-4-4-4-4-4-4-|

G|-----------|-----------|-----------------|
D|-----------|-----------|-----------------|
A|-----------|-----------|-----------------|
E|-----------|-----------|-----------------|
B|-0-1-2-3-3-|-0-1-2-3-3-|-4-4--4-4--4-6-4-|

G|---------------------------------------------|
D|---------------------------------------------|
A|---------------------------------------------| x2
E|---------------------------------------------|
B|-3-3-3-3-3-3-3-3-3-3-3-3-4p3-4p3-4p3-4-6-7-8-|

G|---------------------------|    |-----------------|      play these 2
D|*--------------------------|    |----------------*|          x4
A|---------------------------| x3 |-----------------| x1   
E|*--------------------------|    |----------------*|        
B|-3-3-3-3-3-3-3-3-4p3-3-4p3-|    |-3-3-3-3-4-6-7-8-|

G|-----------------------|
D|-----------------------|
A|-5-3---6-5-3-5---------| x4
E|-----4---------4-3-1---|
B|---------------------3-|

G|-----------------------|
D|-----------------------|
A|-7-5---8-7-5-7---------| x4
E|-----6---------6-5-----|
B|-------------------8-5-|

G|------------------------|
D|------------------------|
A|-9-7---10-9-7-9---------| x3
E|-----8----------8-7-5---|
B|----------------------7-|

G|-------------|
D|-------------|
A|-------------| 
E|-------------|
B|-x/x/x/x/x/x-|

G|-------------|---------|
D|-------------|---------|
A|-------------|---------| x4
E|-------------|---------|
B|-10-10-10-10-|-4-4-4-4-|

G|--------------------------------------|
D|--------------------------------------|      note: the "h" & "p" are smooth
A|--------------------------------------| x2           and slow but there
E|--------------------------------------|
B|-10-10-10-10h12p8-8h10p6-6h8p5-5-5-5/-|

G|-------------------------|-------------------------|
D|-------------------------|-------------------------|
A|-0-0-0-0-0-0-0-0-0-0-0-0-|-6-6-6-6-6-6-6-6-6-6-6-6-| x6
E|-------------------------|-------------------------|
B|-------------------------|-------------------------|

G|------------------------------------------------|
D|------------------------------------------------|
A|------------------------------------------------|
E|-5-5-5-5-5-5-3-3-3-3-3-3-1-1-1-1-1-1-0-0-0-0-0-0|
B|------------------------------------------------|

G|---------------------------------------------|
D|---------------------------------------------|
A|-------------------------------------7-6-5---|
E|-5-5-5-5-7-5-3-3-3-3-5-3-1-1-1-1-3-1-------1-|
B|---------------------------------------------|

G|---------------------------------------------------------|
D|---------------------------------------------------------|
A|---------------------------------------------------------| 
E|---------------------------------------------------------|
B|-3-333-3-3-3-333-3-3-3-333-3-3-3-333-3-3-3-333-3-3-3-333-|

G|-----------|-----------|-------------------|
D|-----------|-----------|-------------------|
A|-----------|-----------|-------------------|
E|-----------|-----------|-------------------|
B|-0-1-2-3-3-|-0-1-2-3-3-|-0-1-3-4-4-4-4-4-4-|

G|-----------|-----------|---------------------|
D|-----------|-----------|---------------------|
A|-----------|-----------|-5-4-------5-4-8-7---|
E|-----------|-----------|-----5-5-4---------6-|
B|-0-1-2-3-3-|-0-1-2-3-3-|---------------------|

G|-----------|-----------|-------------------|
D|-----------|-----------|-------------------|
A|-----------|-----------|-------------------|
E|-----------|-----------|-------------------|
B|-0-1-2-3-3-|-0-1-2-3-3-|-0-1-3-4-4-4-4-4-4-|

G|-----------|-----------|-----------------|
D|-----------|-----------|-----------------|
A|-----------|-----------|-----------------|
E|-----------|-----------|-----------------|
B|-0-1-2-3-3-|-0-1-2-3-3-|-4-4--4-4--4-6-4-|

G|---------------------------------------------|
D|---------------------------------------------|
A|---------------------------------------------| x2
E|---------------------------------------------|
B|-3-3-3-3-3-3-3-3-3-3-3-3-4p3-4p3-4p3-4-6-7-8-|

G|---------------------------|    |-----------------|      play these 2
D|*--------------------------|    |----------------*|          x4
A|---------------------------| x3 |-----------------| x1   
E|*--------------------------|    |----------------*|        
B|-3-3-3-3-3-3-3-3-4p3-3-4p3-|    |-3-3-3-3-4-6-7-8-|

G|-----------------------|
D|-----------------------|
A|-5-3---6-5-3-5---------| x4
E|-----4---------4-3-1---|
B|---------------------3-|

G|-----------------------|
D|-----------------------|
A|-7-5---8-7-5-7---------| x4
E|-----6---------6-5-----|
B|-------------------8-5-|

G|------------------------|
D|------------------------|
A|-9-7---10-9-7-9---------| x3
E|-----8----------8-7-5---|
B|----------------------7-|

G|-------------|
D|-------------|
A|-------------| 
E|-------------|
B|-x/x/x/x/x/x-|


Tabbed by: MetallicaDMRTL

i will be working on 

Load, Reload, and Lulu

btw the slow part was 

extremely difficult to hear but i think i got it any suggestions leave me a 

message thanks- and PPS the "A0" and "A6" part sounds right but i imagine 

theres more fills there (maybe)so again message me for ideas thanks again-

                            \m/Metallica\m/

-------------------------------------------------------------------------------
                             Hell and Back - Metallica
-------------------------------------------------------------------------------

NOTE: this tab is for 5string if u have 4 then knock the G off and tune BEAD, and also i 
know some rhythms in this song are hard so ill put in beats for those measures

Tabbed by: MetallicaDMRTL

Tuning:BEADG

Beat:125

  1   2   3   4  1   2   3   4   1   2   3   4  1   2   3   4
G|--------------|--------------|---------------|--------------|
D|--------------|--------------|---------------|--------------|
A|--------------|--------------|---------------|--------------| x2
E|-r--r--(0)----|--------0---r-|-r---r--(0)----|-0--r---0---r-|
B|--------------|--------------|---------------|--------------|

G|-------------|
D|-------------|
A|-------------|
E|-*-*-*-*-*-*-|
B|-4-4-4-4-4-4-|

G|-----------------|-----------|
D|-----------------|-----------|
A|-----------------|-----------|
E|-3-3-3-3-3-3-3-3-|-*-*-*-*-*-|
B|-----------------|-4-4-4-4-4-|

G|-------------------|-------------------|
D|-------------------|-------------------|
A|-2-2-2h3-----------|-------------------| x4
E|---------3h5-0-0-0-|-0-0-0-0-3h5-0-0-0-|
B|-------------------|-------------------|

G|----------------|--------------|----------------|-------------|
D|----------------|--------------|----------------|-------------|
A|--------3-3-2-3-|--2--3--2-2-2-|--------3-3-2-3-|--2\8--7-7---|
E|-0--0-0---------|--------------|-0--0-0---------|-----------0-|
B|----------------|--------------|----------------|-------------|

G|-----------|---------|
D|-----------|---------|
A|-----------|---------| x4
E|-----------|---------|
B|-5--5\---5-|-5-------|

G|--------------|---------------|
D|--------------|---------------|
A|--------------|---------------| x3
E|--------------|---------------|
B|-5-5\-x-5-r-5-|-5-r-5-r-3-r-5-|

G|--------------|-----------------|
D|--------------|-----------------|
A|--------------|-----------------|
E|--------------|-0-0-0-0-0-0-0-0-|
B|-5-5\-x-5-r-5-|-----------------|

G|-----------------|-----------------|
D|-----------------|-----------------|
A|-3-3-3-3-3-3-3-3-|-2-2-2-2-2-2-2-2-|
E|-----------------|-----------------|
B|-----------------|-----------------|

G|-----------------|-----------------|-----------------|
D|-----------------|-----------------|-----------------|
A|-5-5-5-5-5-5-5-5-|-2-2-2-2-2-2-2-2-|-----------------|
E|-----------------|-----------------|-3-3-3-3-3-3-3-3-|
B|-----------------|-----------------|-----------------|

G|-------------|
D|-------------|
A|-------------|
E|-*-*-*-*-*-*-|
B|-4-4-4-4-4-4-|

G|-------------------|-------------------|
D|-------------------|-------------------|
A|-2-2-2h3-----------|-------------------| x2
E|---------3h5-0-0-0-|-0-0-0-0-3h5-0-0-0-|
B|-------------------|-------------------|

G|-----------------|-----------------|
D|-----------------|-----------------|
A|-3-3-3-3-3-3-3-3-|-2-2-2-2-2-2-2-2-|
E|-----------------|-----------------|
B|-----------------|-----------------|

G|-----------------|-----------------|-----------------|
D|-----------------|-----------------|-----------------|
A|-5-5-5-5-5-5-5-5-|-2-2-2-2-2-2-2-2-|-----------------|
E|-----------------|-----------------|-3-3-3-3-3-3-3-3-|
B|-----------------|-----------------|-----------------|

G|-------------|
D|-------------|
A|-------------|
E|-*-*-*-*-*-*-|
B|-4-4-4-4-4-4-|

G|-------------------|-------------------|
D|-------------------|-------------------|
A|-2-2-2h3-----------|-------------------| x4
E|---------3h5-0-0-0-|-0-0-0-0-3h5-0-0-0-|
B|-------------------|-------------------|

G|----------------|--------------|----------------|-------------|
D|----------------|--------------|----------------|-------------|
A|--------3-3-2-3-|--2--3--2-2-2-|--------3-3-2-3-|--2\8--7-7---|
E|-0--0-0---------|--------------|-0--0-0---------|-----------0-|
B|----------------|--------------|----------------|-------------|

G|-----------|---------|
D|-----------|---------|
A|-----------|---------| x4
E|-----------|---------|
B|-5--5\---5-|-5-------|

G|--------------|---------------|
D|--------------|---------------|
A|--------------|---------------| x3
E|--------------|---------------|
B|-5-5\-x-5-r-5-|-5-r-5-r-3-r-5-|

G|--------------|-----------------|
D|--------------|-----------------|
A|--------------|-----------------|
E|--------------|-0-0-0-0-0-0-0-0-|
B|-5-5\-x-5-r-5-|-----------------|

G|-----------------|-----------------|
D|-----------------|-----------------|
A|-3-3-3-3-3-3-3-3-|-2-2-2-2-2-2-2-2-|
E|-----------------|-----------------|
B|-----------------|-----------------|

G|-----------------|-----------------|-----------------|
D|-----------------|-----------------|-----------------|
A|-5-5-5-5-5-5-5-5-|-2-2-2-2-2-2-2-2-|-----------------|
E|-----------------|-----------------|-3-3-3-3-3-3-3-3-|
B|-----------------|-----------------|-----------------|

G|-------------|
D|-------------|
A|-------------|
E|-*-*-*-*-*-*-|
B|-4-4-4-4-4-4-|

G|-------------------|-------------------|
D|-------------------|-------------------|
A|-2-2-2h3-----------|-------------------| x2
E|---------3h5-0-0-0-|-0-0-0-0-3h5-0-0-0-|
B|-------------------|-------------------|

G|-----------------|-----------------|
D|-----------------|-----------------|
A|-3-3-3-3-3-3-3-3-|-2-2-2-2-2-2-2-2-|
E|-----------------|-----------------|
B|-----------------|-----------------|

G|-----------------|-----------------|-----------------|
D|-----------------|-----------------|-----------------|
A|-5-5-5-5-5-5-5-5-|-2-2-2-2-2-2-2-2-|-----------------|
E|-----------------|-----------------|-3-3-3-3-3-3-3-3-|
B|-----------------|-----------------|-----------------|

G|-------------|
D|-------------|
A|-------------|
E|-*-*-*-*-*-*-|
B|-4-4-4-4-4-4-|

G|-------------------|-------------------|
D|-------------------|-------------------|
A|-2-2-2h3-----------|-------------------| x3
E|---------3h5-0-0-0-|-0-0-0-0-3h5-0-0-0-|
B|-------------------|-------------------|

G|-------------------|-----------|-----------|
D|-------------------|-----------|-----------|
A|-2-2-2h3-----------|-----------|-----------|
E|---------3h5-0-0-0-|-*-*-*-*-*-|-(0)-------|
B|-------------------|-4-4-4-4-4-|-----------|

G|---------------------|
D|---------------------|
A|---------------------| x8
E|---------------------|
B|-3h5-5-5-r-3h5-5-5-r-|

G|-------------|
D|-------------|
A|---2-1---2-1-| x2
E|-0-----0-----|
B|-------------|

G|--------------|
D|--------------|
A|---4-3--0-2---| x4
E|-2----------3-|
B|--------------|

G|---------------------|
D|---------------------|
A|---------------------| x4
E|---------------------|
B|-3h5-5-5-r-3h5-5-5-r-|

G|--------------|
D|--------------|
A|---4-3--0-2---| x4
E|-2----------3-|
B|--------------|

G|--------------|
D|--------------|
A|---6-5----4---| x4
E|-4------7---5-|
B|--------------|

G|--------------|
D|--------------|
A|-*-*-*--------| x4
E|-6-6-6/9-11-7-|
B|--------------|

G|-------------|-------------|-------------|----|
D|---4-3---4-3-|---5-4---6-5-|-------------|----|
A|-2-----2-----|-3-----4-----|-5-5-5-5-5-5-|-5/-|
E|-------------|-------------|-------------|----|
B|-------------|-------------|-------------|----|

G|---------------------|
D|---------------------|
A|---------------------| x8
E|---------------------|
B|-3h5-5-5-r-3h5-5-5-r-|

G|-----------------|-----------------|
D|-----------------|-----------------|
A|-3-3-3-3-3-3-3-3-|-2-2-2-2-2-2-2-2-|
E|-----------------|-----------------|
B|-----------------|-----------------|

G|-----------------|-----------------|-----------------|
D|-----------------|-----------------|-----------------|
A|-5-5-5-5-5-5-5-5-|-2-2-2-2-2-2-2-2-|-----------------|
E|-----------------|-----------------|-3-3-3-3-3-3-3-3-|
B|-----------------|-----------------|-----------------|

G|-------------|
D|-------------|
A|-------------|
E|-*-*-*-*-*-*-|
B|-4-4-4-4-4-4-|

G|-------------------|-------------------|
D|-------------------|-------------------|
A|-2-2-2h3-----------|-------------------| x2
E|---------3h5-0-0-0-|-0-0-0-0-3h5-0-0-0-|
B|-------------------|-------------------|

G|-----------------|-----------------|
D|-----------------|-----------------|
A|-3-3-3-3-3-3-3-3-|-2-2-2-2-2-2-2-2-|
E|-----------------|-----------------|
B|-----------------|-----------------|

G|-----------------|-----------------|-----------------|
D|-----------------|-----------------|-----------------|
A|-5-5-5-5-5-5-5-5-|-2-2-2-2-2-2-2-2-|-----------------|
E|-----------------|-----------------|-3-3-3-3-3-3-3-3-|
B|-----------------|-----------------|-----------------|

G|-------------|
D|-------------|
A|-------------|
E|-*-*-*-*-*-*-|
B|-4-4-4-4-4-4-|

G|-------------------|-------------------|
D|-------------------|-------------------|
A|-2-2-2h3-----------|-------------------| x2
E|---------3h5-0-0-0-|-0-0-0-0-3h5-0-0-0-|
B|-------------------|-------------------|

G|-----------------|-----------------|
D|-----------------|-----------------|
A|-3-3-3-3-3-3-3-3-|-2-2-2-2-2-2-2-2-|
E|-----------------|-----------------|
B|-----------------|-----------------|

G|-----------------|-----------------|-----------------|
D|-----------------|-----------------|-----------------|
A|-5-5-5-5-5-5-5-5-|-2-2-2-2-2-2-2-2-|-----------------|
E|-----------------|-----------------|-3-3-3-3-3-3-3-3-|
B|-----------------|-----------------|-----------------|

G|-------------|
D|-------------|
A|-------------|
E|-*-*-*-*-*-*-|
B|-4-4-4-4-4-4-|

G|-------------------|-------------------|
D|-------------------|-------------------|
A|-2-2-2h3-----------|-------------------| x3
E|---------3h5-0-0-0-|-0-0-0-0-3h5-0-0-0-|
B|-------------------|-------------------|

G|-------------------|-----------|-----------|
D|-------------------|-----------|-----------|
A|-2-2-2h3-----------|-----------|-----------|
E|---------3h5-0-0-0-|-*-*-*-*-*-|-(0)-------|
B|-------------------|-4-4-4-4-4-|-----------|

G|---------------------|    |-----|
D|---------------------|    |-----|
A|---------------------| x8 |-----|
E|---------------------|    |-0---|
B|-3h5-5-5-r-3h5-5-5-r-|    |-----|

MetallicaDMRTL

LOAD, RELOAD, and LULU to come...

                       \m/Metallica\m/

Btw i tabbed by ear and this part i cant tell but theres a 2nd way to play this rift, 
ive seen trujillo do it live but not sure cause they play in different keys live, so 
decide for yourself (and this everytime too) (optional)!!!!!!!!!!

G|-----------------|-----------------|
D|-----------------|-----------------|
A|-3-3-3-3-3-3-3-3-|-2-2-2-2-2-2-2-2-|
E|-----------------|-----------------|
B|-----------------|-----------------|

G|-----------------|-----------------|-----------------|
D|-----------------|-----------------|-----------------|
A|-5-5-5-5-5-5-5-5-|-----------------|-----------------|
E|-----------------|-----------------|-----------------|
B|-----------------|-2-2-2-2-2-2-2-2-|-3-3-3-3-3-3-3-3-|

-------------------------------------------------------------------------------
                             Rebel of Babylon - Metallica
-------------------------------------------------------------------------------

Note:Another 5string song if u have 4 tune down 2 BEAD, and this intro is extremely 
quiet but i went off from what i saw live so deal with it, its close to 100% right so here 
it is rebel of babylon

Tabbed by: MetallicaDMRTL

Tuning: BEADG

Trujillo starts playing at the first long guitar strum

G|------------------------------|
D|-5h7-7-7--7-7-7--7-7-7--7-7-7-|
A|------------------------------| x2
E|------------------------------|
B|------------------------------|

G|-------------------------------------------|
D|-5h7-7-7--5h7-7-7--5h7-7-7--5h7-7-7--7-7-7-|
A|-------------------------------------------| x3
E|-------------------------------------------|
B|-------------------------------------------|

G|----------------------------------------------------------------------|
D|-5h7-7-7--5h7-7-7--5h7-7-7--5h7-7-7-----------------------------------|
A|----------------------------------------------------------------------|
E|-------------------------------------3h5-5-5--5-5-5--3h5-5-5--3h5-5-5-|
B|----------------------------------------------------------------------|

G|-----------------------------|
D|-----------------------------|
A|---------------5-5-----------| x3
E|-0-0-0-0-0--6------4--3-3-2/-|
B|-----------------------------|

G|-------------------------------|
D|-------------------------------|
A|-------------------------------|
E|-0-0-0-0-0--6--3p0-0-0-0-0-0-0-|
B|-------------------------------|

G|-----------------------------|
D|-----------------------------|
A|---------------5-5-----------| x3
E|-0-0-0-0-0--6------4--3-3-2/-|
B|-----------------------------|

G|-------------------------------|
D|-------------------------------|
A|-------------------------------|
E|-0-0-0-0-0--6--3p0-0-0-0-0-0-0-|
B|-------------------------------|

G|----------------------|---------------------|---------------------|
D|*---------------------|---------------------|---------------------|
A|----------------------|------1--------------|-1----4--------------|
E|*-0--0-3--0-0-0-0-0-0-|-3--0----0-0-0-0-0-0-|----0----0-0-0-0-0-0-|
B|----------------------|---------------------|---------------------|

G|------------------|
D|-----------------*|
A|-1-2-1-0-1-0------| x2
E|-------------3-2-*|
B|------------------|

G|---------------------|---------------------------------|
D|---------------------|---------------------------------|
A|---------------------|---------------------------------| x3
E|-0--0-3--0-0-0-0-0-0-|-0-0-0-0-0-0-0-0-0-0-0-0-0-0-0-0-|
B|---------------------|---------------------------------|

G|---------------------|---------------------------------|   pick the slide
D|---------------------|---------------------------------|   like the 0's
A|---------------------|---------------------------------|      before
E|-0--0-3--0-0-0-0-0-0-|-0-0-0-0-0-0-0-0-12\\\\\\\\\\\\5-|
B|---------------------|---------------------------------|

G|---------------------|---------------------|
D|---------------------|---------------------|
A|---------------------|------1--------------| x3
E|-0--0-3--0-0-0-0-0-0-|-3--0----0-0-0-0-0-0-|
B|---------------------|---------------------|

G|---------------------|-----------------|
D|---------------------|-----------------|
A|-1----4--------------|-1-2-1-0-1-0-----|
E|----0----0-0-0-0-0-0-|-------------3-2-|
B|---------------------|-----------------|

G|-----------------|-----------------|-----------------|-----------------|
D|-----------------|-----------------|-----------------|-----------------|
A|-----------------|-----------------|-----------------|-----------------| x2
E|-1-1-1-1-1-1-1-1-|-----------------|-----------------|-5-5-5-5-5-5-5-5-|
B|-----------------|-1-1-1-1-1-1-1-1-|-3-3-3-3-3-3-3-3-|-----------------|

G|----------------|-----------------|-------|------|---------|
D|----------------|-----------------|-------|------|---------|
A|----------------|-----------------|-------|------|-(0)-----|
E|-0--0-0-0-0-0-0-|-0-0-0-0-0-0-0-0-|-1-----|------|---------|
B|----------------|-----------------|-------|-3----|---------|

G|--------|-------------|-----------|-------------|------------|
D|--------|-------------|-----------|-------------|------------|
A|----3-2-|-------------|-3h5-5-----|-------------|--------3-2-|
E|--------|-5-5-5-5-5-3-|-------3h5-|-3-0-0-3-0-0-|-3h5-5------|
B|--------|-------------|-----------|-------------|------------|

G|-------------|-----------|-------------|-----------|
D|-------------|-----------|-------------|-----------|
A|-------------|-3h5-5-----|-------------|-------3-2-| x2
E|-5-5-5-5-5-3-|-------3h5-|-3-0-0-3-0-0-|-3h5-5-----|
B|-------------|-----------|-------------|-----------|

G|-------------|-----------|-------------|---------|
D|-------------|-----------|-------------|---------|
A|-------------|-3h5-5-----|-------------|---------|
E|-5-5-5-5-5-3-|-------3h5-|-3-r---------|-*-------|
B|-------------|-----------|-----1-------|-3-r-r-r-|

G|----------------------|---------------------|---------------------|
D|*---------------------|---------------------|---------------------|
A|----------------------|------1--------------|-1----4--------------|
E|*-0--0-3--0-0-0-0-0-0-|-3--0----0-0-0-0-0-0-|----0----0-0-0-0-0-0-|
B|----------------------|---------------------|---------------------|

G|------------------|
D|-----------------*|
A|-1-2-1-0-1-0------| x2
E|-------------3-2-*|
B|------------------|

G|---------------------|---------------------------------|
D|---------------------|---------------------------------|
A|---------------------|---------------------------------| x3
E|-0--0-3--0-0-0-0-0-0-|-0-0-0-0-0-0-0-0-0-0-0-0-0-0-0-0-|
B|---------------------|---------------------------------|

G|---------------------|---------------------------------|   pick the slide
D|---------------------|---------------------------------|   like the 0's
A|---------------------|---------------------------------|      before
E|-0--0-3--0-0-0-0-0-0-|-0-0-0-0-0-0-0-0-12\\\\\\\\\\\\5-|
B|---------------------|---------------------------------|

G|---------------------|---------------------|
D|---------------------|---------------------|
A|---------------------|------1--------------| x3
E|-0--0-3--0-0-0-0-0-0-|-3--0----0-0-0-0-0-0-|
B|---------------------|---------------------|

G|---------------------|-----------------|
D|---------------------|-----------------|
A|-1----4--------------|-1-2-1-0-1-0-----|
E|----0----0-0-0-0-0-0-|-------------3-2-|
B|---------------------|-----------------|

G|-----------------|-----------------|-----------------|-----------------|
D|-----------------|-----------------|-----------------|-----------------|
A|-----------------|-----------------|-----------------|-----------------| x2
E|-1-1-1-1-1-1-1-1-|-----------------|-----------------|-5-5-5-5-5-5-5-5-|
B|-----------------|-1-1-1-1-1-1-1-1-|-3-3-3-3-3-3-3-3-|-----------------|

G|----------------|-----------------|-------|------|---------|
D|----------------|-----------------|-------|------|---------|
A|----------------|-----------------|-------|------|-(0)-----|
E|-0--0-0-0-0-0-0-|-0-0-0-0-0-0-0-0-|-1-----|------|---------|
B|----------------|-----------------|-------|-3----|---------|

G|--------|-------------|-----------|-------------|------------|
D|--------|-------------|-----------|-------------|------------|
A|----3-2-|-------------|-3h5-5-----|-------------|--------3-2-|
E|--------|-5-5-5-5-5-3-|-------3h5-|-3-0-0-3-0-0-|-3h5-5------|
B|--------|-------------|-----------|-------------|------------|

G|-------------|-----------|-------------|-----------|
D|-------------|-----------|-------------|-----------|
A|-------------|-3h5-5-----|-------------|-------3-2-| x2
E|-5-5-5-5-5-3-|-------3h5-|-3-0-0-3-0-0-|-3h5-5-----|
B|-------------|-----------|-------------|-----------|

G|-------------|-----------|-------------|---------|
D|-------------|-----------|-------------|---------|
A|-------------|-3h5-5-----|-------------|---------|
E|-5-5-5-5-5-3-|-------3h5-|-3-r---------|-*-------|
B|-------------|-----------|-----1-------|-3-r-r-r-|

G|----------------------|---------------------|---------------------|
D|*---------------------|---------------------|---------------------|
A|----------------------|------1--------------|-1----4--------------|
E|*-0--0-3--0-0-0-0-0-0-|-3--0----0-0-0-0-0-0-|----0----0-0-0-0-0-0-|
B|----------------------|---------------------|---------------------|

G|------------------|
D|-----------------*|
A|-1-2-1-0-1-0------| x2
E|-------------3-2-*|
B|------------------|

G|-----------------------------|
D|-----------------------------|
A|---------------5-5-----------| x3
E|-0-0-0-0-0--6------4--3-3-2/-|
B|-----------------------------|

G|-------------------------------|
D|-------------------------------|
A|-------------------------------|
E|-0-0-0-0-0--6--3p0-0-0-0-0-0-0-|
B|-------------------------------|

G|-----------------------------|
D|-----------------------------|
A|---------------5-5-----------| x3
E|-0-0-0-0-0--6------4--3-3-2/-|
B|-----------------------------|

G|-------------------------------|
D|-------------------------------|
A|-------------------------------|
E|-0-0-0-0-0--6--3p0-0-0-0-0-0-0-|
B|-------------------------------|

G|---------------|    |---------|
D|---------------|    |---------|
A|---1-1-1---1-1-| x4 |---------|
E|-0-------0-----|    |---------|
B|---------------|    |-15///12-|

G|---------------|
D|---------------|
A|---1-1-1---1-1-| x4
E|-0-------0-----|
B|---------------|

G|------|-------|
D|------|-------|
A|------|-------| x2
E|-3--2-|-0-----|
B|------|-------|

G|---------------|
D|---------------|
A|---1-1-1---1-1-|
E|-0-------0-----|
B|---------------|

G|------|------|-------|
D|------|------|-------|
A|------|------|-------|
E|-0----|-3--2-|-0-----|
B|------|------|-------|

G|---------------|
D|---------------|
A|---1-1-1---1-1-| x2
E|-0-------0-----|
B|---------------|

G|-----------------------------|
D|-----------------------------|
A|---------------5-5-----------| x3
E|-0-0-0-0-0--6------4--3-3-2/-|
B|-----------------------------|

G|-------------------------------|
D|-------------------------------|
A|-------------------------------|
E|-0-0-0-0-0--6--3p0-0-0-0-0-0-0-|
B|-------------------------------|

G|-----------------------------|
D|-----------------------------|
A|---------------5-5-----------| x3
E|-0-0-0-0-0--6------4--3-3-2/-|
B|-----------------------------|

G|-------------------------------|
D|-------------------------------|
A|-------------------------------|
E|-0-0-0-0-0--6--3p0-0-0-0-0-0-0-|
B|-------------------------------|

G|----------------------|
D|----------------------|
A|------------3-2-3-0-3-| x2
E|-2-2-2-2-2------------|
B|----------------------|

G|----------------------|
D|----------------------|
A|------------3-2-3-2-0-|
E|-2-2-2-2-2------------|
B|----------------------|

G|----------------------|
D|----------------------|
A|------------3-2-0-----|
E|-2-2-2-2-2--------3-2-|
B|----------------------|

G|--------|---------|---------|-----------|
D|--------|---------|---------|-----------|
A|--------|---------|---------|-----------| x2
E|--------|---------|---------|-----------|
B|-5------|-(5)-----|-4-------|-(4)-------|

G|---------|---------|
D|---------|---------|
A|---------|---------| x2
E|---------|---------|
B|-5-5-5---|-5-5-4---|

G|--------------|----------|--------------|------------|
D|--------------|----------|--------------|------------|
A|--------------|----------|--------------|------------|
E|-0-0-0-0-3--3-|----------|--------------|------------|
B|--------------|-5h6h7h8\-|-4-4-4-4-7--7-|-4h5h6h7h8\-|

G|---------------|
D|---------------|
A|---------------| x5
E|---------------|
B|-5-5--5-5--5-5-|

G|---------------|
D|---------------|
A|---------------|
E|---------------|
B|-5-5--5-5------|

G|---------------------------|
D|---------------------------|        Bend the 2 also (everytime)
A|-------1--0-------1--0-----| x3
E|-0-0-0------3---0------3-2-|
B|---------------------------|

G|-------------------|
D|-------------------|
A|-------------------|
E|-0-0-0--0-0-0--0-0-|
B|-------------------|

G|---------------------------|
D|---------------------------|        Bend the 2 also (everytime)
A|-------1--0-------1--0-----| x3
E|-0-0-0------3---0------3-2-|
B|---------------------------|

G|-------------------|
D|-------------------|
A|-------------------|
E|-0-0-0--0-0-0--0-0-|
B|-------------------|

G|----------------------|---------------------------------|
D|*---------------------|---------------------------------|
A|----------------------|---------------------------------|
E|*-0--0-3--0-0-0-0-0-0-|-0-0-0-0-0-0-0-0-0-0-0-0-0-0-0-0-|
B|----------------------|---------------------------------|

G|---------------------|------------------------------|
D|---------------------|-----------------------------*|
A|---------------------|------------------------------| x2
E|-0--0-3--0-0-0-0-0-0-|-0-0-0-0-0-0-0-0---0---0---0-*|
B|---------------------|------------------------------|

G|---------------------|---------------------|
D|---------------------|---------------------|
A|---------------------|------1--------------| x3
E|-0--0-3--0-0-0-0-0-0-|-3--0----0-0-0-0-0-0-|
B|---------------------|---------------------|

G|---------------------|-----------------|
D|---------------------|-----------------|
A|-1----4--------------|-1-2-1-0-1-0-----|
E|----0----0-0-0-0-0-0-|-------------3-2-|
B|---------------------|-----------------|

G|-----------------|-----------------|-----------------|-----------------|
D|-----------------|-----------------|-----------------|-----------------|
A|-----------------|-----------------|-----------------|-----------------| x2
E|-1-1-1-1-1-1-1-1-|-----------------|-----------------|-5-5-5-5-5-5-5-5-|
B|-----------------|-1-1-1-1-1-1-1-1-|-3-3-3-3-3-3-3-3-|-----------------|

G|----------------|-----------------|-------|------|
D|----------------|-----------------|-------|------|
A|----------------|-----------------|-------|------|
E|-0--0-0-0-0-0-0-|-0-0-0-0-0-0-0-0-|-1-----|------|
B|----------------|-----------------|-------|-3----|

G|-------------|-----------|-------------|------------|
D|-------------|-----------|-------------|------------|
A|-------------|-3h5-5-----|-------------|--------3-2-|
E|-5-5-5-5-5-3-|-------3h5-|-3-0-0-3-0-0-|-3h5-5------|
B|-------------|-----------|-------------|------------|

G|-------------|-----------|-------------|-----------|
D|-------------|-----------|-------------|-----------|
A|-------------|-3h5-5-----|-------------|-------3-2-| x2
E|-5-5-5-5-5-3-|-------3h5-|-3-0-0-3-0-0-|-3h5-5-----|
B|-------------|-----------|-------------|-----------|

G|-------------|-----------|-------------|---------|
D|-------------|-----------|-------------|---------|
A|-------------|-3h5-5-----|-------------|---------|
E|-5-5-5-5-5-3-|-------3h5-|-3-r---------|-*-------|
B|-------------|-----------|-----1-------|-3-r-r-r-|

G|----------------------|---------------------|---------------------|
D|*---------------------|---------------------|---------------------|
A|----------------------|------1--------------|-1----4--------------|
E|*-0--0-3--0-0-0-0-0-0-|-3--0----0-0-0-0-0-0-|----0----0-0-0-0-0-0-|
B|----------------------|---------------------|---------------------|

G|------------------|
D|-----------------*|
A|-1-2-1-0-1-0------| x2
E|-------------3-2-*|
B|------------------|

G|-----------------|
D|-----------------|
A|-0---------------|
E|---3-2-1-3-2-1-0-|
B|-----------------|

G|--------------|---------------|
D|--------------|---------------|
A|--------------|-5-5-----------| x3
E|-0-0-0-0-0--6-|-----4--3-3-2\-|
B|--------------|---------------|

G|--------------|-------------|
D|--------------|-------------|
A|--------------|-1-1-1---1-1-|
E|-0-0-0-0-0--6-|-------0-----|
B|--------------|-------------|

G|--------------|---------------|
D|--------------|---------------|
A|--------------|-5-5-----------| x3
E|-0-0-0-0-0--6-|-----4--3-3-2\-|
B|--------------|---------------|

G|---------------|
D|---------------|
A|---1-1-1---1-1-| x3
E|-0-------0-----|
B|---------------|

And there it is Rebel of Babylon, a little complicated but fun none the less enjoi btw 
the last part u can do this (optional)

G|---------------|
D|---------------|
A|---1-1-1---1-1-| x2
E|-0-------0-----|
B|---------------|

G|---------------|
D|---8-8-8---8-8-|
A|-7-------7-----|
E|---------------|
B|---------------|

or u could even do a 3 octave jump just sayin so the last bars:

G|---------------|
D|---------------|
A|---1-1-1---1-1-|
E|-0-------0-----|
B|---------------|

G|---------------|
D|---8-8-8---8-8-|
A|-7-------7-----|
E|---------------|
B|---------------|

G|----15-15-15----15-15-|
D|-14----------14-------|
A|----------------------|
E|----------------------|
B|----------------------|

sounds cooler in my opinion and so u know if u follow me through ultimateguitar.com i 
will be working on redo's of shitty songs in the future from metallica's list, so 
keep on rocking!!!

    MetallicaDMRTL

                         \m/Metallica\m/

who tabbed it
Hate train- MetallicaDMRTL
Just A Bullet Away- MetallicaDMRTL
Hell and Back- MetallicaDMRTL
Rebel of Babylon- MetallicaDMRTL

    MetallicaDMRTL

   All Credit goes to me, MetallicaDMRTL, i hope the community enjoi's

                             \m/Metallica\m/
comments
We did not receive enough feedback on this tab! Please rate:
print report bad tab
1 2 3 4 5
I want to post or [tab]
guest
You may want to rate the tab now too:
select rating
Please do not post tabs as comments. Select "correction" instead!