Oops, an error
Loading. Please wait.

Black Album Drum Tab

7,814 views 6 this week
no commentswrite comment
1 2 3 4 5
accurate
x 3
add to favorites launch autoscroll
font size
0
reset
Autoscroll
+/-
esc
set tempo
stop
Contributor
Difficulty
advanced
WARNING: You are trying to view
                                    content from Ultimate-Guitar.com
                                    in an unauthorized application,
                                    which is prohibited.

                                    Please use an official Ultimate
                                    Guitar Tabs application for iPhone,
                                    iPad or Android to access legitimate
                                    chords, guitar, bass, and drum tabs
                                    from Ultimate-Guitar.com database.

                                    Type "ultimate guitar tabs" in Apple
                                    App Store's or Android Market's
                                    search to find the application.
Enter sandman

INTRO
    (repeat 3 times)                  (repeat 3 times)
H  |----x-------x---|----x-----xxx---|----x-------x---|X---X---X---X---|
    1e+a2e+a3e+a4e+a 1e+a2e+a3e+a4e+a 1e+a2e+a3e+a4e+a 1e+a2e+a3e+a4e+a

    (repeat 3 times)                  (repeat 3 times)
C2 |----------------|--------------X-|----------------|------X-------X-|
2T |o---o---o---o-o-|o---o---o---o---|o---o---o---o-o-|----------------|
3T |o-o-o-o-o-o-o-o-|o-o-o-o-o-o-o---|o-o-o-o-o-o-o-o-|o-o-o---o-o-o---|
S  |----------------|--------------o-|----------------|------o-------o-|
B  |----------------|----------------|o---o---o---o---|o---o---o---o---|
    1e+a2e+a3e+a4e+a 1e+a2e+a3e+a4e+a 1e+a2e+a3e+a4e+a 1e+a2e+a3e+a4e+a

    (repeat 3 times)                  (repeat 3 times)
C2 |----------------|------X---X---X-|----------------|--------------X-|
2T |o---o---o---o-o-|o---o-----------|o---o---o---o---|o---o---o-o-o---|
3T |o-o-o-o-o-o-o-o-|o-o-o-----------|o-o-o-o-o-o-o-o-|o-o-o-o-o-o-o---|
S  |----------------|------o---o---o-|--------------o-|--------------o-|
B  |o---o---o---o---|o---o---o---o---|o---o---o---o---|o---o---o---o---|
    1e+a2e+a3e+a4e+a 1e+a2e+a3e+a4e+a 1e+a2e+a3e+a4e+a 1e+a2e+a3e+a4e+a

    (repeat 2 times)
C2 |----------------|----------------|--------------X-|
2T |o---o---o---o---|----------------|----------------|
3T |o-o-o-o-o-o-o-o-|o-o-o-o-o-o-o-o-|o-o-o-o-o-o-o---|
S  |--------------o-|o-o-o-o-o-o-o-o-|o-o-o-o-o-o-o---|
B  |o---o---o---o---|o-o-o-o-o-o-o-o-|o-o-o-o-o-o---o-|
    1e+a2e+a3e+a4e+a 1e+a2e+a3e+a4e+a 1e+a2e+a3e+a4e+a

BRIDGE 1
    (repeat 3 times)                  (repeat 3 times)
C1 |----------------|--------------X-|----------------|--------------X-|
H  |x-x-x-x-x-x-x-x-|x-x-x-x-x-x-x---|x-x-x-x-x-x-x-x-|x-x-x-x-x-x-x---|
S  |----o-------o---|----o-------o---|----o-------o---|----o-------o---|
B  |o-------o-------|o-------o-----o-|o-------o-------|o-------o-----o-|
    1e+a2e+a3e+a4e+a 1e+a2e+a3e+a4e+a 1e+a2e+a3e+a4e+a 1e+a2e+a3e+a4e+a

VERSE 1
    (repeat 3 times)                  (repeat 3 times)
C1 |----------------|--------------X-|----------------|--------------X-|
H  |x-x-x-x-x-x-x-x-|x-x-x-x-x-x-x---|x-x-x-x-x-x-x-x-|x-x-x-x-x-x-x---|
S  |----o-------o---|----o-------o---|----o-------o---|----o-------o---|
B  |o-------o-------|o-------o-----o-|o-------o-------|o-------o-----o-|
    1e+a2e+a3e+a4e+a 1e+a2e+a3e+a4e+a 1e+a2e+a3e+a4e+a 1e+a2e+a3e+a4e+a

PRE CHORUS
    (repeat 2 times)
C1 |--------------X-|----------------|----------------|
H  |x-x-x-x-x-x-x---|x-x-x-x-x-x-x-x-|----------------|
3T |----------------|----------------|o-o-o-o-o-o-----|
S  |------o---------|------o---------|o-o-o-o-o-o-f---|
B  |--------------o-|----------------|o-o-o-o-o-o-o---|
    1e+a2e+a3e+a4e+a 1e+a2e+a3e+a4e+a 1e+a2e+a3e+a4e+a

CHORUS
C1 |X---------------|----------------|--------------X-|----------------|
H  |--x-x-x-x-x-x-x-|x-x-x-x-x-x-x-x-|x-x-x-x-x-x-x---|x-x-x-x-x-x-x-x-|
S  |----o-------o---|----o-------o---|----o---------o-|----o-------o---|
B  |o-------o-------|o-------o-o-----|o-------o---o---|o-------o-o-----|
    1e+a2e+a3e+a4e+a 1e+a2e+a3e+a4e+a 1e+a2e+a3e+a4e+a 1e+a2e+a3e+a4e+a

C1 |--------------X-|----------------|#-------------X-|
H  |x-x-x-x-x-x-x---|x-x-x-x-x-x-x-x-|----------------|
S  |----o---------o-|----o-------o---|----------------|
B  |o-------o---o---|o-------o-o-----|o-------------o-|
    1e+a2e+a3e+a4e+a 1e+a2e+a3e+a4e+a 1e+a2e+a3e+a4e+a

BRIDGE 2             (repeat 2 times)                  (repeat 3 times)
C1 |X---------------|----------------|--------------X-|----------------|
H  |--x-x-x-x-x-x-x-|x-x-x-x-x-x-x-x-|x-x-x-x-x-x-x---|x-x-x-x-x-x-x-x-|
S  |----o-------o---|----o-------o---|o-------o---o---|----o-------o---|
B  |o-------o-------|o-------o-------|--o-o-----o---o-|o-------o-------|
    1e+a2e+a3e+a4e+a 1e+a2e+a3e+a4e+a 1e+a2e+a3e+a4e+a 1e+a2e+a3e+a4e+a

C1 |X-------------X-|
3T |--o-o-o-o-o-o---|
S  |--o-o-o-o-o-o---|
B  |o-o-o-o-o-o-o-o-|
    1e+a2e+a3e+a4e+a

VERSE 2
    (repeat 3 times)                  (repeat 3 times)
C1 |----------------|--------------X-|----------------|--------------X-|
H  |x-x-x-x-x-x-x-x-|x-x-x-x-x-x-x---|x-x-x-x-x-x-x-x-|x-x-x-x-x-x-x---|
S  |----o-------o---|----o-------o---|----o-----------|----o-------o---|
B  |o-------o-------|o-------o-----o-|o-------o-------|o-------o-----o-|
    1e+a2e+a3e+a4e+a 1e+a2e+a3e+a4e+a 1e+a2e+a3e+a4e+a 1e+a2e+a3e+a4e+a

REPEAT PRE CHORUS

REPEAT CHORUS

BRIDGE 3                                      (repeat 2 times)
C1 |----------------|X---------------|----------------|--------------X-|
H  |----------------|--x-x-x-x-x-x-x-|x-x-x-x-x-x-x-x-|x-x-x-x-x-x-x---|
S  |--f---f---f---f-|----o-------o---|----o-------o---|----o-------o---|
B  |o---o---o---o---|o-------o-------|o-------o-------|o-------o-----o-|
    1e+a2e+a3e+a4e+a 1e+a2e+a3e+a4e+a 1e+a2e+a3e+a4e+a 1e+a2e+a3e+a4e+a

    (repeat 2 times)
C2 |----------------|----------------|--------------X-|
H  |x-x-x-x-x-x-x-x-|x-x-x-x-x-------|----------------|
1T |----------------|------------o---|----o-o---------|
2T |----------------|--------------o-|--------o-------|
3T |----------------|----------------|----------o-----|
S  |----o-------o---|----o-----o-----|o-o---------o---|
B  |o-------o-------|o-------o-------|--------------o-|
    1e+a2e+a3e+a4e+a 1e+a2e+a3e+a4e+a 1e+a2e+a3e+a4e+a

REPEAT PRE-CHORUS

REPEAT CHORUS

BRIDGE 4
    (repeat 3 times)
C2 |----------------|--X---X---X---X-|
2T |o---o---o---o-o-|----------------|
3T |o-o-o-o-o-o-o-o-|----------------|
S  |----------------|--o---o---o---o-|
B  |o---o---o---o---|o---o---o---o---|
    1e+a2e+a3e+a4e+a 1e+a2e+a3e+a4e+a

PRAYER
    (repeat 3 times)                  (repeat 3 times)
C2 |----------------|----------X---X-|----------------|----------------|
2T |o---o---o---o-o-|o---o---o-------|o---o---o---o-o-|--------------o-|
3T |o-o-o-o-o-o-o-o-|o-o-o-o-o-------|o-o-o-o-o-o-o-o-|ooooo-ooooooo-o-|
S  |----------------|----------o---o-|----------------|----------------|
B  |o---o---o---o---|o---o---o---o---|o---o---o---o---|o---o---o---o---|
    1e+a2e+a3e+a4e+a 1e+a2e+a3e+a4e+a 1e+a2e+a3e+a4e+a 1e+a2e+a3e+a4e+a

VERSE 3
C2 |--X-------------|----------X---X-|----------------|----------X---X-|
2T |o---o---o---o-o-|o---o---o-------|o---o---o---o-o-|o---o---o-------|
3T |o---o-o-o-o-o-o-|o-o-o-o-o-------|o-o-o-o-o-o-o-o-|o-o-o-o-o-------|
S  |--o-------------|----------o---o-|----------------|----------o---o-|
B  |o---o---o---o---|o---o---o---o---|o---o---o---o---|o---o---o---o---|
    1e+a2e+a3e+a4e+a 1e+a2e+a3e+a4e+a 1e+a2e+a3e+a4e+a 1e+a2e+a3e+a4e+a

    (repeat 2 times)
2T |o---o---o---o-o-|----------------|----------------|
3T |o-o-o-o-o-o-o-o-|o-o-o-o-o-o-o-o-|o-o-o-o-o-------|
S  |----------------|o-o-o-o-o-o-o-o-|o-o-o-o-o-f---f-|
B  |o---o---o---o---|o-o-o-o-o-o-o-o-|o-o-o-o-o-o---o-|
    1e+a2e+a3e+a4e+a 1e+a2e+a3e+a4e+a 1e+a2e+a3e+a4e+a

CHORUS 2
C1 |X---------------|----------------|--------------X-|----------------|
H  |--x-x-x-x-x-x-x-|x-x-x-x-x-x-x-x-|x-x-x-x-x-x-x---|x-x-x-x-x-x-x-x-|
S  |----o-------o---|----o-------o---|----o---------o-|----o-------o---|
B  |o-------o-------|o-------o-o-----|o-------o---o---|o-------o-o-----|
    1e+a2e+a3e+a4e+a 1e+a2e+a3e+a4e+a 1e+a2e+a3e+a4e+a 1e+a2e+a3e+a4e+a

C1 |X-------------X-|----------------|
H  |--x-x-x-x-x-x---|x-x-x-x---------|
S  |----o---------o-|----o---f---f---|
B  |o-------o---o---|o---------o---o-|
    1e+a2e+a3e+a4e+a 1e+a2e+a3e+a4e+a

REPEAT CHORUS

OUTRO
    (repeat 2 times)                                   (repeat 3 times)
C1 |----------------|X---------------|--------------X-|----------------|
H  |----------------|--x-x-x-x-x-x-x-|x-x-x-x-x-x-x---|x-x-x-x-x-x-x-x-|
S  |----------------|----o-------o---|----o-------o---|----o-------o---|
B  |----------------|o-------o-------|o-------o-----o-|o-------o-------|
    1e+a2e+a3e+a4e+a 1e+a2e+a3e+a4e+a 1e+a2e+a3e+a4e+a 1e+a2e+a3e+a4e+a

                                      (repeat 2 times)
C1 |----------------|----X-----------|----------------|--X---X---------|
1T |o-o-o-oo--oo--oo|----------------|----------------|----------------|
2T |--------oo--oo--|--------o---o---|----------------|--------o---o---|
3T |----------------|o-o-----o-o-o-o-|o-o-o-o-o-o-o-o-|o-------o-o-o-o-|
S  |----------------|----o---------o-|--------------o-|--o---o---------|
B  |----------------|o-------o---o---|o---o---o---o---|o---o---o---o---|
    1e+a2e+a3e+a4e+a 1e+a2e+a3e+a4e+a 1e+a2e+a3e+a4e+a 1e+a2e+a3e+a4e+a

                                                      (repeat 3 times)
C1 |----X---------X-|--X-------------|----------------|----X-----------|
1T |----------------|--------------o-|o-o-o-o-o-o-o-o-|----------o---o-|
3T |o-o-----o-o-o---|----o-o-o-o-o-o-|o-o-o-o-o-o-o-o-|o-o-----o-o-o-o-|
S  |----o---------o-|--o-------------|----------------|----o-----------|
B  |o---o---o---o---|o---o---o---o---|----------------|o---o---o---o---|
    1e+a2e+a3e+a4e+a 1e+a2e+a3e+a4e+a 1e+a2e+a3e+a4e+a 1e+a2e+a3e+a4e+a

C1 |------X---X---X-|----------------|----------------|----X-----X---X-|
1T |----------------|----------------|----------------|----------------|
2T |----------------|o---o---o---o-o-|o---o---o---o-o-|----------------|
3T |o-o-o-----------|o-o-o-o-o-o-o-o-|o-o-o-o-o-o-o-o-|o-o-------------|
S  |------o---o---o-|----------------|----------------|----o-----o---o-|
B  |o---o---o---o---|o---o---o---o---|o---o---o---o---|o---o---o---o---|
    1e+a2e+a3e+a4e+a 1e+a2e+a3e+a4e+a 1e+a2e+a3e+a4e+a 1e+a2e+a3e+a4e+a

C1 |----X-----------|
3T |o-o-----o-o-o-o-|
S  |----o---------o-|
B  |o-------o---o---|
    1e+a2e+a3e+a4e+a

                          . . .softer. . .
<<<<<<<<<<<<<<<<<<<<<<<<<<<<<<<<<<<<<<<<<<<<<<<<<<<<<<<<<<<<<<<<<<<<<<<
                     (repeat 2 times)
C1 |----------------|------X---------|----X-----------|----X-----X---X-|
2T |----------------|------------o---|----------------|----------------|
3T |----------------|--------------o-|----------------|----------------|
S  |------o---o-----|------o---------|----o-----o-o-o-|----o-----o---o-|
B  |o---o---o---o---|o---o---o---o---|----o-------o---|----o---o---o---|
    1e+a2e+a3e+a4e+a 1e+a2e+a3e+a4e+a 1e+a2e+a3e+a4e+a 1e+a2e+a3e+a4e+a

                         . . .softer. . .
<<<<<<<<<<<<<<<<<<<<<<<<<<<<<<<<<<<<<<<<<<<<<<<<<<<<<<<<<<<<<<<<<<<<<<<<
C1 |----X---------X-|--X---X---------|----------------|----X-----------|
1T |----------------|----------------|------------oo--|----------------|
2T |----------------|----------------|o---o---o-----oo|o-------o---o-o-|
3T |o-o-----o-o-o---|--------o-o-o-o-|o-o-o-o-o-------|o-o-----o-o-o-o-|
S  |----o---------o-|--o---o-------o-|------o---oo----|----o-----------|
B  |o-------o---o---|o---o---o---o---|o---o---o-------|o-------o---o---|
    1e+a2e+a3e+a4e+a 1e+a2e+a3e+a4e+a 1e+a2e+a3e+a4e+a 1e+a2e+a3e+a4e+a

   (repeat 4 times)
1T |----------------|
2T |o---o---o---o-o-|
3T |o-o-o-o-o-o-o-o-|
S  |----------------|
B  |o---o---o---o---|
    1e+a2e+a3e+a4e+a

Sad but true

C  |x---------x-x-x-|x-----------x---|x---------x-x-x-|x---------------|
H  |----x---x-------|----x---x-------|----x---x-------|----------------|
t  |----------------|----------------|----------------|--ooooooo-------|
T  |----------------|----------------|----------------|----------oooo--|
S  |----------------|----------------|----------------|--------------oo|
F  |----------------|----------------|----------------|----------------|
B  |o---------o-o-o-|o-----------o---|o---------o-o-o-|o---------------|

C  |x---------x-x-x-|x---------------|x---------x-x-x-|c---------------|
H  |----x---x-------|----------------|----x---x-------|----------------|
t  |----------------|--o-------------|----------------|----------------|
T  |----------------|--o---o---------|----------------|----------------|
S  |----------------|----------o-----|----------------|----------------|
F  |----------------|------o-------o-|----------------|----------------|
F2 |----------------|--------------o-|----------------|----------------|
B  |o---------o-o-o-|o---------------|o---------o-o-o-|o---------------|

                    |-------x3--------------------------|
C  |--------x-------|----------------|------------x-----|
H  |------------x-x-|x-x-x-x-x-x-x-x-|x-x-x-x-x-x---x---|
S  |--o-oooo----o---|----o-------o---|----o-------o-----|
B  |--------o-------|o-------o-------|o-------oo-o------|

   |--------x2-----------------------------------------------------------|
C  |----------------|--------------x-|c---------------|------------------|
H  |x-x-x-x-x-x-x-x-|x-x-x-x-x-x-x---|--x-x-x-x-x-x-x-|x-x-x-x-x-x-x-x---|
S  |----o-------o---|----o-------o---|----------------|------------------|
B  |o-------o-------|o-------o-----o-|o---------------|------------------|

C  |--------x-------|----------------|-------x|
H  |x-----------x-x-|x-x-x-x-x-x-x-x-|x-x-----|
S  |--o-oooo----o---|----o-------o---|-----o--|
B  |--------o-------|o-------o-------|o--oo--o|

C  |x---x-----------|----------------|----x-----------|------------x---|
H  |--x---x-x-x-x-x-|x-x-x-x-x-x-x-xx|x-x---x-x-x-x-x-|x-x-x-x-x-x---x-|
S  |----o-------o---|----o-------o---|----o-------o---|----o-------o---|
B  |o-------o-------|o-------o-------|o-------o-------|o-------o-oo----|

C  |----x-----------|----------------|----x-----------|----------------|
H  |x-x---x-x-x-x-x-|x-x-x-x-x-x-x-xx|x-x---x-x-x-x-xx|-----xxx---xxx--|
t  |----------------|----------------|----------------|--o-------------|
T  |----------------|----------------|----------------|--------ooo-----|
S  |----o-------o---|----o-------o---|----o-------o---|oo--o-----------|
F  |----------------|----------------|----------------|--------------oo|
B  |o-------o-------|o-------o-------|o-------o-------|----------------|

   |-----------------------------play|2x--------------|-----------------|
C  |x---------------|----------------|----x-----------|---------x-------|
H  |--x-x-x-x-x-x-x-|x-x-x-x-x-x-x-x-|x-x---x-x-x-x-x-|x-x--------------|
S  |----o-------o---|----o-------o---|----o-------o---|----o-o-o--o-oooo|
F  |----------------|----------------|----------------|----o-o-o--------|
B  |o-------o-------|o-------o-------|o-oo----o-------|o--------o-------|

C  |x---------------|----------------|----------------|----------------|
H  |----x-x-x-x-x-x-|x-x-x-x-x-x-x-x-|x-x-x-x-x-x-x-x-|x-x-x-x-x-x-x-x-|
S  |----o-------o---|----o-------o---|----o-------o---|o-----o---o---o-|
B  |o-------o-------|o-------o-------|o-------o-------|-o-o-o--oo--oo--|

C  |----x-x---------|------x-c-------|----------------|
H  |x-x-----x-x-x-x-|x-x-x-----x-x-x-|x-x-x-x-x-------|
S  |----o-o-----o---|----o-----------|----------o-oooo|
B  |oo-o----o-------|o-----o-o-------|----------------|

C  |x---x-----------|----------------|----x-----------|------------x-x-|
H  |--x---x-x-x-x-x-|x-x-x-x-x-x-x-xx|x-x---x-x-x-x-x-|x-x-x-x-x-x-----|
S  |----o-------o---|----o-------o---|----o-------o---|----o-------o-o-|
B  |o-------o-------|o-------o-------|o-------o-------|o-------o-oo----|

C  |----x-----------|----------------|----x-----------|--x-----x---------|
H  |x-x---x-x-x-x-x-|x-x-x-x-x-x-x-xx|x-x---x-x-x-x-x-|------------------|
t  |----------------|----------------|----------------|----------o-------|
T  |----------------|----------------|----------------|----------o-oo----|
S  |----o-------o---|----o-------o---|----o-------o--o|oo---ooo------oo--|
F  |----------------|----------------|----------------|----------------oo|
B  |o-------o-------|o-------o-------|o-------o-------|--o-----o---------|

C  |x---------------|----------------|----x-----------|---------x-------|
H  |--x-x-x-x-x-x-x-|x-x-x-x-x-x-x-x-|x-x---x-x-x-x-x-|x-x--------------|
S  |----o-------o---|----o-------o---|----o-------o---|----o-o-o--o-oooo|
F  |----------------|----------------|----------------|----o-o-o--------|
B  |o-------o-------|o-------o-------|o-oo----o-------|o--------o-------|

C  |x---x-----------|----------------|----x-x-----x---|---------x-------|
H  |--x---x-x-x-x-x-|x-x-x-x-x-x-x-x-|x-x-----x-x---x-|x-x--------------|
S  |----o-------o---|----o-------o---|----o-o-----o---|----o-o-o--o-oooo|
F  |----------------|----------------|----------------|----o-o-o--------|
B  |o-------o-------|o-------o-------|o-oo----o-------|o--------o-------|

                    |----play-2x-----|
C  |x---------------|----------------|
H  |--x-x-x-x-x-x-x-|x-x-x-x-x-x-x-x-|
S  |----o-------o---|----o-------o---|
B  |o-------o-------|o-------o-------|

                    |----play-3x-----|----play-2x------------------------|
C  |x---------------|----------------|----x-----------|----x-------------|
H  |--x-x-x-x-x-x-x-|x-x-x-x-x-x-x-x-|x-x---x-x-x-x-x-|x-x---x-x---------|
t  |----------------|----------------|----------------|----------o-------|
T  |----------------|----------------|----------------|----------o-o-----|
S  |----o-------o---|----o-------o---|----o-------o---|----o-------------|
F  |----------------|----------------|----------------|------------o-o---|
B  |o-------o-------|o-------o-------|o-------o-------|o-----------------|

                                     |----play-3x------------------------|
C  |----------------|--------x-------|----------------|--------x---------|
H  |----------------|----------x-x-x-|x-x-x-x-x-x-x-x-|x---------x-x-x---|
t  |----------------|----------------|----------------|----oo------------|
S  |f---------------|--o-oooo----o---|----o-------o---|--oo--oo----o-----|
B  |----------------|--------o-------|o-------o-------|o-------o---------|

C  |--------------------------------|------------x---x-------x-------|
H  |x---x---x---x---x---x-------x---|---x----------------x-------x---|
S  |--------o---------------o-------|o------o----------------o-------|
B  |o---------------o-----o-------o-|-----o------o---o---------------|
B2 |-----------------------o-------o|------o-------------------------|

C  |----x-------x---|--x---x-----x---|
H  |x-x---x-x-x---x-|x---x---x-x---x-|
S  |----o-------o---|--o---o-----o---|
B  |o-------o-------|o---o---o-------|

C  |--------x---------------x-------|x---------------x---------------|
H  |x---x---------------------------|--------------------x---x---x---|
t  |----------------oooo------------|--------------------------------|
T  |--------------------o-o---------|----o---o-----------------------|
S  |--------o-----------------------|------------------------o-------|
F  |---------------------------o--o-|----o---o---o-o-----------------|
B  |o---------------o-------o-------|o---------------o---------------|

C  |----------------|------------x---|----x-------------|x-------x-x-x--|
H  |x-x-x-x-x-x-x-x-|x-x-x-x-x-x---x-|x-x---x-x-x-------|--------------x|
S  |----o-------o---|----o-------o---|----o-------o-o-o-|--o-oooo----o--|
F  |----------------|----------------|------------o-o-o-|---------------|
B  |o-------o-------|o-------o-oo----|o-------o---------|o-------o-oo---|

C  |----------------|------------x-x-|----x------------|x-------x-------|
H  |x-x-x-x-x-x-x-x-|x-x-x-x-x-x-----|x-x---x-x-x------|----------x-x-x-|
S  |----o-------o---|----o-------o-o-|----o-------o-o-o|--o-oooo----o---|
F  |----------------|----------------|------------o-o-o|----------------|
B  |o-------o-------|o-------o-oo----|o-------o--------|o-------o-------|

C  |----------------|------------x---|----------------|--------------x-|
H  |x-x-x-x-x-x-x-x-|x-x-x-x-x-x---x-|x-x-x-x-x-x-x-x-|x-x-x-x-x-x-x---|
S  |----o-------o---|----o-------o---|----o-------o---|----o-------o---|
B  |o-------o-------|o-------o-------|o-------o-------|o-------o-----o-|

C  |c---------------|----------------|----------------|
H  |--x-x-x-x-x-x-x-|x-x-x-x-x-x-x-x-|x---------------|
S  |--------o---o-o-|--------o---o-o-|--o-oooo--o-oooo|
B  |o--------o-o----|o--------o-o----|o---------------|

C  |x---x-----------|----------------|----x-----------|----------x---x-|
H  |--x---x-x-x-x-x-|x-x-x-x-x-x-x-xx|x-x---x-x-x-x-x-|x-x-x-x-x---x---|
S  |----o-------o---|----o-------o---|----o-------o---|----o-----o---o-|
B  |o-------o-------|o-------o-------|o-------o-------|o-------o---o---|

C  |----x-----------|----------------|----x-----------|
H  |x-x---x-x-x-x-x-|x-x-x-x-x-x-x-xx|x-x---x-x-------|
t  |----------------|----------------|------------o-o-|
S  |----o-------o---|----o-------o---|----o----ooo---o|
B  |o-oo----o-------|o-------o-------|o---------------|

C  |x---x-----------------------|
H  |----------------------------|
t  |---------oo-----oo-----ooo--|
T  |-----------o------o-------oo|
S  |--------o------o------o-----|
B  |o---o-----------------------|

C  |x-x-x-------x---|----------------|----x-x-----x---|---------x-------|
H  |------x-x-x---x-|x-x-x-x-x-x-x-x-|x-x-----x-x---x-|x-x--------------|
S  |----o-------o---|----o-------o---|----o-o-----o---|----o-o-o--o-oooo|
F  |----------------|----------------|----------------|----o-o-o--------|
B  |o-oo----o-------|o-------o-------|o--o----o-------|o--------o-------|

C  |x-x-x-------x---|----x-------x---|----x-x-----x---|---------x-------|
H  |------x-x-x---x-|x-x---x-x-x---x-|x-x-----x-x---x-|x-x--------------|
S  |----o-------o---|----o-------o---|----o-o-----o---|----o-o-o--o-oooo|
F  |----------------|----------------|----------------|----o-o-o--------|
B  |o-oo----o-------|o-------o-------|o--o----o-------|o--------o-------|

   |----play-3x-----------------------------------------------------------|
C  |x---x---x---x---|x---x-x-c-------|----------------|----------------x--|
H  |----------------|----------x-x-x-|x-x-x-x-x-x-x-x-|x-x-x-x-x----------|
S  |----o-------o---|----o-----------|----------------|----------o-oooo---|
B  |o-------o-------|o-----o-o-------|----------------|----------------o--|

Holier than thou

Intro

      |====Play x11====|
C|--X-|----------------|--------------X-|
S|----|----f---f---f---|----f---f---f---|
F|----|--------------f-|----------------|
B|--o-|--o---o---o---o-|--o---o---o---o-|

 |=============Play x2=============|
 |====Play x3=====|                |====Play x3=====|
C|----------------|--------------X-|----------------|--------------X-|
S|----f---f---f---|----f---f---f---|----f---f---f---|--o-o-o-o-o-o---|
F|--------------f-|----------------|--------------f-|----------------|
B|--o---o---o---o-|--o---o---o---o-|--o---o---o---o-|--------------o-|

                  |====Play x2=====|
C|----------------|----------------|------------X---|
H|--x-x-x-x-x-x-x-|x-x-x-x-x-x-x-x-|x-x-x-x-x-x-----|
S|----o-------o---|----o-------o---|----o-------o---|
B|--------o-------|o-------o-------|o-------o-------|

                  |====Play x2=====|
C|----------------|----------------|------------X---|
H|x-x-x-x-x-x-x-x-|x-x-x-x-x-x-x-x-|x-x-x-x-x-x-----|
S|----o-------o---|----o-------o---|----o-------o---|
B|o-------o-------|o-------o-------|o-------o-------|

C|----------------|------------X---|
H|--x-x-x-x-x-x-x-|----------------|
t|----------------|------o-o-------|
T|----------------|----------o-----|
S|--o-----o-----o-|--o-o-----------|
B|----------------|------------o---|

Verse 1

 |============Play x2==============|
C|----------------|----------------|----X-----------|
H|x-x-x-x-x-x-x-x-|x-x-x-x-x-x-x-x-|x-x---x-x-x-x-x-|
S|----o-------o---|----o-------o---|----o-------o---|
B|o-------o-------|o-------o-----o-|o-------o-------|

C|----------------|----------------|----------------|--------------X-|
H|x-x-x-x-x-x-x-x-|x-x-x-x-x-x-x-x-|x-x-x-x-x-x-x-x-|x-x-x-x-x-x-x---|
S|----o-------o---|----o-------o---|----o-------o---|----o-------o---|
B|o-------o-----o-|o-------o-------|o-------o-----o-|--o-----o-o---o-|

Interlude 1

 |====Play x2=====|
C|----------------|------------X---|
H|----------------|----------------|
t|----------------|------o-o-------|
T|----------------|----------o-----|
S|----f---f---f---|--o-o-----------|
F|--------------f-|----------------|
B|--o---o---o---o-|------------o---|

Verse 2 (Repeat Verse 1)

Chorus 1

 |==============================Play x2==============================|
C|----------------|----------------|----------------|--------------X-|
H|x-x-x-x-x-x-x-x-|x-x-x-x-x-x-x-x-|x-x-x-x-x-x-x-x-|x-x-x-x-x-x-x---|
S|----o-------o---|----o-------o---|----o-------o---|----o-------o---|
B|--------o-------|o-------o-----o-|o-------o-------|o-------o-----o-|

C|--------------X-|--------------X-|--------------X-|------------X---|
H|x-x-x-x-x-x-x---|x-x-x-x-x-x-x---|x-x-x-x-x-x-x---|----------------|
t|----------------|----------------|----------------|------o-o-------|
T|----------------|----------------|----------------|----------o-----|
S|----o-------o---|----o-------o---|----o-------o---|--o-o-----------|
B|--------o-----o-|--------o-----o-|--------o-----o-|------------o---|

C|----------------|------------X---|
H|--x-x-x-x-x-x-x-|----------------|
t|----------------|------o-o-------|
T|----------------|----------o-----|
S|--o-----o-----o-|--o-o-----------|
B|----------------|------------o---|

Verse 3 (Repeat Verse 1)

Interlude 2 (Repeat Interlude 1)

Verse 4 (Repeat Verse 1)

Chorus 2 (Repeat Chorus 1 [Last 2 measures are different])

Play this:

C|--------------X-|--------------X-|
H|--x-x-x-x-x-x---|x-x-x-x-x-------|
S|--o-----o-----o-|----o-----o-o---|
B|----------------|--------------o-|

Guitar Solo 1

                  |====Play x2=====|
C|----------------|----------------|--------------X-|----------------|
H|--x-x-x-x-x-x-x-|x-x-x-x-x-x-x-x-|x-x-x-x-x-x-x---|----x-x-x-x-x-x-|
S|----o-------o---|----o-------o---|----o-------o---|----o-------o---|
B|--------o-------|o-------o-------|o-------o-o---o-|--------o-------|

C|--------------X-|------X---------|----------------|------X-------X-|
H|x-x-x-x-x-x-x---|----x-------x-x-|x-x-x-x-x-x-x-x-|x-x-x-------x---|
S|----o-------o---|----o-------o---|----o-------o---|----o-------o---|
B|o-------o-o---o-|--o---o---------|o-------o-------|o-o---o---o---o-|

C|----------------|--------------X-|------X-------X-|------X-|
H|----x-x-x-x-x-x-|x-x-x-x-x-x-x---|----x-------x---|----x---|
S|----o-------o---|----o-------o---|----o-------o---|----o---|
B|--o-----o-------|o-------o-o---o-|--o---o---o---o-|--o---o-|

C|----------------|--------------X-|
H|----------------|----------------|
S|----f---f---f---|----f---f---f---|
F|--------------f-|----------------|
B|--o---o---o---o-|--o---o---o---o-|

Guitar Solo 2

                  |====Play x2=====|
C|----------------|----------------|----------X-X---|
H|----x-x-x-x-x-x-|x-x-x-x-x-x-x-x-|x-x-x-x-x-------|
S|----o-------o---|----o-------o---|----o-----o-o---|
B|--------o-------|o-------o-------|o-------o-------|

 |====Play x3=====|
C|----------------|------------X---|
H|x-x-x-x-x-x-x-x-|----------------|
t|----------------|------o-o-------|
T|----------------|----------o-----|
S|----o-------o---|--o-o-----------|
B|o-------o-------|------------o---|

C|----------------|----------------|----------------|------------X---|
H|x-x-x-x-x-x-x-x-|x-x-x-x-x-x-x-x-|x-x-x-x-x-x-x-x-|----------------|
t|----------------|----------------|----------------|------o-o-------|
T|----------------|----------------|----------------|----------o-----|
S|----o-------o---|----o-------o---|----o-------o---|--o-o-----------|
B|o-------o-------|o-------o-----o-|o-------o-------|------------o---|

C|----------------|----------------|--------------X-|--------------X-|
H|x-x-x-x-x-x-x-x-|x-x-x-x-x-x-x-x-|x-x-x-x-x-x-x---|----------------|
S|----o-------o---|----o-------o---|----o-------o---|----f---f---f---|
B|o-------o-------|o-------o-----o-|--o-----o-o---o-|--o---o---o---o-|

C|--------------X-|--------------X-|--------------X-|
H|----------------|----------------|----------------|
S|----f---f---f---|----f---f---f---|--o-o-o-o-o-o---|
B|--o---o---o---o-|--o---o---o---o-|--------------o-|

Outro

                  |====Play x8=====|
C|----------------|----------------|----------------|
H|--x-x-x-x-x-x-x-|x-x-x-x-x-x-x-x-|x-x-x-x-x-x-x-x-|
S|----o-------o---|----o-------o---|----o-------o---|
B|--------o-------|o-------o-------|o-------o-----o-|

C|----------------|--------------X-|
H|x-x-x-x-x-x-x-x-|x-x-x-x-x-x-x---|
S|----o-------o---|----o-------o---|
B|o-------o-------|o-------o-----o-|

C|----------------|----------------|----------------|--------------X-|
H|--x-x-x-x-x-x-x-|x-x-x-x-x-x-x-x-|x-x-x-x-x-x-x-x-|x-x-x-x-x-x-x---|
S|----o-------o---|----o-------o---|----o-------o---|----o-------o---|
B|--------o-------|o-------o-----o-|o-------o-------|o-------o-----o-|

C|--------------X-|--------------X-|--------------X-|------------X---|
H|--x-x-x-x-x-x---|--x-x-x-x-x-x---|--x-x-x-x-x-x---|----------------|
t|----------------|----------------|----------------|------o-o-------|
T|----------------|----------------|----------------|----------o-----|
S|----o-------o---|----o-------o---|----o-------o---|--o-o-----------|
B|--------o-----o-|--------o-----o-|--------o-----o-|------------o---|

C|----------------|------------X---|----------------|----------------|
H|--x-x-x-x-x-x-x-|----------------|--x-x-x-x-x-x-x-|----------------|
t|----------------|------o-o-------|----------------|----------------|
T|----------------|----------o-----|----------------|----------------|
S|--o-----o-----o-|--o-o-----------|--o-----o-----o-|--o-o-o-o-------|
B|----------------|------------o---|----------------|----------------|

 The unforgiven

S |f---------------|----------------|----------------|----------------|
Hf|g---g---g---g---|g---g---g---g---|g---g---g---g---|g---g---g---g---|

S |----------------|----------------|----------------|----------------|
Hf|g---g---g---g---|g---g---g---g---|g---g---g---g---|g---g---g---g---|

C |X---------------|----------------|----------------|--------------X-|
H |--x-x-x-x-x-x-x-|x-x-x-x-x-x-x-x-|x-x-x-x-x-x-x-x-|x-x-x-x-x-x-x---|
S |----o-------o---|----o-------o---|----o-------o---|----o-------o---|
B |o-----o-o-------|o-------o-------|o--o--o-o-------|o-------o-----o-|

C |X---------------|X---------------|
B |o---------------|o---------------|
Hf|g---g---g---g---|g---g---g---g---|

VERSE 1
                                                                > > >>
C |X---------------|----------------|----------------|----------------|
C2|----------------|------------x---|----------------|----------------|
H |--x-x-x-x-x-x-x-|x-x-x-x-x-x---x-|x-x-x-x-x-x-x-x-|x-x-x-x-x-------|
S |----o-------o---|----o-------o---|----o-------o---|----o-----f-f-ff|
B |o-------o-------|o-------o-------|o-------o-------|o-------o-------|
                                                      Pre-chorus
C |X---------------|----------------|----------------|----------------|
C2|----------------|------------x---|----------------|----------------|
H |--x-x-x-x-x-x-x-|x-x-x-x-x-x---x-|x-x-x-x-x-x-x-x-|x-x-x-x-x-x-x-x-|
t |----------------|----------------|----------------|---------o------|
T |----------------|----------------|----------------|-------------o--|
S |----o-------o---|----o-------o---|----o-------o---|----o-----------|
B |o-------o-------|o-------o-------|o-------o-------|o-------o---o---|

C |--------X-------|X-------X-------|--------X-----X-|--------X-------|
H |x-x-x-x---x-x-x-|--x-x-x---x-x-x-|x-x-x-x---x-x---|x-x-x-x---x-x-x-|
t |----------------|---------o------|----------------|----------------|
T |----------------|-------------o--|----------------|----------------|
T2|-o--------------|----------------|-o--------------|----------------|
S |------------oo--|----oo----------|----------oo----|--oo--------f---|
F |-----oo---------|----------------|-----ooo--------|----------------|
B |o---o---o-------|o-------o---o---|o---o---o-----o-|--------o-o---o-|

CHORUS

C |X---------------|----------------|----------------|----------------|
H |--x-x-x-x-x-x-x-|x-x-x-x-x-x-x-xx|x-x-x-x-x-x-x-x-|x-x-x-x-x-x-x-xx|
S |----o-------o---|----o-------o---|----o-------o---|----o-------o---|
B |o-----o-o-------|o-------o-------|o--o--o-o-------|o-------o-------|

C |----------------|----------------|----------------|--------------X-|
C2|----x-----------|----------------|----------------|----------------|
H |x-x---x-x-x-x-x-|x-x-x-x-x-x-x-xx|x-x-x-x-x-x-x-x-|x-x-x-x-x-x-x---|
S |----o-------o---|----o-------o---|----o-------o---|----o-------o---|
B |o--o--o-o-------|o-------o-------|o--o--o-o-------|o-------o-----o-|

C |X---------------|X---------------|
S |----------------|------------f---|
T |----------------|--------------o-|
B |o---------------|o-------------o-|
Hf|g---g---g---g---|g---g---g---g---|

VERSE 2
                                                                > > >>
C |X---------------|----------------|----------------|----------------|
C2|----------------|------------x---|----------------|----------------|
H |--x-x-x-x-x-x-x-|x-x-x-x-x-x---x-|x-x-x-x-x-x-x-x-|x-x-x-x-x-------|
S |----o-------o---|----o-------o---|----o-------o---|----o-----f-f-ff|
B |o-------o-------|o-------o-------|o-------o-------|o-------o-------|
                                                      Pre-chorus
C |X---------------|----------------|----------------|----------------|
C2|----------------|------------x---|----------------|----------------|
H |--x-x-x-x-x-x-x-|x-x-x-x-x-x---x-|x-x-x-x-x-x-x-x-|x-x-x-x-x-x-x-x-|
t |----------------|----------------|----------------|---------o------|
T |----------------|----------------|----------------|-------------o--|
S |----o-------o---|----o-------o---|----o-------o---|----o-----------|
B |o-------o-------|o-------o-------|o-------o-------|o-------o---o---|

C |--------X-------|X-------X-------|--------X-------|X-------X-------|
H |x-x-x-x---x-x-x-|--x-x-x---x-x-x-|x-x-x-x---x-x-x-|x-x-x-x---x-x-x-|
t |----------------|---------o------|----------------|----------------|
T |----------------|-------------o--|----------------|----------------|
T2|-o--------------|----------------|-o--------------|----------------|
S |------------oo--|----oo----------|------------oo--|----oo------f---|
F |-----oo---------|----------------|-----ooo--------|----------------|
B |o---o---o-------|o-------o---o---|o---o---o-------|o-------o-o---o-|

CHORUS 2

C |X---------------|----------------|----------------|----------------|
H |--x-x-x-x-x-x-x-|x-x-x-x-x-x-x-xx|x-x-x-x-x-x-x-x-|x-x-x-x-x-x-x-xx|
S |----o-------o---|----o-------o---|----o-------o---|----o-------o---|
B |o-----o-o-------|o-------o-------|o--o--o-o-------|o-------o-------|


C |----------------|----------------|----------------|--------------X-|
C2|----x-----------|----------------|----------------|----------------|
H |x-x---x-x-x-x-x-|x-x-x-x-x-x-x-xx|x-x-x-x-x-x-x-x-|x-x-x-x-x-x-x---|
S |----o-------o---|----o-------o---|----o-------o---|----o-------o---|
B |o--o--o-o-------|o-------o-------|o--o--o-o-------|o-------o-----o-|

C |X---------------|X---------------|X---------------|X---------------|
B |o---------------|o---------------|o---------------|o---------------|
Hf|g---g---g---g---|g---g---g---g---|g---g---g---g---|g---g---g---g---|

C |X---------------|X---------------|X---------------|X---------------|
S |----------------|----------------|----------------|--f-f-ff-ff-fff-|
T |----------------|----------------|----------------|-----------o---o|
B |o---------------|o---------------|o---------------|o---------------|
Hf|g---g---g---g---|g---g---g---g---|g---g---g---g---|----------------|

SOLO

C |X---------------|----------------|----------------|----------------|
C2|----------------|------------x---|----------------|----------------|
H |--x-x-x-x-x-x-x-|x-x-x-x-x-x---x-|x-x-x-x-x-x-x-x-|x-x-x-x-x-x-x-x-|
S |----o-------o---|----o-------o---|----o-------o---|----o-------o---|
B |o-------o-------|o-------o-------|o-------o-------|o-------o-oo-o--|
                                                      Pre-chorus
C |----------------|----------------|----------------|--------X-------|
C2|----x-------x---|----x-----x---x-|----x-------x---|----------------|
H |x-x---x-x-x---x-|x-x---x-x---x---|x-x---x-x-x---x-|x-x-x-x---x-x-x-|
t |----------------|----------------|----------------|---------o------|
T |----------------|----------------|----------------|-------------o--|
S |----o-------o---|----o-----o---o-|----o-------o--o|o-o-o-o---------|
B |o-oo----o-------|o-------o---oo--|o-------o-------|--------o---o---|

C |--------X-------|X---------------|--------X-------|X-------X-------|
H |----------x-x-x-|--x-x-x-x-x-x---|----------x-x-x-|--x-x-x---------|
t |----------------|---------o------|----------------|----------------|
T |-oo-------------|-------------ooo|----------------|----------------|
T2|---oo-----------|----------------|oo--------------|----------------|
S |------------oo--|----oo----------|--oo--------oo--|----oo----------|
F |-----ooo--------|----------------|----oooo--------|----------------|
B |o---o---o-------|o-------o---o---|o---o---o-------|o-------o-------|

C |X---------------|
H |----------------|
S |------------f---|
B |o---------o---o-|

Chorus

C |X---------------|----------------|----------------|----------------|
H |--x-x-x-x-x-x-x-|x-x-x-x-x-x-x-xx|x-x-x-x-x-x-x-x-|x-x-x-x-x-x-x-xx|
S |----o-------o---|----o-------o---|----o-------o---|----o-------o---|
B |o-----o-o-------|o-------o-------|o--o--o-o-------|o-------o-------|

C |----------------|----------------|----------------|--------------X-|
C2|----x-----------|----------------|----------------|----------------|
H |x-x---x-x-x-x-x-|x-x-x-x-x-x-x-xx|x-x-x-x-x-x-x-x-|x-x-x-x-x-x-x---|
S |----o-------o---|----o-------o---|----o-------o---|----o-------o---|
B |o--o--o-o-------|o-------o-------|o--o--o-o-------|o-------o-----o-|

C |X---------------|----------------|----------------|----------------|
C2|----------------|----------------|------------x---|----x-----------|
H |--x-x-x-x-x-x-x-|x-x-x-x-x-x-x-xx|x-x-x-x-x-x---x-|x-x---x---------|
T |----------------|----------------|----------------|---------o------|
S |----o-------o---|----o-------o---|----o-------o---|----o--oo---oo--|
B |o-----o-o-------|o-------o-------|o--o--o-o-------|o---------------|


C |--------X-------|----------------|X---X-X-X-------|----------------|
C2|----------------|----x-------x---|----------------|--------x-------|
t |--o-------------|----------------|----------------|----------------|
T |-------o--x-x-x-|x-x---x-x-x---x-|--x-------x-x-x-|x-x-x-x---x-x-x-|
S |oo-oooo-----o---|----o-------o---|o---o-------o---|----o---o---o---|
B |--------o-------|o-------o--o----|-o-o--o-o-------|o--------o-o----|

C |--------X-------|----------------|X-------X-------|--X-----X---X---|
H |x-x-x-x---x-x-x-|x-x-x-x-x-x-x-x-|--x-x-x---x-x-x-|----x-----x---x-|
T |----------------|----------------|----------------|----------------|
S |o---o-------o---|----o-------o---|o---o---o---o--o|o-o--oo-o---o---|
B |-o-o-o--o-------|o-oo-o--o-oo----|-o-o-o-o--------|-------------o-o|

C |X-------X-X-X---|----X-------X---|--------X-------|----------------|
H |--x-x---------x-|x-x---x-x-x---x-|x-x-x-x---x-x-x-|x-x-x-x---------|
T |-------o--------|----------------|----------------|----------o---o-|
S |-----oo-----o---|----o-------o---|o---o---o---o---|o---o--oo---oo--|
B |o-------o-oo----|o-oo----o-oo----|-o-o-o-o-----o-o|-----o----------|

C |--------X-------|--------X-------|--------X-------|X-------X-------|
H |----------x-x-x-|x-x-x-x---x-x-x-|x-x-------x-x-x-|--x-x-x---x-x-x-|
t |-o--------------|----------------|----------------|----------------|
T |-----oo---------|----------------|----o-o---------|----------------|
S |o--oo---o---o---|o---o---o---o---|o--o-o--o---o---|o---o---o---o---|
B |-------------o-o|-o---o-o-----o-o|---------o-o-o-o|-----o-o-----o-o|

C |--------X-------|--------X-------|
H |x---------x-x-x-|x-x-x-x---------|
T |------oo--------|----------------|
S |o-f-oo------o---|o---o---o-------|
B |--------o----o-o|--o--o----------|

Wherever I may roam

Intro (Loose H.H.)
  |---repeat-10x-----------------------------------|
H |----------------| 2 |--------|------------------|
S |----------------|---|--------|o-o-o-o-o-o-o-o---|
B |----------------| 4 |--------|------------------|

                   |----repeat-1x-----------------------|
C |x---------------|----------------|-------------------|
H |----x---x---x---|x---x---x---x---|x---x---x---x------| repeat
S |--------o-------|--------o-------|--------o----------| 1x
B |o---------------|o---------------|o---o-o---o--------|


2 C |--------| 2 |x---x---x---x---|
--S |o-o-o-o-|---|----------------|
4 B |--------| 4 |o---o---o---o---|

(Accent on 1,2,3,& 4 of each measure)
                   |----repeat-1x----------------------|
C |x---------------|----------------|------------------|
H |----x-x-x-x-x-x-|x-x-x-x-x-x-x-x-|x-x-x-x-x-x-x-x---|
S |----o-------o---|----o-------o---|----o-------o-----|
B |o-------o-------|o-------o-------|o-------o-----o---|

                   |----repeat-2x---|
C |----x-----------|----------------|
H |x-x---x-x-x-x-x-|x-x-x-x-x-x-x-x-|
S |----o-------o---|----o-------o---|
B |o-------o-------|o-------o-------|

                   |----repeat-1x-----------------------------------|
C |------------x---|----------------|----------------| 2 |#---------|
H |x-x-x-x-x-x-----|x-x-x-x-x-x-x-x-|x-x-x-x-x-x-x-x-|---|----------|
S |----o-------o---|----o-------o---|----o-------o---| 4 |----------|
B |o-o---o-o-oo----|o-------o-------|o-------o-----o-|   |o---------|


C |x---------------|----------------|
S |--------o-------|--------o-------|
F |--------o---o---|o---o-o-o---o---|
B |o-------------o-|o---o---------o-|
                    __________________________________________________
                   |1.              |2.              |3.              |
S |--------o-------|--------o-------|--------o-------|--------o---o---|
F |o---o-o-o---o---|o---o-o-o---o---|o---o-o-o---o---|o---o-o-o---o---|
B |o-------------o-|o-----------o-o-|o---o---------o-|o------d--o---o-|


Verse 1
C |x---------------|----------------|--------x-------|----------------|
S |--------o-------|--------o-------|--------o-------|--------o-------|
F |--------o---o---|o---o---o---o---|o---o-o-----o---|o---o---o---o---|
B |o-------------o-|o-------------o-|o-------------o-|o-------------o-|

  |----repeat-2x--------------------------------------------------------|
C |----------------|----------------|--------x-------|------------------|
S |--------o-------|--------o-------|--------o-------|--------o---------|
F |o---o-o-o---o---|o---o---o---o---|o---o-------o---|o---o-o-o---o-----|
B |o-------------o-|o-------------o-|o-------------o-|o-------------o---|

                   |----repeat-2x---------------------------------------|
C |--------x-------|----------------|--------x-------|--------c---c-----|
S |--------o-------|--------o-------|--------o-------|------------------|
F |o---o-o-----o---|o---o---o---o---|o---o-------o---|o---o---o---o-----|
B |o-------------o-|o-------------o-|o-------------o-|o------d----------|


S |----o-------o---|o-o-o-o-o-o-o-o-|
F |o---o---o---o---|----------------|
B |o-------o-------|----------------|


C |x---x-----------|----------------|----------------|
H |--------x-x-x-x-|x-x-x-x-x-x-x-x-|x-x-x-x---------|
t |----------------|----------------|---------o------|
T |----------------|----------------|----------oo----|
S |----o-------o---|----o-------o---|----o--oo-----oo|
F |----------------|----------------|------------oo--|
B |o-------o-------|o-------o-------|o---------------|


Pre-Chorus (Loose H.H.)
                    __________________________________________________
                   |1.              |2.              |3.              |
C |x---------------|--------------x-|--------------x-|--x-----x-------|
H |----x-x-x-x-x-x-|x-x-x-x-x-x-----|x-x--xxxx-x-----|x---x-x---x-----|
S |----o-------o---|----o-------o---|----o-------oo--|--o-----o---f---|
B |o-------o-------|o-------o--d--o-|o-------o-----o-|o---o-o---o---o-|


Chorus 1 (Loose H.H.)
C |x---------------|----------------|x---------------|--x-------------|
H |----x---x---x---|x---x---x---x---|----x---x-------|----------------|
t |----------------|----------------|-----------oo-o-|----------------|
T |----------------|----------------|----------------|o-----o-o-o-----|
S |--------o-------|--------o-------|--------o-------|----------------|
F |----------------|----------------|----------------|------------o-o-|
B |o-------------o-|o---o-o---o-----|o---------------|--o-------------|

                   |----repeat-1x----------------------|
C |x---------------|----------------|------------------|
H |----x-x-x-x-x-x-|x-x-x-x-x-x-x-x-|x-x-x-x-x-x-x-x---|
S |----o-------o---|----o-------o---|----o-------o-----|
B |o-------o-------|o-------o-------|o-------o-----o---|


C |----x-----------|----x-------x---|------------x---|----------------|
H |x-x-----x-x-x-x-|x-x-----x-x-----|x-x-x---x-x-----|x-x-x---x-x-x---|
S |----o-------o---|----o-------o---|----o-------o---|----o-------o---|
B |o-------o-------|o-------o-------|o-------o-------|o-------o-----o-|

                              |----repeat-1x----------------------|
2 C |#-------|x---------------|----------------|------------------|
--S |--------|--------o-------|--------o-------|--------f---f-----|
4 F |--------|--------o---o---|o---o-o-o---o---|o---o-------------|
  B |o-------|o-------------o-|o-------------o-|o------d--o---o---|


Repeat Verse 1 for Verse 2 (Last Measure is different)


Verse 2 (Last Measure)
H |x-x-x-x---------|
t |----------oo--oo|
S |----o--ooo--oo--|
B |o---------------|


Pre-Chorus (Loose H.H.)
                    _________________________________
                   |1.              |2.              |
C |x---------------|--------------x-|--------------x-|
H |----x-x-x-x-x-x-|x-x-x-x-x-x-x---|x-x--xxxx-x-----|
S |----o-------o---|---o--------o---|----o-------oo--|
B |o-------o-------|o-------o--d--o-|o-------o-----o-|


C |x---------x-----|x-------x-------|
H |----x-x-x---x-x-|----------------|
S |----o-----o-----|o---f---o---f---|
B |o-------o---o-o-|--o---o---o---o-|


Chorus 2 (Loose H.H.)
C |x---------------|----------------|x---------------|--------x-------|
H |----x---x---x---|x---x---x---x---|----x---x-------|----------------|
t |----------------|----------------|-----------ooooo|o-----------oooo|
T |----------------|----------------|----------------|--oooooo--------|
S |--------o-------|--------o-------|--------o-------|----------oo----|
B |o-------------o-|o---o-o---o-----|o---------------|--------o-------|

Interlude (Loose H.H.)
C |x---------------|--------------x-|x---------------|----------------|
H |----x-x-x-x-x-x-|x-x-x-x-x-x-x---|----x-x-x-x-x-x-|x-x-x-xxx-x-x-xx|
S |----o-------o---|----o-------o---|----o-------o---|----o-------o---|
B |o-------o-------|o-------o-----o-|o-------o-------|o-------o-------|

C |----x-------x---|----x-----c---c-|----------------|---------------------------------------|
H |x-x-----x-x-----|x-x---x-x-------|x-x-x-x-x-x-x-x-|---------------------------------------|
S |----o-------o---|----o-----o---o-|----o-------o--o|o-o-o-oooootttttt----------------------|
B |o-------o-------|o-------o-------|o-------o-------|-----------------| 1 + 2 + e + 4tl+tl--|

Repeat Pre-Chorus (Last Measure is Different)


Pre-Chorus (Last Measure)
C |x---------------|
T |----------f-----|
S |o---f---f-------|
F |------------f-f-|
B |--o---o---------|


Chorus 3 (Loose H.H.)
C |x---------------|----------------|x---------------|x---------------|
H |----x---x---x---|x---x---x---x---|----------------|----------------|
t |----------------|----------------|----------------|------oo--------|
T |----------------|----------------|----------------|--------o-------|
S |--------o-------|--------o-------|---oooooo---f---|---ooo----o-o-o-|
F |----------------|----------------|----------------|----------o-o-o-|
B |o-------------o-|o---o-o---o-----|o---------o---o-|o---------o-o-o-|


Guitar Solo (Loose H.H.)
                   |----repeat-1x----------------------|
C |x---------------|----------------|------------------|
H |----x---x-x-x-x-|x-x-x-x-x-x-x-x-|x-x-x-x-x-x-x-x---|
S |----o-------o---|----o-------o---|----o-------o-----|
B |o-------o-------|o-------o-------|o-------o-----o---|


C |----x-----------|----------------| 2 |#-------|
H |x-x-----x-x-x-x-|x-x-x-x-x-x-x-x-|---|--------|
S |----o-------o---|----o-------o---| 4 |--------|
B |o-------o-------|o-------o-----o-|   |o-------|

                   |----repeat-1x----------------------|
C |x---------------|----------------|------------------|
S |--------o-------|--------o-------|--------o---------|
F |--------o---o---|o---o-o-o---o---|o---o---o---o-----|
B |o-------------o-|o---o---------o-|o-------------o---|


C |--------x-------|----------------|----------------|--------c---c---|
S |--------o-------|--------o-------|--------o-------|----------------|
F |o---o-------o---|o---o-o-o---o---|o---o-o-o---o---|o-o-o-o-o---o---|
B |o-------------o-|o-----------o-o-|o-------------o-|o------d--------|


S |----o-------o---|----------------|
F |o---o---o---o---|o-o-o-o-o-o-o-o-|
B |o-------o-------|----------------|

                   |----repeat-1x----------------------|
C |x---x-------x---|----x-------x---|------------x-----|
H |--------x-x---x-|x-x---x-x-x---x-|x-x-x-x-x---------|
S |----o-------o---|----o-------o---|----o-------o-----|
B |o-------o-------|o-------o-------|o-o---o-o--d------|


Repeat Pre-Chorus (Last Measure is Different)


Pre-Chorus (Last Measure)
C |x---------------|
H |--x-------------|
S |o---o-----f-----|
B |--o---o-o---o-o-|


Chorus 4 (Loose H.H.)
C |x---------------|----------------|
H |----x---x---x---|x---x---x---x---|
S |--------o-------|--------o-------|
B |o-------------o-|o---o-o---o-----|

C |x---------------|----------------|x---------------|----------------|
H |----x---x-------|----------------|----x---x---x---|x---x---x---x---|
t |-----------ooooo|----------------|----------------|----------------|
T |----------------|oooo-ooooo--oo--|----------------|----------------|
S |--------o-------|----o-----oo----|--------o-------|--------o-------|
F |----------------|--------------oo|----------------|----------------|
B |o---------------|----------------|o-------------o-|o---o-o---o-----|


C |x-------x-------|x-x---x---x---x-|
H |----x-------x---|----------------|
S |o-------o-------|o-o---o---o---o-|
B |--o---o-------o-|----o---o---o---|

                   |----repeat-1x----------------------|
C |x---------------|----------------|x---x---x---x-----|
H |----x-x-x-x-x-x-|x-x-x-x-x-x-x-x-|------------------|
S |----o-------o---|----o-------o---|----o-------o-----|
B |o-------o-------|o-------o-------|o-------o---------|


C |x---x---x---x---|x---------------|----x-------x---|x---x---x---c-c-|
H |----------------|----x-x-x-x-x-x-|x-x-----x-x---x-|----------------|
S |o---o---o---o---|----o-------o---|----o-------o---|o---o---o---o-o-|
B |--oo--oo--oo----|o-------o-------|o-------o-------|--oo--oo--oo----|


C |c-----x-----x---|----x-------x---|x---x---x---x---|----------------|
H |--------x-x---x-|x-x---x-x-x---x-|----------------|X-X---X-X-X-----|
t |----------------|----------------|----------------|--------------oo|
S |o-----o-----o---|----o-------o---|----o-------o---|o-o---o-o---oo--|
B |----o---o-------|o-------o-------|o-------o-------|-o-ooo-o--------|


C |----x-------x---|----x-------x---|x---x---x---x---|x-x-x-x-x-x-x-x-|
H |--------x-x---x-|x-x---x-x-x---x-|----------------|----------------|
S |----o-------o---|----o-------o---|----o-------o---|----------------|
F |o-o-------------|----------------|----------------|----------------|
B |o-------o-------|o-------o-------|o-------o-------|o-o-o-o-o-o-o-o-|


C |x---x-------x---|----x-------x---|x---x---x---x---|----------------|
H |--------x-x---x-|x-x---x-x-x---x-|----------------|----------------|
t |----------------|----------------|----------------|--------------oo|
S |----o-------o---|----o-------o---|----o-------o---|-----------ooo--|
F |----------------|----------------|----------------|o---o---o-------|
B |o-------o-------|o-------o-------|o-------o-------|ooooooooo-------|


C |----------------|----c-------c---|x---x---x---x---|--------c-c-c-c-|
H |----------------|x-------x-x---x-|----------------|----------------|
t |-----ooo--------|----------------|----------------|----------------|
T |----------------|----------------|----------------|----------------|
S |o---o---o-------|----o-------o---|----o-------o---|--------o-o-o-o-|
F |----------o-oooo|----------------|----------------|o---o-----------|
B |--o-------------|o-------o-------|o-------o-------|oooooooo--------|


C |c-x-x-----------|x---x-------x---|x---x---x---x---|----------------|
H |----------------|--------x-x---x-|----------------|----------------|
S |--o-o---f---f---|----o-------o---|----o-------o---|ooooooddoooooooo|
B |o-----o---o---o-|o-------o-------|o-------o-------|----------------|


C |x---c-------c---|----c-------c---|x---x---x---x---|--------c-c-c---|
H |--------x-x---x-|x-x---x-x-x---x-|----------------|--------------x-|
S |----o-------o---|----o-------o---|----o-------o---|--------o-o-o--o|
F |----------------|----------------|----------------|o---o-----------|
B |o-------o-------|o-------o-------|o-------o-------|oooooooo--------|


t |-ooo--oo-o------|
T |----------oo----|
S |o---oo--o---oo--|
F |--------------o-|


C |x---x-------x---|x---x---x---x---|x-x-x-x-x-x-x-x-|x---x-------x---|
H |--------x-x---x-|----------------|----------------|--------x-x---x-|
S |----o-------o---|----o-------o---|----------------|----o-------o---|
B |o-------o-------|o-------o-------|o-o-o-o-o-o-o-o-|o-------o-------|


C |----x-------x---|x---x---x---x---|x---x---c-c-c---|c-c---c-c---c---|
H |x-x---x-x-x---x-|----------------|----------------|----------------|
S |----o-------o---|----o-------o---|o---o---o-o-o---|o-o---o-o---o---|
B |o-------o-------|o-------o-------|--oo--o-------o-|----o-----o---o-|


C |x---x-------x---|x---x---x---x---|
H |--------x-x---x-|----------------|
S |----o-------o---|----o-------o---|
B |o-------o-------|o-------o-------|

 Don’t tread on me

SD -o-o-o------|  (6 times)
BD -------o-o--|

Then Add

SD ---------------|
BD -o-o--o-o--o-o-|

SD -o-o-o------|  (5 times)
BD -------o-o--|

Short Snare Roll

CC X-----------------------------------------------------------X----X--|
HH --x-x-x-x-x-x-x-x-x-x-x-x-x-x-x-x-x-x-x-x-x-x-x-x-x-x-x-x-x---------|
ST --------------------------------------------------------------ooo---|
LT --------------------------------------------------------------ooo---|
SD ----o-------o-------o-------o-------o-------o-------o---------------|
BD o-------o-------o-------o-------o-------o-------o-------o-----------|

CC ----------------------X-----X-----------------------X-|
HH -x-x-x-x-x-x-x-x-x-x----------x-x-x-x-x-x-x-x-x-x-x---|
ST ------------------------ooo---------------------------|
LT ------------------------ooo---------------------------|
SD -----o-------o--------------------o-------o-------o---|
BD -o-------o-------o------------o-------o-------o-------|

Verse Begins:

HH -x-x-x-x-x-x-x-----|  Play During Verse
SD -----o-------o-----|
BD -o-------o---------|  Add Cymbal During:  "Rattling of Her Tail"
CC -X-------X---------|        "Showing a Faint of Rage"
SD ---o-ooo-----------|        "And With Vigilance"
BD -------------------|

HH -x-x-x-x-x-x-x-|
SD -----o-------o-|
BD -o-------o-----|

FT -o-ooo-oo-       3X "Don't Tread on Me"
SD ------o---

Then:

CC -XXX-
BD -ooo-

HH -x-x-x-x-x-x-x-|  Hit Cymbal During "Settle the Score"
SD -----o-------o-|
BD -o-------o-----|

CC -XXX-            During "To Prepare for More"
BD -ooo-

FT -o-ooo-oo-       2X After "With the Words You Will Hear Evermore"
SD ------o---

Through the never

    |---repeat x3-----------------------|
C   |----------------|------------x-----|
S   |----------------|------------o-----|

                     |---repeat x4-----------------------|
C   |----------------|----------------|------------x-----|
H   |x---x---x---x---|x---x---x---x---|x---x---x---------|
S   |----o-------o---|----o-------o---|----o-------o-----|
B   |o---------o---o-|--o---o---o---o-|--o---o---o-------|

C   |----------------|----------------|------------x---|
H   |x---------------|----------------|----------------|
t   |----o-o-o-o-----|----------------|----------------|
T   |------------o-o-|o-o-o-o---------|----------------|
S   |--o-------------|----------------|o-o---------o---|
F   |----------------|--------o-o-o-o-|----------------|

PART 1
                     |---repeat x2-----------------------|
C   |----------------|----------------|------------x-----|
H   |x---x---x---x---|x---x---x---x---|x---x---x---------|
S   |----o-------o---|----o-------o---|----o-------o-----|
B   |o-----o---o---o-|--o---o---o---o-|--o---o---o-------|

C   |----------------|----------------|----------------|------------x---|
H   |x---x---x---x---|x---x---x---x---|x---x---x---x---|----------------|
S   |----o-------o---|----o-------o---|----o-------o---|o-o---------o---|
B   |o-----o---o---o-|--o---o---o---o-|--o---o---o-----|----------------|

REPEAT PART 1, LAST MEASURE DIFFERENT:
C   |----------------|
H   |----------------|
S   |o-o-------------|
B   |----------------|

(same tempo, only written in double time)

                     |------------repeat x2------------|---repeat x3----|
C   |----------------|x---------------|----------------|x---------------|
H   |----------------|--x-x-x-x-x-x-x-|x-x-x-x-x-x-x-x-|--x-x-x-x-x-x-x-|
S   |----------------|----o-------o---|----o-------o---|----o-------o---|
B   |----------------|o-------o-------|o-------o-oo-o--|o-------o-oo-o--|

C   |-x---x--|----------------|----------------|----------------|
H   |--------|x-x-x-x-x-x-x-x-|x-x-x-x-x-x-x-x-|x-x-x-x-x-x-x-x-|
S   |o---o---|----o-------o---|----o-------o---|--o---o---o---o-|
B   |-o---o--|o-------o-oo-o--|o-o---o-o-o-o-o-|o-o-o-o-o-o-o-o-|
B2  |--------|----------------|-----o-o-o-o-o-o|-o-o-o-o-o-o-o--|

C   |-x---x----------|x---------------|--------------x-|
H   |----------------|--x-x-x-x-x-x-x-|x-x-x-x-x-x-x---|
T   |----------oooo--|----------------|----------------|
S   |o---o--doo----oo|--o---o---o---o-|--o---o---o---o-|
B   |-o---o----------|o----o-o-o-o-o-o|-o-o-o-o-o-o-o--|

C   |x---------------|----------------|-C---C---C--------x-|
H   |--x-x-x-x-x-x-x-|x-x-x-x-x-x-x-x-|--------------------|
S   |----o-------o---|----o-------o---|o---o---o---oo----o-|
B   |o-------o-------|o-------o-------|-o---o---o----------|
                                      (1 + 2 + 3 + 4 + 5 + )

C   |x---------------|--------------x-|----------------|--------------|
H   |--x-x-x-x-x-x-x-|x-x-x-x-x-x-x---|x-x-x-x-x-x-x-x-|x-x-x-x-------|
S   |--o---o---o---o-|--o---o---o---o-|--o---o---o---o-|--o---o-oo---d|
B   |o--o-o-o-o-o-o-o|-o-o-o-o-o-o-o--|o--o-o-o-o-o-o-o|-o-o-o--------|
                                                       (1 + 2 + 3 + 4 )
C   |--------|
T   |--oooo--|
S   |oo----oo|
B   |--------|

    |------------repeat x2------------|---repeat x3---------------|
C   |x---------------|----------------|x---------------|-x---x----|
H   |--x-x-x-x-x-x-x-|x-x-x-x-x-x-x-x-|--x-x-x-x-x-x-x-|----------|
S   |----o-------o---|----o-------o---|----o-------o---|o---o-----|
B   |o-------o-------|o-------o-oo-o--|o-------o-oo-o--|-o---o----|

C   |----------------|----------------|----------------|-x---x----------|
H   |x-x-x-x-x-x-x-x-|x-x-x-x-x-x-x-x-|x-x-x-x-x-x-x-x-|----------------|
S   |----o-------o---|----o-------o---|--o---o---o---o-|o---o--doo----oo|
T   |----------------|----------------|----------------|----------oooo--|
B   |o-------o-oo-o--|o-o---o-o-o-o-o-|o-o-o-o-o-o-o-o-|-o---o----------|
B2  |----------------|-----o-o-o-o-o-o|-o-o-o-o-o-o-o--|----------------|

C   |x---------------|--------------x-|x---------------|----------------|
H   |--x-x-x-x-x-x-x-|x-x-x-x---------|--x-x-x-x-x-x-x-|x-x-x-x-x-x-x-x-|
S   |--o---o---o---o-|--o---o-f-oooo--|----o-------o---|----o-------o---|
B   |o----o-o-o-o-o-o|-o-o-o--------o-|o-------o-------|o-------o-------|

C   |-C---C---C--------|----------------|
S   |o---o---o---oo---d|oo------oo-o-o-o|
T   |------------------|--ooooo---------|
F   |------------------|--------oo-o-o-o|
B   |-o---o---o--------|----------------|
    (1 + 2 + 3 + 4 + 5 )

GUITAR SOLO
C   |x---------------|--------------x-|----------------|----------------|
H   |--x-x-x-x-x-x-x-|x-x-x-x-x-x-x---|x-x-x-x-x-x-x-x-|x-x-x-x---------|
S   |--o---o---o---o-|--o---o---o---o-|--o---o---o---o-|--o---o-oo-o-o-o|
F   |----------------|----------------|----------------|--------oo-o-o-o|
B   |o----o-o-o-o-o-o|-o-o-o-o-o-o-o--|o--o-o-o-o-o-o-o|-o-o-o----------|

C   |x---------------|----------------|--x---x---x---x-|--x---x---------|
H   |--x-x-x-x-x-x-x-|x-x-x-x-x---x---|x---x---x---x---|x---x-----------|
S   |--o---o---o---o-|--o---o--ooo-ooo|--o---o---o---o-|--o---o-oo-o-o-o|
F   |----------------|----------------|----------------|--------oo-o-o-o|
B   |o----o-o-o-o-o-o|-o-o-o----------|o----o-o-o-o-o-o|-o-o-o----------|

C   |x-------------x-|--------------x-|x---------------|----------------|
H   |--x-x-x-x-x-x---|----------------|--x-x-x-x-x-x-x-|x-x-x-x-x-------|
S   |--o---o---o---o-|Oooooooooooooo--|----o-------o---|----o----oooo-o-|
B   |o----o-o-o-o-o--|--------------o-|o-------o-------|o-------o----d-d|

C   |-C---C---C----------|
H   |--------------------|
S   |o---o---o---oo------|
B   |-o---o---o----------|
    (1 + 2 + 3 + 4 + 5 + )

    |---repeat x2----|
C   |----------------|
H   |----------------|
S   |----------------|
F   |oooooooooooooooo|
B   |o---o---o---o---|

in the next part its very hard to hear the snare's ghost notes, but believe me, i'm
99% sure that that's what you're hearing.

C   |----x-----------|----------------|----x-----------|----------------|
H   |--------------O-|--------------O-|--------------O-|--------------O-|
S   |ggggOgggggggOggg|ggggOgggggggOggg|ggggOgggggggOggg|ggggOgggggggOggg|
B   |o-o-----o-------|o-o---o-o-o---o-|o-------o-------|o-----o-o-oo--o-|

C   |----x-----------|----------------|----x-------x---|----x-x---------|
H   |--------------O-|--------------O-|--------------O-|----------------|
S   |ggggOgggggggOggg|ggggOgggggggOggg|ggggOgggggggOggg|ggggO-O-oo--oo--|
t   |----------------|----------------|----------------|----------o-----|
T   |----------------|----------------|----------------|--------------oo|
B   |o-------o-------|o-----o-o-oo--o-|o-------o-------|o--o------------|

"ON...THROUGH...THE...NEVER..."
C   |----x-----------|----------------|----x-----------|----x---x---x---|
H   |--------------O-|--------------O-|--------------O-|----------------|
S   |ggggOgggggggOggg|ggggOgggggggOggg|ggggOgggggggOggg|ggggOgggOgggO-oo|
B   |o-o-----o-------|o-o---o-o-oo--o-|o-o-----o-o-----|o-----o--o-o----|

C   |----x-----------|------------x-x-|----x-----------|----x---x---x---|
H   |--------------O-|----------------|--------------O-|----------------|
S   |----OgggggggOggg|ggggOgggggggO-O-|ggggOgggggggOggg|ggggOgggOgggO---|
F   |ooo-------------|----------------|----------------|----------------|
B   |o-------o--o--o-|o-----o-o-oo----|o-------o-------|o----o-o-o-o--oo|


C   |x---------dddddd|C-------------x-|
S   |o---------------|--------------o-|


C   |x---------------|--------------x-|x---------------|----------------|
H   |--x-x-x-x-x-x-x-|x---x---x-------|--x-x-x-x-x-x-x-|x-x-x-x-x-x-x-x-|
S   |--o---o---o---o-|-ooo-ooo-ooooo--|----o-------o---|----o-------o---|
B   |o----o-o-o-o-o-o|--------------o-|o-------o-------|o-------o-------|

C   |-C---C--|x---------------|-C---C---C--------x-|
H   |--------|--x-x-x-x-x-x-x-|--------------------|
S   |o---o---|----o-------o---|o---o---o---oo----o-|
B   |-o---o--|o-------o-------|-o---o---o----------|
                              (1 + 2 + 3 + 4 + 5 + )

C   |x---------------|----------------|
H   |--x-x-x-x-x-x-x-|x-x-x-x---------|
S   |--o---o---o---o-|--o---o-oo------|
B   |o--o-o-o-o-o-o-o|-o-o-o----------|

Nothing else matters

Loose Hats Whole Song
C |------------|
H |------------| Repeat 24 times. (i think)
S |------------|
B |------------|

Verse 1
               |-----Repeat 3 times------|
C |x-----------|------------|------------|
H |--x-x-x-x-x-|x-x-x-x-x-x-|x-x-x-x-x-x-|
S |------o-----|------o------------o-----|
B |o-----------|o---------o-|o-----------|

C |x-----------|------------|
H |--x-x-x-x-x-|x-x-x-x-x---|
S |------o-----|----o-o-----|
T2|------------|----------oo|
B |o-----------|oo-o--------|

Verse 1 Repeated
               |-----Repeat 3 Times------|
C |x-----------|------------|------------|
H |--x-x-x-x-x-|x-x-x-x-x-x-|x-x-x-x-x-x-|
S |------o-----|------o------------o-----|
B |o-----------|o---------o-|o-----------|

C |x-----------|------------|
H |--x-x-x-x-x-|x-x-x-x-x---|
S |------o-o---|----o-o--ooo|
T2|------------|------------|
B |o---------o-|oo-o--------|

Prechorus 1
               |-----Reapeat 3 times--------------------|
C |x-----------|----------x-|x-----------|x-------------|
H |--x-x-x-x-x-|x-x-x-x-x---|--x-x-x-x-x-|--x-x-x-x-x---|
S |------o-----|------o-----|------o-----|------o-------|
B |o-----------|o---------o-|o-----------|o-------------|

Chorus 1

C |x-----x-----|x-----------|x-----x-----|x-----------|x-----x-----|
H |--x-x---x-x-|--x-x-x-x-x-|--x-x---x-x-|--x-x-x-x-x-|--x-x---x-x-|
S |------o-----|------------|------o-----|------------|------o-----|
T2|------------|--o-----o---|------------|--o-----o---|------------|
B |o-----------|o-----o-----|o-----------|o-----o-----|o-----------|

C |x-----|x-----------|------------|
H |--x-x-|--x-x-x-x---|x-x---------|
S |------|------o--ooo|---ooo---ooo|
T2|------|------------|------o-o---|
B |o-----|o-----------|o-o---o-o---|

Verse 2
               |-----Repeat 3 Times---------------------|
C |x-----------|------------|------------|x-------------|
H |--x-x-x-x-x-|x-x-x-x-x-x-|x-x-x-x-x-x-|--x-x-x-x-x---|
S |------o-----|------o-----|------o-----|------o-------|
B |o-----------|o---------o-|o-----------|o-------------|

Chorus 2

C |x-----x-----|x-----------|x-----x-----|x-----------|x-----x-----|
H |--x-x---x-x-|--x-x-x-x-x-|--x-x---x-x-|--x-x-x-x-x-|--x-x---x-x-|
S |------o-----|------------|------o-----|------------|------o-----|
T2|------------|--o-----o---|------------|--o-----o---|------------|
B |o-----------|o-----o-----|o-----------|o-----o-----|o-----------|

C |x-----|x-----------|------------|
H |--x-x-|--x-x-x-x---|------------|
S |------|------o--o--|o--o--o--o--|
T2|------|----------o-|o-o-o-o-o-o-|
B |o-----|o---------o-|----o-----o-|

Interlude
  |-----Repeat 3 Times----------------------------------|
C |x-----------|------------|x-----------|--------------|
H |--x-x-x-x-x-|x-x-x-x-x-x-|--x-x-x-x-x-|x-x-x-x-x-x---|
S |------@-----|------@-----|------o-----|o---o-o---o---|
B |o-----------|o-----------|o------o-o-o|-------o-o----|

C |x-----------|------------|x-----------|------------|------------|
H |--x-x-x-x-x-|x-x-x-------|--x-x-x-x-x-|x-x-x-x-x-x-|x-x-x-x-x-x-|
S |------o-----|------o-----|------o-----|------o-----|------o-----|
T1|------------|--------o---|------------|------------|------------|
T2|------------|----------o-|------------|------------|------------|
F |------------|------o-----|------------|------------|------------|
B |o-----------|o-----------|o-----------|o-----------|o-----------|

C |x-----------|x-----------|------------|
H |--x-x-x-x-x-|--x-x-x-x-x-|x-x---x-----|
S |------o-----|------o---o-|o--ooo------|
T1|------------|------------|--------oo--|
T2|------------|------------|----------oo|
F |------------|------------|------------|
B |o-----------|o-----------|------------|


Verse 3
                |----Repeat 3 Times----------------------------------|
C |x-----------|------------|------------|x-----------|--------------|
H |--x-x-x-x-x-|x-x-x-x-x-x-|x-x-x-x-x-x-|--x-x-x-x-x-|x-------------|
S |------o-----|------o-----|------o-----|------o-o-o-|-o-o-o--------|
T1|------------|------------|------------|------------|--o---oo------|
T2|------------|------------|------------|------------|----o---oo----|
F |------------|------------|------------|------------|----------oo--|
B |o-----------|o---------o-|o-----------|o-----------|--------------|

Prechorus 1

C |x-----------|----------x-|x-----------|----------x-|
H |--x-x-x-x-x-|x-x-x-x-x---|--x-x-x-x-x-|x-x-x-x-x---|
S |------o-----|------o-----|------o-----|------o-----|
B |o-----------|o---------o-|o-----------|o---------o-|

C |x-----------|----------x-|x-----x-----|x-----x-----|
H |--x-x-x-x-x-|x-x-x-x-x---|--x-x---x-x-|--x-x---x-x-|
S |------o-----|------o-----|------o-----|------o-----|
B |o-----------|o---------o-|o-----------|o-----------|

Chorus 3

C |x-----x-----|x-----------|x-----x-----|x-----------|
H |--x-x---x-x-|--x-x-x-x-x-|--x-x---x-x-|--x-x-x-x-x-|
S |------o-----|------------|------o-----|------------|
T2|------------|--o-----o---|------------|--o-----o---|
B |o-----------|o-----o-----|o-----------|o-----o-----|


C |x-----x-----|x-----------|x-----x-----|x-----------|
H |--x-x---x-x-|--x-x-x-x-x-|--x-x---x-x-|--x-x-x-x-x-|
S |------o-----|------------|------o-----|------------|
T2|------------|--o-----o---|------------|--o-----o---|
B |o-----------|o-----o-----|o-----------|o-----o-----|

C |x-----x-----|x-----x-----|------------|-------x-----|
H |--x-x---x-x-|--x-x---x-x-|x-x-x-------|---------x-x-|
S |------o-----|------o-----|o-o-o-oooooo|ooooooo------|
T2|------------|------------|------------|-------------|
B |o-----------|o-----------|------------|-------o-----|


C |------------|------x-----|x-----------|------x-----|
H |x-x-x-x-x-x-|x-x-----x-x-|--x-x-x-x-x-|x-x-----x-x-|
S |o-----------|o--ooo------|o---o-o---o-|o--o--------|
T2|------------|------------|------------|----oo------|
B |------o-----|------o-----|---o-----o--|------o-----|


C |x-----------|--------x---|--x---x--x--|
H |--x---------|----------x-|x---x-------|
S |o--o---o--o-|-o--o---o---|--o---------|
T2|-----o------|------------|------------|
F |-------o-o-o|-o-o-o------|------------|
B |-----o-----o|-----o------|------o--o--|

Of wolf and man

BPM: 122, loose hats throughout song

                          /-------3x-------\------------------------------|
C |----------------|----------------|X---------------|--------------------|
S |------rest------|o---o---o---o---|o---o---o---o---|o---o---o---o-------|
F |----------------|o---o---o---o---|----o---o---o---|o---o---o---o-------|
B |----------------|----------------|----------------|-------------oooo---|
   1 + 2 + 3 + 4 +  1 + 2 + 3 + 4 +  1 + 2 + 3 + 4 +  1 + 2 + 3 + 4tl+tl

               /-------2x-------\----------------------|
C |X---------------|----------------|------------------|
H |----x-------x---|----x-------x---|----x---x---x-----|
S |o---------------|----------------|------------------|
   1 + 2 + 3 + 4 +  1 + 2 + 3 + 4 +  1 + 2 + 3 + 4 +

           /-------3x-------\---------|
C |X---------------|------------------|
H |-xxxXxxxxxxxXxxx|xxxxXxxxxxxxXxxx|
B |o---------------|----------------|
   1 + 2 + 3 + 4 +  1 + 2 + 3 + 4 +

Play the first three measures before each ending
				     _________________________
           /-------2x-------|1.             |2--------------------------|
C |X---------------|----------------|----------------|------------------|
H |-xxxXxxxXxxxXxxx|XxxxXxxxXxxxXxxx|XxxxXxxxXxxxXxxx|XxxxXxxxXxxxXxxx|
B |o---o-------o---|----o-------o---|----o-------o---|o---o---o---o---|
   1 + 2 + 3 + 4 +  1 + 2 + 3 + 4 +  1 + 2 + 3 + 4 +  1 + 2 + 3 + 4 +

  /-------3x-------\----------------------------------------------------|
C |----------------|------------X---|X---------------|------------X-----|
H |x-x-x-x-x-x-x-x-|x-x-x-x-x-x-----|--x-x-x-x-x-x-x-|x-x-x-x-x-x---x---|
S |----o-------o---|----o-------o---|----o-------o---|----o-------o-----|
B |o-------o-------|o-------o-o-----|o-------o-------|o-------o---------|
   1 + 2 + 3 + 4 +  1 + 2 + 3 + 4 +  1 + 2 + 3 + 4 +  1 + 2 + 3 + 4 +

  /----------------3x---------------\------------------|
C |----------------|------------X---|------------X-----|
H |x-x-x-x-x-x-x-x-|x-x-x-x-x-x-----|------------------|
S |----o-------o---|----o-------o---|o---o---o---o-----|
F |----------------|----------------|o---o---o---------|
B |o-------o-------|o-------o-------|------------------|
   1 + 2 + 3 + 4 +  1 + 2 + 3 + 4 +  1 + 2 + 3 + 4 +

  /----------------3x---------------\------------------|
C |X---------------|----X-----------|X-----------------|
H |--x-x-x-x-x-x-x-|x-x---x-x-x-x-x-|--x-x-x-x-x-x-x---|
S |----o-------o---|----o-------o---|----o-------o-----|
B |o-------o-------|o-------o-----o-|o-------o---------|
   1 + 2 + 3 + 4 +  1 + 2 + 3 + 4 +  1 + 2 + 3 + 4 +

C |----X-------X---|--------|-------------X---|
H |x-x---x-x-x---x-|x-x-x-x-|-----------------|
S |----o-------o---|----o---|o---o---o----o---|
F |----------------|--------|o---o---o--------|
B |o-------o-------|o-------|----------ooo----|
   1 + 2 + 3 + 4 +  1 + 2 +  1 + 2 + 3 +tl4 +


C |X---------------|------------X---|----------------|----------------|
H |--x-x-x-x-x-x-x-|x-x-x-x-x-x---x-|x-x-x-x-x-x-x-x-|----------------|
T1|----------------|----------------|----------------|--oo--oo----oo--|
S |----o-------o---|----o-------o---|----o-------o--o|oo--oo--ddoo--oo|
B |o-------o-------|o-------o-------|o-------o-------|----------------|
   1 + 2 + 3 + 4 +  1 + 2 + 3 + 4 +  1 + 2 + 3 + 4 +  1 + 2 + 3 + 4 +

                    /----------------2x---------------\-----------------|
C |X---------------|------------X-X-|----------------|------------X-X---|
H |--x-x-x-x-x-x-x-|x-x-x-x-x-x-----|x-x-x-x-x-x-x-x-|x-x-x-x-x-x-------|
S |----o-------o---|----o-------o-o-|----o-------o---|----o-------o-o---|
B |o-------o-------|o-------o--o----|o-------o-------|o-------o--o------|
   1 + 2 + 3 + 4 +  1 + 2 + 3 + 4 +  1 + 2 + 3 + 4 +  1 + 2 + 3 + 4 +

C |----------------|------------X---|------------X---|
H |x-x-x-x-x-x-x-x-|x-x-x-x-x-x-----|----------------|
S |----o-------o---|----o-------o---|o---o---o---o---|
F |----------------|----------------|o---o---o-------|
B |o-------o-------|o-------o-------|----------------|
   1 + 2 + 3 + 4 +  1 + 2 + 3 + 4 +  1 + 2 + 3 + 4 +

  /----------------3x---------------\------------------|
C |X---------------|----X-----------|X-----------------|
H |--x-x-x-x-x-x-x-|x-x---x-x-x-x-x-|--x-x-x-x-x-x-x---|
S |----o-------o---|----o-------o---|----o-------o-----|
F |----------------|----------------|------------------|
B |o-------o-------|o-------o-----o-|o-------o---------|
   1 + 2 + 3 + 4 +  1 + 2 + 3 + 4 +  1 + 2 + 3 + 4 +

C |----X-------X---|--------|-------------X---|
H |x-x---x-x-x---x-|x-x-x-x-|-----------------|
S |----o-------o---|----o---|o---o---o----o---|
F |----------------|--------|o---o---o--------|
B |o-------o-------|o-------|----------ooo----|
   1 + 2 + 3 + 4 +  1 + 2 +  1 + 2 + 3 +tl4 +

               /-------3x-------\---------------------------------------|
C |X---------------|----------------|X---------------|------------------|
H |-xxxXxxxxxxxXxxx|xxxxXxxxxxxxXxxx|----------------|------------------|
T1|----------------|----------------|----------------|----------oo------|
S |----------------|----------------|----------------|-------ooo--f-----|
B |o---o-------o---|----o-------o---|o---------------|------------------|
   1 + 2 + 3 + 4 +  1 + 2 + 3 + 4 +  1 + 2 + 3 + 4 +  1 + 2 + 3 + 4 +

           /-------2x-------\--------------------------|
C |X---------------|----------------|X---X-----X---X---|
H |--x-x-x-x-x-x-x-|x-x-x-x-x-x-x-x-|------x-x---x-----|
S |----o-------o---|----o-------o---|o---o-----o---o---|
B |o-------o-------|o-------o-------|------------------|
   1 + 2 + 3 + 4 +  1 + 2 + 3 + 4 +  1 + 2 + 3 + 4 +

Once again, repeat the first three measures before each ending.
				     _________________________
           /-------2x-------|1.             |2---------------------------|
C |----------------|----------------|X---X-----X---X-|-------------X-----|
H |x-x-x-x-x-x-x-x-|x-x-x-x-x-x-x-x-|------x-x---x---|x-x-x-x-x-x--------|
S |----o-------o---|----o-------o---|o---o-----o---o-|----o--------o-----|
B |ooo---o-o-------|o-------o-------|----------------|o-------o--oo------|
   1 + 2 + 3 + 4 +  1 + 2 + 3 + 4 +  1 + 2 + 3 + 4 +  1 + 2 + 3 +tl4 +

                    /-------2x-------\----------------------------------|
C |C---C---C---X---|X---X-------X---|----X-------X---|----X---X---X-----|
H |----------------|--x---x-x-x---x-|x-x---x-x-x---x-|x-x---x-----------|
S |o---o---o---o---|----o-------o---|----o-------o---|----o-------------|
B |----------------|o-------o-------|o-------o-------|o-------o---o-----|
   1 + 2 + 3 + 4 +  1 + 2 + 3 + 4 +  1 + 2 + 3 + 4 +  1 + 2 + 3 + 4 +

                             /-------7x-------\-------------------------|
C |--------------X-|----------------|X---------------|------------------|
H |----------------|----------------|-xxxXxxxxxxxXxxx|xxxxXxxxxxxxXxxx--|
S |--------f---oo--|----------------|----------------|------------------|
B |----------o---o-|----------------|o---------------|------------------|
Hf|x---x-----------|x---x---x---x---|----------------|------------------|
   1 + 2 + 3 + 4 +  1 + 2 + 3 + 4 +  1 + 2 + 3 + 4 +  1 + 2 + 3 + 4 +

           /-------3x-------\             /-------2x-------\------------|
C |X---------------|----------------|X---------------|------------------|
H |-xxxXxxxXxxxXxxx|XxxxXxxxXxxxXxxx|-xxx-xxxxxxx-xxx|xxxx-xxxxxxx-xxx--|
S |----------------|----------------|----o-------o---|----o-------o-----|
B |o---o-------o---|----o-------o---|o-------o-------|o-------o---------|
   1 + 2 + 3 + 4 +  1 + 2 + 3 + 4 +  1 + 2 + 3 + 4 +  1 + 2 + 3 + 4 +

C |----------------|----------------|X----X-----X-----X---|
H |--x---x---x---x-|----------------|---------------------|
S |oo-ooo-ooo-oo---|o---o---o---o---|o----o-----o-----o---|
F |----------------|o---o---o---o---|---------------------|
B |----------------|o---o---o---o---|--ooooooooooooooo--o-|
   1 + 2 + 3 + 4 +  1 + 2 + 3 + 4 +  1 +tl2tl+tl3tl+tl4 +

  /----------------3x---------------\------------------|
C |X---------------|----X-----------|X-----------------|
H |--x-x-x-x-x-x-x-|x-x---x-x-x-x-x-|--x-x-x-x-x-x-x---|
S |----o-------o---|----o-------o---|----o-------o-----|
B |o-------o-------|o-------o-----o-|o-------o---------|
   1 + 2 + 3 + 4 +  1 + 2 + 3 + 4 +  1 + 2 + 3 + 4 +

C |----X-------X---|--------|----X-----------|----------X---X-|
H |x-x---x-x-x---x-|x-x-x-x-|x-x---x-x-x-x-x-|x-x-x-x-x---x---|
S |----o-------o---|----o---|----o-------o---|----------o---o-|
B |o-------o-------|o-------|o-------o-------|o---o---o-------|
   1 + 2 + 3 + 4 +  1 + 2 +  1 + 2 + 3 + 4 +  1 + 2 + 3 + 4 +

                              /-------2x-------\-------------------------|
C |-------------X---|C---C---C---X---|X---X-------X---|----X-------X-----|
H |x-x-x-x-x-x------|----------------|--x---x-x-x---x-|x-x---x-x-x---x---|
S |-------------o---|o---o---o---o---|----o-------o---|----o-------o-----|
B |----------ooo----|----------------|o-------o-------|o-------o---------|
   1 + 2 + 3 + 4 +  1 + 2 + 3 + 4 +  1 + 2 + 3 + 4 +  1 + 2 + 3 + 4 +

C |----X---X---X---|--------------X-|----------------|-----------------|
H |x-x---x---------|----------------|----------------|-----------------|
S |----o-----------|--------f---oo--|----------------|o---o---o----f---|
F |----------------|----------------|----------------|o---o---o--------|
B |o-------o---o---|----------o---o-|----------------|-----------------|
Hf|----------------|x---x-----------|x---x---x---x---|----------ooo----|
   1 + 2 + 3 + 4 +  1 + 2 + 3 + 4 +  1 + 2 + 3 + 4 +  1 + 2 + 3 +tl4 +

The God That Failed

>>Intro            {_______x3_______}
c |X---------------|----------------|------------X---|----------------|
h |--x-x-x-x-x-x-x-|x-x-x-x-x-x-x-x-|x-x-x-x-x-x-----|x-x-x---x-x-x-x-|
s |----o-------o---|----o-------o---|----o-------o---|----o-------o---|
b |o-------o-------|o-------o-------|o-------o-oo----|o-------o-------|
   1 + 2 + 3 + 4 +  1 + 2 + 3 + 4 +  1 + 2 + 3 + 4 +  1 + 2 + 3 + 4 +


c |----------------|----X-------X---|----X-------X---|----X-------X---|
h |x-x-x-x---------|--------x-x-----|x-x---x-x-x---x-|x-x---x-x-x---x-|
t1|----------------|--o-------------|----------------|----------------|
s |----o--oo-o-o-o-|oo--o-------o---|----o-------o---|----o-------o---|
b |o---------------|--------o-------|o-------o-------|o-oo----o-oo----|
   1 + 2 + 3 + 4 +  1 + 2 + 3 + 4 +  1 + 2 + 3 + 4 +  1 + 2 + 3 + 4 +


c |----X-----------|----X-----------|----------------|X---------------|
h |x-x---x-x-------|--------x-x-x-x-|x-x-x-x-x-x-x-x-|--x-x-x-x-x-x-x-|
s |----o---o-----o-|----o-------o---|----o-------o---|----o-------o---|
f |--------------oo|ooo-------------|----------------|----------------|
b |o-oo------------|--------o-------|o-------o-------|o-------o-------|
   1 + 2 + 3 + 4 +  1 + 2 + 3 + 4 +  1 + 2 + 3 + 4 +  1 + 2 + 3 + 4 +

c |----------------|
h |x-x-x-x---------|
t1|----------o-_3_o|
t2|------—-------o-|
s |----o--oo---oo--|
b |o---------------|
   1 + 2 + 3 + 4 +

>>Verse 1
  {________________x2_______________}
c |X---------------|----------------|X-------X-------|X---------------|
h |--x-x-x-x-x-x-x-|x-x-x-x-x-x-x-x-|--x-x-x---x-x-x-|--x-x-x-x-x-x-x-|
s |----o-------o---|----o-------o---|----o-------o---|----o-------o---|
b |o--------o------|o-------o-----o-|o-------o-------|o-------o-----o-|
   1 + 2 + 3 + 4 +  1 + 2 + 3 + 4 +  1 + 2 + 3 + 4 +  1 + 2 + 3 + 4 +

c |X-------X-------|----------------|----X-----------|----X-------X---|
h |--x-x-x---x-x-x-|x-x-x-x---------|------x-x-x-x-x-|x-x---x-x-x-----|
t1|----------------|----------o-----|--o-------------|----------------|
t2|----------------|--------------oo|----------------|----------------|
s |----o-------o---|o---o---oo--oo--|oo--o-------o---|----o-------o---|
b |o-------o-------|-o-o------------|--------o-------|o-------o-oo----|
   1 + 2 + 3 + 4 +  1 + 2 + 3 + 4 +  1 + 2 + 3 + 4 +  1 + 2 + 3 + 4 +


>>Chorus           >>2/4    >>4/4             >>2/4
c |----------------|X-------|----------------|X-------|
h |x-x-x-x-x-x-x-x-|--------|x-x-x-x-x-x-x-x-|--------|
t2|----------------|----o---|----------------|----o---|
s |o---o---o---o---|--------|o---o---o---o---|--------|
f |----------------|--oooooo|----------------|--oooooo|
b |-o-o-o-o-o-o-o--|o---o---|-o-o-o-o-o-o-o--|o---o---|
   1 + 2 + 3 + 4 +  1 + 2 +  1 + 2 + 3 + 4 +  1 + 2 +


  >>4/4            >>2/4    >>4/4
c |----------------|X-------|----------------|----------------|
h |x-x-x-x-x-x-x-x-|--------|x-x-x-x-x-x-x-x-|x-x-x-x-x-x-x-x-|
t2|----------------|----o---|----------------|----------------|
s |o---o---o---o---|--------|o---o---o---o-o-|o---o---o---o---|
f |----------------|--oooooo|----------------|----------------|
b |-o-o-o-o-o-o-o--|o---o---|-o-o-o-o-oo-----|-o-o-o-o-o-o-o--|
   1 + 2 + 3 + 4 +  1 + 2 +  1 + 2 + 3 + 4 +  1 + 2 + 3 + 4 +


c |X-------------------------------|----X-------X---|----X-------X---|
h |----x---x---x-------------------|--------x-x-----|x-x---x-x-x---x-|
t2|----------------o-----------o-o-|----------------|----------------|
t3|-----------------oooo-----------|oo--------------|----------------|
s |--------o---------------o-o-----|----o-------o---|----o-------o---|
f |--------------------------------|--o-------------|----------------|
b |o-------------------------------|--------o-------|o-------o-------|
   1 e + a 2 e + a 3 e + a 4 e + a  1 + 2 + 3 + 4 +  1 + 2 + 3 + 4 +

c |----X-------X---|----X-----------|
h |x-x---x-x-x---x-|x-x---x-x-------|
t1|----------------|---------------o|
s |----o-------o---|----o---o-----F-|
b |o-oo----o-oo----|o-oo------------|
   1 + 2 + 3 + 4 +  1 + 2 + 3 + 4 +

>>Verse 2
  {_______________x2________________}
c |X---------------|----------------|
h |--x-x-x-x-x-x-x-|x-x-x-x-x-x-x-x-|
s |----o-------o---|----o-----o-----|
b |o-------o-------|o-------o-----o-|
   1 + 2 + 3 + 4 +  1 + 2 + 3 + 4 +


c |X-------X-------|X---------------|X-------X-------|----------------|
h |--x-x-x---x-x-x-|--x-x-x-x-x-x-x-|--x-x-x---x-x-x-|x-x-x-x---------|
t1|----------------|----------------|----------------|--------o-o-----|
t2|----------------|----------------|----------------|------------o-o-|
s |----o-------o---|----o-------o---|----o-------o---|o---o--o-o-o-o-o|
b |o-------o-------|o-------o-----o-|o-------o-------|-o-o------------|
   1 + 2 + 3 + 4 +  1 + 2 + 3 + 4 +  1 + 2 + 3 + 4 +  1 + 2 + 3 + 4 +


c |--------X---------------X-------|----X-------X---|
h |------------x---x---x-------x---|x-x---x-x-x---x-|
t1|--------------------------------|----------------|
s |--------o---------------o-------|----o-------o---|
f |_3_-----------------------------|----------------|
b |o-o-o-o---------o---------------|o-------o-oo----|
b2|-o------------------------------|----------------|
   1 e + a 2 e + a 3 e + a 4 e + a  1 + 2 + 3 + 4 +


>>Chorus           >>2/4    >>4/4            >>2/4
c |----------------|X-------|----------------|X-------|
h |x-x-x-x-x-x-x-x-|--------|x-x-x-x-x-x-x-x-|--------|
t1|----------------|----o---|----------------|----o---|
s |o---o---o---o---|--------|o---o---o---o---|--------|
f |----------------|--oooooo|----------------|--oooooo|
b |-o-o-o-o-o-o-o--|o---o---|-o-o-o-o-o-o-o--|o---o---|
   1 + 2 + 3 + 4 +  1 + 2 +  1 + 2 + 3 + 4 +  1 + 2 +


  >>4/4            >>2/4    >>4/4
c |----------------|X-------|----------------|
h |x-x-x-x-x-x-x-x-|--------|x-x-x-x-x-x-x-x-|
t1|----------------|----o---|----------------|
s |o---o---o---o---|--------|o---o---o---o-o-|
f |----------------|--oooooo|----------------|
b |-o-o-o-o-o-o-o--|o---o---|-o-o-o-o-oo-----|
   1 + 2 + 3 + 4 +  1 + 2 +  1 + 2 + 3 + 4 +

c |----------------|X-------------------------------|
h |x-x-x-x-x-x-x-x-|----x---x---x----___6__--___6__-|
t1|----------------|-------------------oo------oo---|
t2|----------------|---------------------oo------oo-|
s |o---o---o---o---|--------o-----o--oo------oo-----|
b |-o-o-o-o-o-o-o--|o-------------------------------|
   1 + 2 + 3 + 4 +  1 e + a 2 e + a 3 e + a 4 e + a


c |X---------------|--------------------------------|
h |--x-x-x-x-x-x-x-|x---x---x---x-------------------|
t1|----------------|----------------o-------o-------|
s |----o-----o---o-|--------o-o------oooo----oooo-o-|
b |o-oo-o-o-o--oo--|o---o-o-------------------------|
   1 + 2 + 3 + 4 +  1 e + a 2 e + a 3 e + a 4 e + a


>>Guitar Solo
c |----X-------X---|----X-----------|X-------------------------------|
h |------x-x-x---x-|x-x---x-x-x-x-x-|----x---x---x---x---x---x---x---|
t1|o---------------|----------------|--------------------------------|
t2|-o--------------|----------------|--------------------------------|
s |----o-------o---|----o-------oooo|--------o-o---o---------o-o---o-|
f |--o-------------|----------------|----_3_-------------_3_---------|
b |--------o-------|o-------o-oo----|o---o-o-------------o-o---------|
b2|----------------|----------------|-----o---------------o----------|
   1 + 2 + 3 + 4 +  1 + 2 + 3 + 4 +  1 e + a 2 e + a 3 e + a 4 e + a

c |X-------------------------------|----X-----------|
h |----x---x---x-------------------|------x-x-x-x-x-|
s |--------o---o---F-oo--F-oo--Foo-|----o-------o---|
b |o---o-o-------------o-----o-----|o-oo----o-------|
b2|---------------------o-----o---o|----------------|
   1 e + a 2 e + a 3 e + a 4 e + a  1 + 2 + 3 + 4 +


c |--------X-------___6__--___6__--|X---------------|
h |x---x-------x---x---------------|--x-x-x-x-x-x-x-|
t1|--------------------oo----------|----------------|
t2|--------------------------------|----------------|
s |--------o--------ooo----oo------|----oo-o----oo-o|
f |--------------------------oooo--|----------------|
b |o---------------o---------------|o--o----o-oo----|
   1 e + a 2 e + a 3 e + a 4 e + a  1 + 2 + 3 + 4 +

c |X-------------------------------|----X-------X---|
h |----x---x---x------------___6__-|------x-x-x-----|
t1|--------------------------o-----|----------------|
t2|-------------------------o------|----------------|
s |--------o---o---ooooo------oo---|----o-------o---|
f |-----------------------------oo-|F-F-------------|
b |o---oo--------------------------|--------o-oo----|
   1 e + a 2 e + a 3 e + a 4 e + a  1 + 2 + 3 + 4 +

c |--------X---------------___6__--|X-------------------------------|
h |x---x-------x---x---x---x-------|----x---x---x---x---x-----------|
s |--------o----------------ooooo--|--------o---o--------oo-o-o-o---|
b |o---o-o---------o---o-----------|-----------------------------o--|
b2|------------------------o-------|o---o-o---------o---o---------o-|
   1 e + a 2 e + a 3 e + a 4 e + a  1 e + a 2 e + a 3 e + a 4 e + a

c |----X-X---------|--------------------------------|----X-------X---|
h |x-x-------------|--------------------------------|--------x-x-----|
t1|--------o-------|--------------------------------|----------------|
s |----o-o--oo-o-o-|F-ooo-o---------F-ooo-o---------|----o-------o---|
f |----------------|--------o-o-o-o---------o-o-o-o-|ooo-------------|
b |o-oo------------|--------------------------------|--------o-------|
   1 + 2 + 3 + 4 +  1 e + a 2 e + a 3 e + a 4 e + a  1 + 2 + 3 + 4 +

c |----X-------X---|----X-------X---|----x---X-------|----------------|
h |x-x-----x-x---x-|x-x---x-x-x---x-|x-x---x---x-x-x-|x-x-x-x---------|
t1|----------------|----------------|----------------|--------o---o---|
s |----o-------o---|----o-------o---|----o-----------|----------------|
f |----------------|----------------|----------------|--------oooooooo|
b |o-------o-------|o-------o-------|o-------o-------|--------o---o---|
   1 + 2 + 3 + 4 +  1 + 2 + 3 + 4 +  1 + 2 + 3 + 4 +  1 + 2 + 3 + 4 +

>>Chorus           >>2/4    >>4/4
c |----------------|X-------|----------------|----------------|
h |x-x-x-x-x-x-x-x-|--------|x-x-x-x-x-x-x-x-|x-x-x-x-x-x-x-x-|
t1|----------------|----o---|----------------|----------------|
s |o---o---o---o---|--------|o---o---o---o-o-|o---o---o---o---|
f |----------------|--oooooo|----------------|----------------|
b |-o-o-o-o-o-o-o--|o---o---|-o-o-o-o-o-o----|-o-o-o-o-o-o-o--|
   1 + 2 + 3 + 4 +  1 + 2 +  1 + 2 + 3 + 4 +  1 + 2 + 3 + 4 +

c |X---------------|X---------------|----------------|----------------|
h |--x-x-x---------|----x---x---x---|x---x---x-x-x-x-|x-x-x-x-x-x-x-x-|
t1|----------o---o-|----------------|----------------|----------------|
s |----o--oo---oo--|----o-------o---|----o-------o-o-|----o-------o---|
b |o---------------|o-------o-------|o-------o--o----|o-------o-------|
   1 + 2 + 3 + 4 +  1 + 2 + 3 + 4 +  1 + 2 + 3 + 4 +  1 + 2 + 3 + 4 +

c |----------------|
h |x-x-x-x---------|
s |----o----F------|
b |o------oo-------|
   1 + 2 + 3 + 4 +

>>Verse 3
c |X---------------|----------------|X-------X-------|
h |----x-x-x-x-x-x-|x-x-x-x-x-x-x-x-|--x-x-x---x-x-x-|
s |----o-------o---|----o-------o---|----o-------o---|
b |o-------o-------|o-------o-----o-|o-------o-------|
   1 + 2 + 3 + 4 +  1 + 2 + 3 + 4 +  1 + 2 + 3 + 4 +

c |--------X-----------------------|
h |x---x-------x------------___6__-|
t1|---------------------------oo---|
t2|-----------------___6__------oo-|
s |o-------o-----o--oooooo--oo-----|
f |--------------------------------|
b |--o---o-------------------------|
   1 e + a 2 e + a 3 e + a 4 e + a

>>Chorus           >>2/4    >>4/4            >>2/4
c |----------------|X-------|----------------|X-------|
h |x-x-x-x-x-x-x-x-|--------|x-x-x-x-x-x-x-x-|--------|
t1|----------------|----o---|----------------|----o---|
s |o---o---o---o---|--------|o---o---o---o---|--------|
f |----------------|--oooooo|----------------|--oooooo|
b |-o-o-o-o-o-o-o--|o---o---|-o-o-o-o-o-o-o--|o---o---|
   1 + 2 + 3 + 4 +  1 + 2 +  1 + 2 + 3 + 4 +  1 + 2 +

  >>4/4            >>2/4
c |----------------|X-------|----------------|----------------|
h |x-x-x-x-x-x-x-x-|--------|x-x-x-x-x-x-x-x-|x-x-x-x-x-x-x-x-|
t1|----------------|----o---|----------------|----------------|
s |o---o---o---o---|--------|o---o---o---o-o-|o---o---o---o---|
f |----------------|--oooooo|----------------|----------------|
b |-o-o-o-o-o-o-o--|o---o---|-o-o-o-o-oo-----|-o-o-o-o-o-o-o--|
   1 + 2 + 3 + 4 +  1 + 2 +  1 + 2 + 3 + 4 +  1 + 2 + 3 + 4 +

c |X---------------|--X-------------|----------------|X-------------X-|
h |--x-x-x---------|----------------|----------------|----------------|
t1|----------------|----o---o-------|o-------o-------|----o---o-------|
t2|----------------|------------o---|----o-------o---|------------o---|
s |----o--oo-o-o-o-|----------------|----------------|o-------------o-|
f |----------------|oo—-ooooooooo-oo|ooooooooooooo-oo|-oooooooooooo---|
b |o---------------|--o-o---o---o---|o---o---o---o---|----o---o---o---|
   1 + 2 + 3 + 4 +  1 + 2 + 3 + 4 +  1 + 2 + 3 + 4 +  1 + 2 + 3 + 4 +

c |X---------------|----------------|X---------------|X-------X-------|
h |--x-x-x-x-x-x-x-|x-x-x-x-x-x-x-x-|--x-x-x-x-x-x-x-|----------------|
s |o---o---o---o---|o---o---o---o-o-|o-------o---o---|o-------o-------|
b |-o-o-o-o-o-o-o-o|-o-o-o-o-o-o----|o-o-o-o-o-o-o-o-|----------------|
b2|----------------|----------------|-o-o-o-o-o-o-o-o|----------------|
   1 + 2 + 3 + 4 +  1 + 2 + 3 + 4 +  1 + 2 + 3 + 4 +  1 + 2 + 3 + 4 +

t1|------o-------------------------|
t2|--------o-o---------------------|
s |o-ooo---------------------------|
f |------------F-F-----------------|
   1 e + a 2 e + a 3 e + a 4 e + a

My friend of misery

Intro (Loose H.H.)
  |----repeat-6x------------------------|
C |-----------------|---------------x---|
H |-----------------|-x-xxx-x-x-x-x-----|
B |-----------------|---------------o---|


C |-x---------------|
H |-----x-------x---|
B |-o---------------|
   ___________________________________
  |1.3.             |2.4.             |
C |-----------------|---------------x-|
H |-----x-------x---|-x-xxx-x-x-x-x---|
B |-----------------|---------------o-|


C |-x-------x-------|-----------------|---------x-------|-----------------|
H |-----x-------x---|-x---x---x---x---|-x---x-------x---|-x---x---x---x---|
S |---------o-------|---------o-------|---------o-------|---------o-------|
B |-o---------------|-o---------------|-o---------------|-o-------------o-|


C |---------x-------|-----------------|---------x-------|-----------------|
H |-x---x-------x---|-x---x---x---x---|-x---x-------x---|-x---x---x---x---|
S |---------o-------|---------o-------|---------o-------|---------o-------|
B |-o---------------|-o---------------|-o---------------|-o-------------o-|


C |---------x-------|
H |-x---x-------x---|
S |---------o-------|
B |-o---------------|
   ____________________________________
  |1.2.3.           |4.                |
C |-----------------|-x-------x--------|
H |-x---x---x---x---|-----x------------|
S |---------o-------|-o-------o-tTTo-o-|
B |-o-------------o-|------------------|
  | 1 + 2 + 3 + 4 + | 1 + 2 + 3 +  4 + |

Verse 1 (Loose H.H.)
C |-x---------------|-----------------|
H |-----x---x---x---|-x---x---x---x---|
S |-----o-------o---|-----o-------o---|
B |-o-------o-------|-o-------o-----o-|

  |--------------------------------repeat-2x------------------------------|
C |-----------------|-----------------|-----x-----------|-----------------|
H |-x---x---x---x---|-x---x---x---x---|-x-x-----x---x---|-x---x---x---x---|
S |-----o-------o---|-----o-------o---|-----o-------o---|-----o-------o---|
B |-o-------o-------|-o-------o-----o-|-o-------o-------|-o-------o-----o-|


C |-----------------|-------------x---|-x-----------x---|-x---------------|
H |-x---x---x---x---|-x---x---x-x-----|-----------------|-----------------|
S |-----o-------o---|-----o-------o---|-----------------|-----------------|
B |-o-------o-------|-o-------o-o-----|-o-----------o---|-o---------------|


Chorus 1 (Loose H.H.)
C |-x---------------|-----------------|
H |-----x---x---x---|-x---x---x---x---| repeat
S |---------o-------|---------o-------|   3x
B |-o-------------o-|-o---------o---o-|


C |-----------------|---------------x-|
T |---------o-----o-|---------o-------|
F |-o---o-o-o---o---|-o---o-o-o-g-o---|
B |-o---o---o---o---|-o---o---o---o-o-|


C |-x---------------|-----------------|-x---------------|---------------x-|
H |-----x-------x---|-----x-------x---|-----x-------x---|-----------------|
t |-----------------|-----------------|----------------o|-o-o-------------|
T |-----------------|-----------------|-----------------|-------o---------|
S |-----------------|-----------------|-----------------|-----o-------o---|
F |-----------------|-----------------|-----------------|---------o-o-----|
B |-o---------------|-----------------|-o---------------|---------------o-|


C |-x---------------|-----------------|-x---------------|---------------x-|
H |-----x-------x---|-----x-------x---|-----x-------x---|-----------------|
T |-----------------|-----------------|-----------------|-------o---------|
S |-----------------|-----------------|-----------------|-----o-------o---|
F |-----------------|-----------------|----------------o|-o-o-----o-o-----|
B |-o---------------|-----------------|-o---------------|---------------o-|


Repeat Verse 1 for Verse 2


Chorus 2 (Loose H.H.)
C |-x---------------|-----------------|
H |-----x---x---x---|-x---x---x---x---| repeat
S |---------o-------|---------o-------|   3x
B |-o-------------o-|-o---------o---o-|


C |-----------------|---------------x-|
T |---------o-----o-|---------o-------|
F |-o---o-o-o---o---|-o---o---o---o---|
B |-o---o---o---o---|-o---o---o---o-o-|


Pt 1:
C |-x---------------|-----------------|-x---------------|---------------x-|
H |-----x-------x---|-----x-------x---|-----x-------x---|-----x-------x---|
B |-o---------------|-----------------|-o---------------|---------------o-|

                    |----repeat-14x---|
C |-x---------------|-----------------|
H |-----------------|-----------------|
S |-----------------|-----------------|
B |-o---------------|-----------------|
Hf|-----------------|-----x-------x---|

                    |----repeat-1x------------------------|
C |-x---------------|-----------------|-------------------|
H |-----x---x---x---|-x---x---x---x---|-x---x---x---x-----|
S |---------o-------|---------o-------|---------o---------|
B |-o---------------|-o---------------|-o-------------o---|


C |-x---------------|-----------------|-----------------|-----------------|
H |-----x---x---x---|-x---x---x---x---|-x---x---x---x---|-x---x---x---x---|
S |---------o-------|---------o-------|---------o-------|---------o-------|
B |-o---------------|-o-------------o-|-o---------------|-o---------o---o-|

C |-x---------------|-----------------|-x-------x-------|-----------------|
H |-----x---x---x---|-x---x---x---x---|-------------x---|-----------------|
T |-----------------|-----------------|-----------------|-o-o---o---------|
S |---------o-------|---------o-------|-o-------o-------|-----------o-o-o-|
F |-----------------|-----------------|-----------------|-o-o---o---o-o-o-|
B |-o---------------|-o---------o---o-|-----------------|-----------------|


Repeat Verse 1 for Pt 2


Guitar Solo:
C |-x---------------|
H |-----x---x---x---|
S |---------o-------|
B |-o-------------o-|
   ____________________________________
  |1.               |2.                |
H |-x---x---x---x---|-x---x------------|
t |-----------------|--------------tt--|
S |---------o-------|---------f-o-t----|
B |-o---------o---o-|-o--------------o-|
  | 1 + 2 + 3 + 4 + | 1 + 2 + 3 + 4  + |

C |-x---------------|-----------------|-x-------------|-------------|
H |-----x---x---x---|-x---x---x---x---|-----x---------|-------------|
t |-----------------|-----------------|-------------t-|-------------|
T |-----------------|-----------------|---------------|----tt---t---|
S |---------o-------|---------o-------|-------f-tttt-t|-ttt--ttt--tt|
F |-----------------|-----------------|---------------|----------t--|
B |-o-------------o-|-o---------o---o-|-o-------------|-------------|
  | 1 + 2 + 3 + 4 + | 1 + 2 + 3 + 4 + | 1 + 2 + 3tl4tl| 1tl2tl3tl4tl|

Chorus 3 (Loose H.H.)
C |-x---------------|-----------------|
H |-----x---x---x---|-x---x---x---x---| repeat
S |---------o-------|---------o-------|   3x
B |-o-------------o-|-o---------o---o-|


C |---------o-----o-|---------o-----x-|
T |-----------------|-----------------|
F |-o---o-o-o---o---|-o---o-o-o---o---|
B |-o---o---o---o---|-o---o---o---o-o-|


C |-x---------------|-----------------|
H |-----x---x---x---|-x---x---x---x---| repeat
S |---------o-------|---------o-------|   2x
B |-o-------------o-|-o---------o---o-|


C |-x---------------|-----------------|-------------x---|-----------------|
H |-----x---x---x---|-x---x---x---x---|-----------------|-----------------|
t |-----------------|-----------------|---o-------------|-----------------|
T |-----------------|-----------------|-----------o-----|---o-ooo---oo--o-|
S |---------o-------|---------o-------|-oo------oo------|-oo------oo--o---|
B |-o-------------o-|-o---------o-----|-------------o---|-----------------|

                    |----repeat-1x------------------------|
C |-x---------------|-----------------|-----------x-x-----|
H |-----x---x-x-x-x-|-x-x-x-x-x-x-x-x-|-x-x-x-x-----------|
S |-----o-------o---|-----o-------o---|-----o---oo--------|
B |-o-------o-------|-o-------o-------|-o---------o-o-----|

  |----repeat-1x------------------------------------------|
C |-----------------|---------x-x-----|-x-x-------x---x---|
H |-x-x-x-x-x-x-x-x-|-----------------|-------------------|
S |-----o-------o---|-f-oooooo----oooo|-----ooooo---oo----|
B |-o-------o-------|---------o-o-----|-o-o-------o---o---|

  |----repeat-2x------------------------|
C |-x---x---x---x---|-x---x---x---x-----|
S |-----o-------o---|-----o-------o-----|
B |-o-------o-------|-o-------o-----o---|


C |-x---x---x---x---|-----------------|-----------------|-------------x---|
H |-----------------|-----------------|-----------------|-x---x---x-------|
S |-----o-------o---|-o-o-o-o-o-o-o---|-f-f---f-f---f---|-----------------|
F |-----------------|-o-o-o-o-o-o-o---|-----------------|-----------------|
B |-o-oo----o-------|---------------o-|-----o-----o---o-|-o---o---o---o---|


C |-x---------------|
H |-----x---x---x---|
S |---------o-------|
B |-o-------------o-|
   ___________________________________
  |1.               |2.               |
H |-x---x---x---x---|-x---x---x---x---|
S |---------o-------|---------o-------|
B |-o---------o---o-|-o---------o-----|


C |-----------------|-----------------|-----------------|-----------x-----|
T |-o---o---o---o---|---o-o---o---o---|-o-o-o-o-o-o-----|---o-o-o-o-------|
S |-----------------|-----------------|-------------o---|-----------o-----|
F |-o-o-o-o-o-o-o-o-|-o-o-o-o-o-o-o-o-|-o-o-o-o-o-o-o---|---o-o-o-o-------|
B |-o---o---o---o---|-o---o---o---o---|-o---------------|-----------------|

The struggle within

Intro:
S  |--------------RR|o-f---f-f-f-f-f-|f-f---f-f-----RR|o-f---f-f-f-f-f-|


S  |f-f---f-f-----RR|

S  |o-f---f-f-f-f-f-|f-f---f-f-----RR|  x6

C  |----------------|------X-X-------|--------------------|
S  |o-o---o-o-o-o-o-|o-o---o-o-------|--------------------|  note: last measure
Ft |o-o---o-o-o-o-o-|o-o-------------|--------------------|         not in time
B  |0-0---0-0-0-0-0-|0-0-------------|--------------------|

S  2/4|--------| x5                  note:  tempo speeds up

Verse 1
   |    6x  |                                  |  8x    |        | 9x     |
C  |--------|--------|    |------|    |X-------|--------|----X---|--------|
H  |----x---|----x---| 3/8|------| 2/4|----x-x-|x-x-x-x-|x-x-----|x-x-x-x-|
S  |--------|----o---|    |------|    |----o---|----o---|----o---|----o---|
B  |--------|--------|    |------|    |0-------|0-------|0-0-----|0-------|

                                   |  5x    |
C  |----X---|    |--X-----X---|    |--------|----X---|    |--X-----X---|
H  |x-x-----| 3/4|x-----x-----| 2/4|x-x-x-x-|x-x-----| 3/4|x-----x-----|
S  |----o---|    |--o-----o---|    |----o---|----o---|    |--o-----o---|
B  |0-0-----|    |0-----0-----|    |0-------|0-0-----|    |0-----0-----|

      |  5x    |
C     |--------|----X---|    |--X-----X---|    |--------|
H  2/4|x-x-x-x-|x-x-----| 3/4|x-----x-----| 2/4|--------|
S     |----o---|----o---|    |--o-----o---|    |o-o-o-o-|
B     |0-------|0-0-----|    |0-----0-----|    |--------|

Half time feel
                       |      2x        |
C     |X-X-----X-------|--------X-------|--------X-------|
H  4/4|------------x---|x---x-------x---|x---x-----------|
S     |--------o-------|--------o-------|--------o--oo-o-|
B     |0-0---0---------|0-0---0---------|0-0---0---------|

Chorus
C  |X---------------|----------------|----------------|----------------|
H  |----x---x---x---|x---x---x---x---|x---x---x---x---|x---x---x---x---|
S  |--------o-------|--------o-------|--------o-------|--------o-------|
B  |0---------------|0-----0-----0---|0---------------|0-----0-----0---|

H  |x---x---x---x---|x---x---x---x---|x---------------|----------------|
S  |--------o-------|--------o-o---o-|----o-o---------|ooooo-o---------|
t2 |----------------|----------------|--------o-------|--------o-o-----|
t3 |----------------|----------------|------------o---|------------o-o-|
B  |0---------------|0-----0---------|0---------------|----------------|


                    |   repeat 3x    |
C  |X-X-----X-------|--------X-------|X-----X---------|XXXXXXXXXXXXXXXX|
H  |------------x---|x---x-------x---|----------------|----------------|
S  |--------o-------|--------o-------|----------------|----------------|
B  |0-0---0---------|0-0---0---------|0-----0---------|----------------|

                                           |   5x   |
C  |XXXXXXXXXXXXXXXXXXX| note: not in | 2/4|----x---|
H  |-------------------|       time   |    |--------|

Verse 2
            |  7x    |        |  9x    |
C  |X-------|--------|----X---|--------|----X---|    |--X-----X---|
H  |----x-x-|x-x-x-x-|x-x-----|x-x-x-x-|x-x-----| 3/4|x-----x-----|
S  |----o---|----o---|----o---|----o---|----o---|    |--o-----o---|
B  |0-------|0-------|0-0-----|0-------|0-0-----|    |0-----0-----|

      |  5x    |                               |  5x    |
C     |--------|----X---|    |--X-----X---|    |--------|----X---|
H  2/4|x-x-x-x-|x-x-----| 3/4|x-----x-----| 2/4|x-x-x-x-|x-x-----|
S     |----o---|----o---|    |--o-----o---|    |----o---|----o---|
B     |0-------|0-0-----|    |0-----0-----|    |0-------|0-0-----|

C     |--X-----X---|    |--------|
H  3/4|x-----x-----| 2/4|--------|
S     |--o-----o---|    |f-o-o-o-|
B     |0-----0-----|    |--------|

Half time yet
                       |   2x           |
C     |X-X-----X-------|--------X-------|--------X-------|
H  4/4|------------x---|x---x-------x---|x---x-----------|
S     |--------o-------|--------o-------|--------o--oo-o-|
B     |0-0---0---------|0-0---0---------|0-0---0---------|

Chorus
C  |X---------------|----------------|----------------|----------------|
H  |----x---x---x---|x---x---x---x---|x---x---x---x---|x---x---x---x---|
S  |--------o-------|--------o-------|--------o-------|--------o-------|
B  |0---------------|0-----0-----0---|0---------------|0-----0-----0---|

H  |x---x---x---x---|x---x---x---x---|----------------|----------------|
S  |--------o-------|--------o-----o-|o-o---o-o-o-----|-oooo-o-----o-o-|
T2 |----------------|----------------|----o-------o-o-|----------------|
T3 |----------------|----------------|----------------|o-------o-o-----|
B  |0---------------|0-----0-----0---|----------------|----------------|

                    |     3x         |
C  |X-X-----X-------|--------X-------|X-----X---------|XXXXXXXXXXXXXXXX|
H  |------------x---|x---x-------x---|----------------|----------------|
S  |--------o-------|--------o-------|----------------|----------------|
B  |0-0---0---------|0-0---0---------|0-----0---------|----------------|

C  |XXXXXXXX|  note: not in time |----oo|o-o-o-o-o-o-o-o-|
S  |--------|                    |------|----------------|

Guitar Solo:  End of Half time
                    |      2x        |
C  |X---------------|----------------|------------X---|
H  |----x-x-x-x-x-x-|x-x-x-x-x-x-x-x-|x-x-x-x-x-x-----|
S  |----o-------o---|----o-------o---|----o-------o---|
B  |0-------0-------|0-------0-------|0-------0-0-----|

   |       3x       |
C  |----------------|------------X---|
H  |x-x-x-x-x-x-x-x-|x-x-x-x-x-x-----|
S  |----o-------o---|----o-------o---|   repeat 3x
B  |0-------0-------|0-------0-------|

Half time feel
C  |X---------------|----------------|----------------|----------------|
H  |----x---x---x---|x---x---x---x---|x---x---x---x---|x---x---x---x---|
S  |--------o-------|--------o-------|--------o-------|--------o-------|
B  |0---------------|0-----0-----0---|0---------------|0-----0-----0---|

C  |----------------|----------------|--------X---X---|----------------|
H  |x---x---x---x---|x---x---x---x---|----------------|----------------|
S  |--------o-------|--------o---o---|ooooo-o---------|ooooo-o---o-o-o-|
t2 |----------------|----------------|----------------|--------o-------|
B  |0---------------|0-----0---------|--------0---0---|----------------|

End half time feel
                    |       2x       |
C  |X---------------|----------------|------------X---|    |--X-----X---|
H  |----x-x-x-x-x-x-|x-x-x-x-x-x-x-x-|x-x-x-x-x-x-----| 3/4|x-----x-----|
S  |----o-------o---|----o-------o---|----o-------o---|    |--o-----o---|
B  |0-------0-------|0-------0-------|0-------0-0-----|    |0-----0-----|

C  |--------X---|--X-----X---|    |-----------------|X---------------|
H  |------------|x-----x-----| 4/4|o-o-o------------|--x-x-x-x-x-x-x-|
S  |o-o-o-o-o---|--o-----o---|    |-----------------|----o-------o---|
B  |------------|0-----0-----|    |-----------------|0-------0-------|

   |     2x         |                |       3x       |
C  |----------------|X---X---X---X---|----------------|X---X---X---X---|
H  |x-x-x-x-x-x-x-x-|----------------|x-x-x-x-x-x-x-x-|----------------|
S  |----o-------o---|----o-------o---|----o-------o---|----o-------o---|
B  |0-------0-------|0-------0-------|0-------0-------|0-------0-------|

S  |o-o-o-----------|

Verse 3
               | 7x     |                          |   5x   |
C     |X-------|--------|----X---|    |--X-----X---|--------|----X---|
H  2/4|----x-x-|x-x-x-x-|x-x---x-| 3/4|x-----x-----|x-x-x-x-|x-x-----|
S     |----o---|----o---|----o---|    |--o-----o---|----o---|----o---|
B     |0-------|0-------|0-0-----|    |0-----0-----|0-------|0-0-----|

                        |  5x    |
C     |--X-----X---|    |--------|----X---|    |--X-----X---|    |--------|
H  3/4|x-----x-----| 2/4|x-x-x-x-|x-x---x-| 3/4|x---x-x-----| 2/4|--------|
S     |--o-----o---|    |----o---|----o---|    |--o-----o---|    |o-o-o-o-|
B     |0-----0-----|    |0-------|0-0-----|    |0-----0-----|    |--------|

Half time Feel
                       |   2x           |
C     |X-X-----X-------|--------X-------|--------X-------|X---------------|
H  4/4|------------x---|x---x-------x---|x---x-----------|----x---x---x---|
S     |--------o-------|--------o-------|--------o--oo-o-|--------o-------|
B     |0-0---0---------|0-0---0---------|0-0---0---------|0---------------|

H  |x---x---x---x---|x---x---x---x---|x---x---x---x---|x---x---x---x---|
S  |--------o-------|--------o-------|--------o-------|--------o-------|
B  |0-----0-----0---|0---------------|0-----0-----0---|0---------------|


C  |----------------|----------------|----------------|X-X-----X-------|
H  |x---x---x---x---|----------------|----------------|------------x---|
S  |--------o-o-----|-oooo-o--oooo-o-|-oooo-o-----o-o-|--------o-------|
T2 |----------------|o-------o-------|o---------------|----------------|
T3 |----------------|----------------|--------o-o-----|----------------|
B  |0-----0---------|----------------|----------------|0-0---0---------|

   |   3x           |                                 |  not in time       |
C  |--------X-------|X-----X---------|XXXXXXXXXXXXXXXX|XXXXXXXXXX----------|
H  |x---x-------x---|----------------|----------------|--------------------|
S  |--------o-------|----------------|----------------|--------------------|
B  |0-0---0---------|0-----0---------|----------------|--------------------|

End half time feel
      |    4x  |
H     |----x---|--------|--------|--------|--------|
S  2/4|--------|o-o---o-|o-o-o-o-|o-o---o-|o-------|
Ft    |--------|o-o---o-|o-o-o-o-|o-o---o-|o-------|


Well their you go the whole album don’t forget to rate
comments
We did not receive enough feedback on this tab! Please rate:
print report bad tab
1 2 3 4 5
I want to post or [tab]
guest
You may want to rate the tab now too:
select rating
Please do not post tabs as comments. Select "correction" instead!