Oops, an error
Loading. Please wait.

Black Album Bass Tab

ver2
ver2

Album

Interactive

More versions @911Tabs.com
5,665 views 12 this week
3 commentsread comments
1 2 3 4 5
worth learning
x 3
Autoscroll
+/-
esc
set tempo
stop
Contributor
Hey! There's an official Ultimate Guitar app which is ideal
for learning songs when you're away from computer. Get the app
WARNING: You are trying to view
                                    content from Ultimate-Guitar.com
                                    in an unauthorized application,
                                    which is prohibited.

                                    Please use an official Ultimate
                                    Guitar Tabs application for iPhone,
                                    iPad or Android to access legitimate
                                    chords, guitar, bass, and drum tabs
                                    from Ultimate-Guitar.com database.

                                    Type "ultimate guitar tabs" in Apple
                                    App Store's or Android Market's
                                    search to find the application.
Band- Metallica
Album- Metallica(Black Album)

1.ENTER SANDMAN

Wait through 8 measures of guitar intro, then start :
G|-------------------------|-------------------------|-------------------------|
D|-------------------------|-------------------------|-------------------------|
A|-------------------------|-------------------------|-------------------------|
E|--0--0--0--0--0--0--0--0-|--0--0--0--0--0--0--0--0-|--0--0--0--0--0--0--0--0-|

G|-------------------------|---------------------------|--------------------------|
D|-------------------------|---------------------------|--------------------------|
A|-------------------------|---------------------------|--------------------------|
E|--0--0--0--0--0--0--0--0-|--0--0--0--0--0--0--0--0/1-|--0--0--0--0--0--0--0--0/1|

G|---------------------------|-------------------------|-------------------------|
D|---------------------------|-------------------------|-------------------------|
A|---------------------------|-------------------------|-------------------------|
E|--0--0--0--0--0--0--0--0/1-|--0--0--0--1--0--0--0--1-|--0--0--0--0--0--0--0--1-|

G|----------------------|-------------------------|--------------------| 
D|----------------------|-------------------------|--------------------|
A|----------------------|-------------------------|--------------------|
E|--0--0--0--0--0--0--1-|--0--0--0--0--0--0--0--1-|--0--0--0--5---5--1-|

G|---------------------------|---------------------------|-------------------------|
D|---------------------------|---------------------------|-------------------------|
A|---------------------------|---------------------------|-------------------------|
E|--0--0--0--0--0--0--0--0/1-|--0--0--0--0--0--0--0--0/1-|--0--0--0--0--0--0--0--2-|

G|-------------------------|-------------------------|-------------------------|
D|-------------------------|-------------------------|-------------------------|
A|-------------------------|-------------------------|-------------------------|
E|--0--0--0--0--0--0--0--1-|--0--0--0--0--0--0--0--1-|--0--0--0--0--0--0--0--1-|

G|-------------------------|---------------------------|----------------------|
D|-------------------------|---------------------------|----------------------|
A|-------------------------|---------------------------|----------------------|
E|--0--0--0--0--0--0--0--0-|--(0)--0--0--6--5--5--0--0-|--0--0--6--5--5--0--0-|

G|-------------------|----------------------|---------------------------|
D|-------------------|----------------------|---------------------------|
A|-------------------|----------------------|---------------------------|
E|--0--0--6--5--0--3-|--0--2--0--2--3--2--0-|--(0)--0--0--6--5--5--0--0-|

G|----------------------|-------------------|----------------------|
D|----------------------|-------------------|----------------------|
A|----------------------|-------------------|----------------------|
E|--0--0--6--5--5--0--0-|--0--6--5--5--0--3-|--0--2--0--2--3--2--0-|

 

Verses 1 and 2 
G|---------------------------|-------------------------|-------------------------|
D|---------------------------|-------------------------|-------------------------|
A|---------------------------|-------------------------|-------------------------|
E|--(0)--0--0--0--0--0--0--1-|--0--0--0--0--0--0--0--1-|--0--0--0--0--0--0--0--3-|

G|-------------------|---------------------------|------------------------|
D|-------------------|---------------------------|------------------------|
A|-------------------|---------------------------|------------------------|
E|--0--2--2--3--2--0-|--(0)--0--0--0--0--0--0--1-|--0--0--0--0--0--0--0--1|

G|-------------------------|----------------------|
D|-------------------------|----------------------|
A|-------------------------|----------------------|
E|--0--0--0--0--0--0--0--3-|--0--2--0--2--3--2--2-|

 Pre-chorus (Sleep with one eye open...)
G|------------|----------|------------|----------------------|
D|------------|----------|------------|----------------------|
A|------2-----|---2------|---2--------|----------------------|
E|--(2)-----2-|--------2-|----------2-|--2--2--2--2--2--0--1-|

 Chorus
G|---------------------------|-------------------------|------------------------------|
D|---------------------------|-------------------------|------------------------------|
A|------------3--2--2--2-----|---------3--2--2--2------|------------3--2--2--2--------|
E|--2--2--2----------------2-|--2--2-----------------2-|--2--2--2------------------0--|

G|--------------------------|------------------------|-------------------------|
D|--------------------------|------------------------|-------------------------|
A|-------5--7--7--5---------|---------3--2--2--2-----|-------------------------|
E|--5/7----------------7--5-|--2--2----------------0-|--0--0--2--0--4--0--5--0-|

G|------------------|---------------------------|-------------------------|
D|------------------|---------------------------|-------------------------|
A|------------------|------------3--2--2--2-----|---------3--2--2--2------|
E|--3-------------0-|--2--2--2----------------2-|--2--2-----------------2-|

G|------------------------------|--------------------------|------------------------|
D|------------------------------|--------------------------|------------------------|
A|------------3--2--2--2--------|-------5--7--7--5---------|---------3--2--2--2-----|
E|--2--2--2------------------0--|--5/7----------------7--5-|--2--2----------------0-|

G|------------------------|-------------------------|------------------|
D|------------------------|-------------------------|------------------|
A|---------3--2--2--2-----|-------------------------|------------------|
E|--2--2----------------0-|--0--0--2--0--4--0--5--0-|--3-------------0-|

G|-----------------------------|
D|-----------------------------|
A|-----------------7--7--7-----|
E|--(0)--0--0--0-------------0-|

Guitar Solo
G|---------------------------|----------------------|----------------------|
D|---------------------------|----------------------|----------------------|
A|---------------------------|----------------------|----------------------|
E|--(0)--0--0--6--5--5--0--0-|--0--0--6--5--5--0--0-|--0--0--6--5--5--0--3-|

G|----------------------|---------------------------|----------------------|
D|----------------------|---------------------------|----------------------|
A|----------------------|---------------------------|----------------------|
E|--0--2--0--2--3--2--0-|--(0)--0--0--6--5--5--0--0-|--0--0--6--5--5--0--0-|

G|----------------------|---------------------------|--------------------|
D|----------------------|---------------------------|--------------------|
A|----------------------|---------------------------|--2-----------------|
E|--0--0--6--5--5--0--3-|--(3)--0--2--0--2--3--2--2-|------------------2-|

G|-----------------|---------------------|------------------|
D|-----------------|---------------------|------------------|
A|---2-------------|---2-----------------|------------------|
E|---------------2-|-------------------2-|-------0--0--0--1-|

G|---------------------------|----------------------------|---------------------------|
D|---------------------------|----------------------------|---------------------------|
A|------------3--2--2--2-----|------------3--2--2--2------|------------3--2--2--2-----|
E|--2--2--2----------------2-|--2--2--2-----------------2-|--2--2--2----------------0-|




G|-----------------------|---------------------------|---------------------|
D|-----------------------|---------------------------|---------------------|
A|-----/5--5-------------|------------3--2--2--2-----|----------------0----|
E|--0---------7--6--5--3-|--2--2--2----------------0-|--2--0--3--0-------0-|

G|------------------|-------------------------|-------------------------|
D|------------------|-------------------------|-------------------------|
A|------------------|-------------------------|-------------------------|
E|--0---(rest)------|--0--0--0--0--0--0--0--1-|--0--0--0--0--0--0--0--1-|

G|-------------------------|
D|-------------------------|
A|-------------------------|
E|--0--0--0--0--0--0--0--1-|

 Interlude (Now I lay me down to sleep...)
G|-------------------------|-------------------------|-------------------------|
D|-------------------------|-------------------------|-------------------------|
A|-------------------------|-------------------------|-------------------------|
E|--0--0--0--0--0--0--0--1-|--0--0--0--0--0--0--0--1-|--0--0--0--0--0--0--0--1-|

G|-------------------------|-------------------------|-------------------------|
D|-------------------------|-------------------------|-------------------------|
A|-------------------------|-------------------------|-------------------------|
E|--0--0--0--0--0--0--0--1-|--0--0--0--0--0--0--0--1-|--0--0--0--0--0--0--0--1-|

G|-------------------------|-------------------------|-------------------------|
D|-------------------------|-------------------------|-------------------------|
A|-------------------------|-------------------------|-------------------------|
E|--0--0--0--0--0--0--0--1-|--0--0--0--0--0--0--0--2-|--2--2--2--2--2--2--2--3-|

G|-------------------------|-------------------------|-------------------------|
D|-------------------------|-------------------------|-------------------------|
A|-------------------------|-------------------------|-------------------------|
E|--2--2--2--2--2--2--2--3-|--2--2--2--2--2--2--2--3-|--2--2--2--2--2--2--2--3-|

G|-------------------------|-------------------------|-------------------------|
D|-------------------------|-------------------------|-------------------------|
A|-------------------------|-------------------------|-------------------------|
E|--2--2--2--2--2--2--2--2-|--2--2--2--2--2--2--2--2-|--2--2--2--2--2--0--0--1-|

 Third Chorus
G|---------------------------|---------------------------|---------------------------|
D|---------------------------|---------------------------|---------------------------|
A|------------3--2--2--2-----|------------3--2--2--2-----|------------3--2--2--2-----|
E|--2--2--2----------------2-|--2--2--2----------------2-|--2--2--2----------------0-|

G|----------------------------|-------------------------|----------------------|
D|----------------------------|-------------------------|----------------------|
A|--------7--5----------7-----|------------3--2---2-----|----------------------|
E|--0--0---------7--7------5\-|--2--2--2--------------0-|--0--0--0--0--0--0--1-|

G|------------------------|----------------------------|---------------------|
D|------------------------|----------------------------|---------------------|
A|---------3--2--2--2-----|-------------3--2--2--2-----|-------------3--2----|
E|--2--2----------------2-|--2--2--2-----------------2-|--2--2--2----------0-|

G|----------------------|------------------------|-------------------|----------------------|
D|----------------------|------------------------|-------------------|----------------------|
A|-------5--7--5--------|------------3--2--2-----|-------------------|----------------------|
E|--5/7------------7--5-|--2--2--2-------------0-|--0--2--0--3--5--0-|--0-----------------0-|

 Outro (Evil laughter etc.)
G|---------------|-----------------------|----------------------|-------------------------|
D|---------------|-----------------------|----------------------|-------------------------|
A|---------------|-----------------------|----------------------|-------------------------|
E|--0------------|---------------------0-|--0--0--6--5--5--0--0-|--0--0--0--6--5--5--0--0-|

G|-------------------------|-------------------------|-------------------------|
D|-------------------------|-------------------------|-------------------------|
A|-------------------------|-------------------------|-------------------------|
E|--0--0--0--6--5--5--0--0-|--0--0--0--6--5--5--0--0-|--0--0--0--6--5--5--0--3-|

G|----------------------|-------------------------|-------------------------|
D|----------------------|-------------------------|-------------------------|
A|----------------------|-------------------------|-------------------------|
E|--0--2--0--2--3--2--0-|--0--0--0--0--0--0--0--1-|--0--0--0--0--0--0--0--1-|

G|-------------------------|-------------------------|-------------------------|
D|-------------------------|-------------------------|-------------------------|
A|-------------------------|-------------------------|-------------------------|
E|--0--0--0--0--0--0--0--1-|--0--0--0--0--0--0--0--1-|--0--0--0--0--0--0--0--1-|

G|-------------------------|-------------------------|-------------------------|
D|-------------------------|-------------------------|-------------------------|
A|-------------------------|-------------------------|-------------------------|
E|--0--0--0--0--0--0--0--1-|--0--0--0--0--0--0--0--1-|--0--0--0--0--0--0--0--1-|

(repeat 4 times and fade)
G|-------------------------|-------------------------|-------------------------|
D|-------------------------|-------------------------|-------------------------|
A|-------------------------|-------------------------|-------------------------|
E|--0--0--0--0--0--0--0--0-|--0--0--0--0--0--0--0--0-|--0--0--0--0--0--0--0--0-|

2.SAD BUT TRUE

F:------------------------------------|-------------------------------------|
C:------------------------------------|-------------------------------------|
G:--0----------0--0--0--1----------1--|--0-----------0--0--0--1-------------|
D:------------------------------------|-------------------------------------|

F:-----------------------------------------|-------------------------|------|
C:---------------------------------8--5----|-------------------------|------|
G:--0----------0--0--0--1---------------8--|--0----------0--0--0--1--|-Rest-|
D:-----------------------------------------|-------------------------|------|
               Riff 1.                    (x3) Bass Fill 1.
F:-----------|-------------------------------|-----------------------------|
C:-----------|*-----------------------------*|--------------------~~~~~~~--|
G:-Drum-Fill-|---------------5p0--1p0--------|--------------5-0-5-5--------|
D:-----------|*--0-----0--0------------3p0--*|--0-----0--0-----------------|

F:--------------|----------------------|-------------|---------------|
C:--------------|----------------------|-------------|---------------|
G:-Riff-1-(x3)--|---------------rest---|--Drum-Fill--|--Riff-1-(x2)--|
D:--------------|--0-----0--0----------|-------------|---------------|

   Bass Riff 2. (Verse)                              (x4)
F:--------------------------------------------------------|
C:*------------------------------------------------------*|
G:------------5-------------------------------------------|
D:*-0--0--0-0----0--0--R--0-0--0--0--0--6--0--0--R--0-0--*|

   Bass Riff 3. (Chorus)
F:---------------------------------------------------------------------------|
C:*--------------------------------------------------------------------------|
G:------------5--------------------------5-----------------------------------|
D:*-0--0--1-1----1--0--0--0-0--0--0--1-1----1--5--5--5-5-5--5-5-5-4-3--5--3--|

                                  (x2)
F:------------------------------------|-------------|--------------|
C:-----------------------------------*|-------------|--------------|
G:--------------3-3-3-3-------2-3-5---|-Riff-1-(x3)-|-Bass-Fill-1--|
D:3--3-3--3--3-----------0--X--------*|-------------|--------------|

                                                 *2nd Verse
F:---------|---------------------|-------------|---------------------|
C:---------|---------------------|-------------|---------------------|
G:-Riff-1--|---------------Rest--|--Drum-Fill--|--Bass-Riff-2.-(x4)--|
D:---------|--0-----0--0---------|-------------|---------------------|

   *2nd Chorus                            Bass Fill 2.
F:---------------------|----------------|----------------------------|
C:---------------------|----------------|----------------------------|
G:--Bass-Riff-3.-(x2)--|--Riff-1.-(x2)--|------------------0h1p0-----|
D:---------------------|----------------|--0-----0--0--0-3-------3---|

                                         (x4)
F:-------------------------------------------|--------------|
C:-------------------------------------------|--------------|
G:--0---------0-----0--1------------1--1--1--|--Rest,-Drums-|
D:---------------3---------------------------|--------------|

  Gtr. Solo 1
F:----------------|---------------------------|----------|---------|
C:----------------|---------------------------|----------|---------|
G:--Riff-1.-(x3)--|--------------5-0----------|--Riff-1--|-Fill-2--|
D:----------------|--0-----0--0------0-0-3-5--|----------|---------|

                           (x4)  *3rd Chorus     Gtr Solo 2
F:-----------------------------|---------------|----------|----------|
C:-----------------------------|---------------|----------|----------|
G:--0--0--1-1----1--0--0--0-0--|--Riff-3-(x2)--|--Riff-1--|--Fill-2--|
D:------------3----------------|---------------|----------|----------|

                                                            *3rd Verse
F:----------|---------|---------------------|-------------|---------------|
C:----------|---------|---------------------|-------------|---------------|
G:--Riff-1--|-Fill-2--|---------------Rest--|--Drum-Fill--|--Riff-2-(x4)--|
D:----------|---------|--0-----0--0---------|-------------|---------------|

    *4th Chorus                         (x2)
F:---------------|--------------------------|--------------------------|
C:---------------|--------------------------|--------------------------|
G:--Riff-3-(x2)--|--------------------------|--------------------------|
D:---------------|--0--0--0--0--0--0--0--0--|--0--0--12\---0--0--0--0--|

F:------------------------|--------------|-------------------------||
C:------------------------|--------------|-------------------------||
G:------------------------|--Gtr,-Drums--|------------Rest.--------||
D:--0--0--0--0--0---Rest--|--------------|--0----------------------||
                                          
             accent                      accent

3.HOLIER THAN THOU

Play a load of times until bass kicks in
Intro    x23
 G|------------------------|
 D|.----------------------.|
 A|.--7-------------------.|
 E|---0-0--0-0-0--0-0-0--0-|
          - 3 -  - 3 -





Intro2
G|-------------------------|-------------------------|-------------|
D|-------------------------|-------------------------|-------------|
A|-----0--1-----0--1-------|-----0--1-----0--1-------|-------0--1--|
E|---0-------3--------3--0-|-----------3--------3--2-|------------3|


G|---------------------------------------|----------------------|
D|.--------------------------------------|---------------------.|
A|.------0--1------0--1-------0--1-------|--0--1---------------.|
E|-------------3--------3-0---------3----|--------3-2-----------|


G|-------------------------|---------------------------|
D|-------------------------|---------------------------|
A|-----0--1-----0--1-------|-------0--1-----0--1-------|
E|--0--------3--------3--0-|-------------3--------3--2-|


 Verse 1 and 2 repeat as many times as needed
G|--------------------------|-------------------------------|
D|.-------------------------|------------------------------.|
A|.-0-1----0-1--------------|------0-1---0-1---------------.|
E|------3------3-3-3-3-3-3-3|----------3-----0-0-0-0-0-0-0--|

After playing this play intro 2 again then repeat what you just played including intro 2 again

G|------------------------|-------------------------|---------------|
D|.-----------------------|-------------------------|--------------.|
A|.-----------------------|-------------------------|--------------.|
E|----0--0--0--0--0--0--0-|--0--0--0--0--0--0--0--0-|-0--0--0--0--0-|

|------------------------------------|
|------------------------------------|
|----------------------------0-1-----|
|-0--0-0-0-0-3--0--0-0-0-0-3---------|
       - 3 -         - 3 -
G|--------------------------------|------------------------------|
D|.-------------------------------|-----------------------------.|
A|.--7--------------------------7-|-----------------------------.|
E|---0--0--0--0--0--0--0--0--0--0-|-0--0--0--0--0--0--0--0—0-7-7-|

|-------------------|
|.------------------|
|.-0-1----0-1-------|
|------3------3-0---|

 play 3 times
G|------------------------|
D|.----------------------.|
A|.--7-------------------.|
E|---0-0--0-0-0--0-0-0--0-|
          - 3 -  - 3 -

4.THE UNFORGIVEN

Intro
|------------------------------|------------|---------------|------------|------------------|
|------------8 bars of guitar--|------------|---------------|------------|------------------|
|------------------------------|-0---2-3----|-----------0h2-|-0--0-2-3---|-----------0h2-0h2|
|------------------------------|------------|-3---3\0-------|------------|-3----3\0-0-------|

|------------|-------------|
|------------|-------------|
|-0----------|0------------|
|------------|-------------|

Bass Fig. 1

1st And 2nd Verses

|--------------------|-------------------|-----------------|------------------------|
|--------------------|---------7-7-7-7-7-|-----------------|-----------------7-7----|
|-0-0---3--7-7-7-7-5-|-5--5--5-0-0-0-0-0-|-0-0-3--7-7-7-7-5|-5--5-5-5--0--0--0-0-0--|
|------------0-0-0---|-------------------|----------0-0-0--|----------------------3-|


|--------------------|-------------------|-----------------|-------------|
|--------------------|---------7-7-7-7-7-|-----------------|-------------|
|-0-0---3--7-7-7-7-5-|-5--5--5-0-0-0-0-0-|-0-0-3--7-7-7-7-5|--5--5--5---0|
|------------0-0-0---|-------------------|--------0-0-0----|-------------|

P.M--------------------------|                         P.M--------------------------|

|----------------------------|-------------------------|----------------------------|
|---------9p0---7p0---5p0----|-------------------------|---------9p0---7p0---5p0----|
|--0---0-0---0-0---0-0---0-0-|---3-----3h5-3-----------|--0---0-0---0-0---0-0---0-0-|
|----------------------------|--------------5-3----3-3-|----------------------------|


|-------------------------|------------|
|-------------------------|------------|
|---3-----3h5-3-----------|--------7---|
|--------------5-3----3-3-|--0---------|

Chorus

Bass Fig. 2

|--------------------|---------------------|----------------------|----------------------|
|--------------------|----5----------------|----------------------|----5-----------------|
|---0------2--3------|-----------------0h2-|-0------2--3----3-----|-------------0h2--0h2-|
|--------------------|-3-----3\0-----------|----------------------|-3-----3\0------------|

|--------------------|---------------------|----------------------|----------------------|
|--------------------|----5----------------|----------------------|----5-----------------|
|-0--------2--3------|-----------------0h2-|-0---0--2--3---3------|------------------0h2-|
|--------------------|-3-----3\0-----------|----------------------|-3-----3\0------------|

|--------------------|---------------------|
|--------------------|---------------------|
|-0------------------|-0-------------------|
|--------------------|---------------------|

Interlude

|-------|-------|-------|-------|-------|-------|----------------------|
|-------|-------|-------|-------|-------|-------|----------/7--777777/-|
|---0---|-0-----|-0-----|-0-----|-0-----|-0-----|-0--------------------|
|-------|-------|-------|-------|-------|-------|----------------------|

Guitar Solo

|--------------------|-------------------|-----------------|------------------------|
|--------------------|---------7-7-7-7-7-|-----------------|------------------------|
|-0-0---3--7-7-7-7-5-|-5--5--5-0-0-0-0-0-|-0-0-3--7-7-7-7-5|-5--5-5-5--0--0--0-0-0--|
|------------0-0-0---|-------------------|--------0-0-0-0--|----------------------3-|

|--------------------|----------------------|--------------------|----------------|
|--------------------|----------------------|--------------------|----------------|
|-0-0---3--7-7-7-7-5-|-5-5-5-5--0-0---0-0---|-0-0---3--7-7-7-7-5-|--5--5--5---0---|
|------------0-0-0---|--------------3-----3-|------------0-0-0---|----------------|

P.M---------------------------|

|-----------------------------|--------------------|----------------5-----------|
|---------9p0---7p0---5p0-----|--------------------|-------------5-7-7-5--------|
|--0---0-0---0-0---0-0---0-0--|---3-----3h5-3------|-0--0-0-0-3-7-------7-5-0-2-|
|-----------------------------|--------------5-3---|----------------------------|



Bass Fig. 2 X1

Coda

|-------------------|----------------------|----------------5-----|--------------------|
|-------------------|------5---------------|----------------------|--------------------|
|--0---0-2-3--------|-------------2----0h2-|-0---0-2-3--------3-5-|------------0h2-0h2-|
|-------------------|-3-----3\0-----3------|----------------------|-3-----3\0----------|

Outro

|---------------------------|-------------------------|-------------------|----------------------|
|---------------------------|------5------------------|-------------------|------5---------------|
|----0--0-0--2-3----3---3h5-|----------------0h2--0h2-|-0---0-2-3-----3h5-|----------------0-0h2-|
|---------------------------|-3------3-3\0------------|-------------------|-3--3----3\0--0-------|

|---------------------|--------------------------|----------------|---------------------|
|-------------------02|-5-5555-------------------|--------------02|-5-5--55-752--2/99-9-|
|----0---0--2--3------|------------------0h2-0h2-|-0-0-0-0-2-3--3-|---------------------|
|---------------------|-------3-2-2-2-2-2--------|----------------|---------------------|

|----------------------------|-------------------------|-------------------|------------------------|
|----7--7-7-5----------------|-------5-----------------|----7-7------------|-----5-5-5-2----2-------|
|------------7-5-3--3-3-3--3-|------------------0h20h2-|-0------2-3---3--5-|------------------2-0h2-|
|----------------------------|-3-3-3---3-2-0-0-0-------|-------------------|-3-----------0-0--------|

|---------------------|------------------------|----------------------|-------------------------|
|---------------------|-5-----5-5-4-2----------|---7-7-5----------0h2-|-5----5-7-5--------------|
|---0-0-0-2-3---3-3h5-|----------------0h2-0h2-|-0------7-5-3---3-----|------------7---7-5-0h2--|
|---------------------|---3-3------------------|----------------------|-------------------------|

5.WHEREVER I MAY ROAM

intro (sitar)                                                       
G--------------|----------|
D--4:----------|----------|
A--4:----------|----------|
E--------------|----------|
                                                                    
                                                                        
G---------------------------|-------------|
D---------------------------|-------------|
A---------------------------|---7---------|
E-----------------/12\------|---0---------|
                                                                        
                                                                        
G------------|----------------------------|
D------------|----------------------------|
A------------|----------------------------|
E------------|-----(0)--------------------|
                                                                        
                                                                        
G----------------------------|-------------------|
D----------------------------|-------------------|
A----------7-----------------|-------------------|
E----------0-----------------|--------0----------|
                                                                        
                                                                        
G----------------|----------------|-----------------------|
D----------------|----------------|--2:-------------------|
A----------------|----------------|--4:-------------------|
E---0------------|----0-----------|------------(0)--------|
                                                                        
                                                           
G---------------------|
D---------------------|
A---------------------|
E------5--6--7--8-----|


  bass figure 1
G-------------------------------|----------------------------|
D-------------------------------|----------------------------|
A-------7-----------------------|----------------------------|
E-------0-0--0--0--0--0--0--0---|--0--0--0--0--0--0--1--1----|

                                                              
G-------------------------|--------------------------|
D-------------------------|--------------------------|
A-------------------------|--------------------------|
E-0--0--0--0--0--0--0--0--|--5--5--6--6--7--7--8--8--|
                                                              
                                                              
G--------------------------|--------------------------|
D--------------------------|--------------------------|
A--7-----------------------|--------------------------|
E--0--0--0--0--0--0--0--0--|--0--0--0--0--3--5--1--1--|
                                                              
                                         end bass fig 1       
G--------------------------|--------------------------|
D--------------------------|--------------------------|
A--------------------------|--------------------------|
E--0--0--0--0--0--1--0--0--|--5--5--6--6--7--7--8--8--|
                                                              

 riff 1                                                
G-----------------------------|--------------------------|
D-----------------------------|--------------------------|
A--5--6--7--8- ---7-----------|--------------------------|
E--------------0--0--0--0--0--|--0--0--0--0--0--0--1--1--|
                                                              
                                                              
G------------------------|--------------------------|
D------------------------|--------------------------|
A------------------------|--------------------------|
E--0--0---0--0--0--0--0--|--5--5--6--6--7--7--8--8--|
                                                                        
                                                                       

 bass fill 1 ---|                      
G------------------|
D------------------|
A--------5---------|
E------------------|
 
                                                                      
riff 2    let ring                      let ring
G---------------------------------|--------------------------|
D---------------------------------|--------------------------|
A-----------------7-----(7)\------|--------------7-----(7)\--|
E--------0---------------------0--|--0--0--------------------|
                                                               
                                                               
G-------------|------------------------|
D-------------|------------------------|
A-------------|------------------------|
E--1--1----0--|--1--0--1---1--1h3---1--|
                                                                        

  bass figure 2            let ring                          
G--------------------|---------------------------|
D--------------------|---------------------------|
A--------------------|----------------7----(7)\--|
E--0--0--0--0--0--0--|--0---0--0-----------------|
                                                                        
                       end bass fig 2                       
G---------------------|------------------|
D---------------------|------------------|
A---------------------|------------------|
E--1---1--1--1--1--1--|--1--0--1--1--8\--|
                                                                        
 
 1st, 2nd verses           
G-----------------|-----------------|--------------------|
D-----------------|-----------------|--------------------|
A-----------------|--------------0--|--1--1--1--1--1--1--|
E--0--0--0--0--0--|--0--0--0--3-----|--------------------|
                                                                        
                                                                      
G-----------|-------------------------|-------------------|
D-----------|-------------------------|-------------------|
A--1--1--1--|--0---0---0---0----0--0--|--0--0---0---0--0--|
E-----------|-------------------------|-------------------|
                                                                        
                                                                        
G-----------------------|---------------------|
D-----------------------|---------------------|
A--1----1--1--1---1--1--|--1--1----1----------|
E-----------------------|--------------x---x--|

                                                                        
G----------------------|--------------------|
D----------------------|--------------------|
A----------------------|-----------------0--|
E--0----0----0--0---0--|--0---0---0---3-----|
                                                                       
                                                                        
G-----------------------|-------------------|---------------------|
D-----------------------|-------------------|---------------------|
A--1---1--1--1----1--1--|--1--1---1---1--1--|---------------------|
E-----------------------|-------------------|--3---3--3--3--3--3--|
                                                                        
                                                                        
G--------------------|-----------------------|
D--------------------|-----------------------|
A--------------------|--1--1--1--1--1--1--1--|
E--3---3---3---3--3--|-----------------------|
                                                                        
                                                                        
G--------------|-----------------|
D--------------|-----------------|
A--1--1--1--1--|--1---1---2---3--|
E--------------|-----------------|
                                                                        
  pm---------------|                                      
G------------------------|------------------------|
D------------------------|------------------------|
A--5--6--7--7--7--8--7\--|------------------------|
E------------------------|--0---0--0--3--5--1--1--|
                                                                        
                                                                       
G------------------------|--------------------------|
D------------------------|--------------------------|
A------------------------|--------------------------|
E--0---0--0--0--1--0--0--|--5--5--6--6--7--7--8--9--|
                                                                        

 bass fig 3          
G--------------------------|--------------------------|
D--------------------------|--------------------------|
A--------------------------|--------------------------|
E--1--1--1--1--1--1--1--1--|--1--1--1--1--1--3--1--1--|
                                                                       
                                                                       
G--------------------------|--------------------------|
D--------------------------|--------------------------|
A--------------------------|--------------------------|
E--0--0--0--0--0--0--0--0--|--0--0--0--0--0--0--3--5--|
                                                                        
                                        end bass fig 3                                         
G--------------------------|--------------------------|
D--------------------------|--------------------------|
A--------------------------|--------------------------|
E--6--6--6--6--6--6--6--6--|--6--6--6--6--6--6--6--6--|
                                                                        

  bass fig 4                     end bass fig 4                                       
G--------------------|-------------------------|
D--------------------|-------------------------|
A--------------------|---------------3---------|
E--5--5--3--5--5--3--|--5--5--3---5-----5---0--|
                                                                        
  riff 3       
G---------------------|-----------------------|
D---------------------|-----------------------|
A---------------------|-----------------------|
E--3--3--3--3---3--3--|--0--3--0--3--3--3--3--|
                                                                        
                                                                      
 interlude                      
G--------------------------|-----------------------------|
D--------------------------|-----------------------------|
A--------------------------|-----------------------3-----|
E--0--0--0--0--0--0--0--0--|--0--0--0--0--1--1--0-----1--|
                                                                        
                                                                        
G--------------------------|
D--------------------------|
A--------------------------|
E--0--0--0--0--0--0--0--0--|
                                                                        
                 end inter.                                  
G--------------------------|
D-----------------------1--|
A--------------------------|
E--0--0--0--0---2---3------|
                                                                        
 riff 4                                                             
G--------------------------|--------------------------|
D--------------------------|--------------------------|
A--------------------------|--------------------------|
E--0--0--0--0--0--0--0--0--|--0--0--0--0--0--1--3--1--|
                                                                        
                                                                        
G--------------------------|------------------------|
D--------------------------|---------------------1--|
A--------------------------|--7--7------------------|
E--0--0--0--0--0--0--0--0--|--0--0--0--0--2--3------|
                                                                        
                                                                      
  riff 5                                                
G-----|---------------------|---------------------|
D-----|---------------------|---------------------|
A--5--|------------7--------|------------7-----0--|
E-----|--0---0--0-----0--0--|--0---0--0-----3-----|
                                                                        
                                                                        
G-----------------|--------------------|-------------------|
D-----------------|--------------------|-------------------|
A--1--1--1--1--0--|--1--0--1--1--1--1--|-------------------|
E-----------------|--------------------|--3---3---3--3--0--|
                                                                        
                                                                        
G------------------|----------------------|-------------------|
D------------------|----------------------|-------------------|
A---------------0--|--1--1--1--1---1---0--|--1--0--1--1--1p0--|
E--3---3-----3-----|----------------------|-------------------|
                                                                        
             pm----------|                                                            
G---------------------------------|
D---------------------------------|
A--1--1--2--5--6--7--7--7--8--7\--|
E---------------------------------|
                                                                        
                                                  
G--------------------------|--------------------------|
D--------------------------|--------------------------|
A--------------------------|--------------------------|
E--0-----0--0--3--5--1--1--|--0-----0--0--3--5--1--1--|
                                                                        
                                                                      
G--------------------------|--------------------------|
D--------------------------|--------------------------|
A--------------------------|--------------------------|
E--0--0--0--0--0--1--0--0--|--5--5--6--6--7--7--8--8--|
                                                                        
 
       bass fill 2                             
G-----|---------------
D-----|---------------
A--5--|---------------
E-----|--3---3--0--3--
                                                                        
                                                                        
G---|----------------|
D---|----------------|
A---|----------------|
E3--|--3----3--2--1--|
                                                                        
  pre-chorus                                                          
G--------------------------|----------------------------|
D--------------------------|----------------------------|
A--------------------------|----------------------------|
E--1--1--1--1--1--1--1--1--|--1----1--1--1--1--1--3--1--|
                                                                        
                                                                        
G--------------------------|-----------------------|
D--------------------------|-----------------------|
A--------------------------|---------------------0-|
E--0--0--0--0--0--0--0--0--|--0--0--0---0--1--3----|


G-------------------------|------|
D-------------------------|------|
A-1--1--1--1--1--1--3--1--|------|
E-------------------------|------|


chorus
G----------------------|------------------------|
D----------------------|------------------------|
A----------------------|---------------3--------|
E--5---5--3--5---5--3--|--5---5--3--5-----5--0--|


G----------------|--------------------------|----------------|
D----------------|--------------------------|----------------|
A----------------|--------------------------|--3---0--3---0--|
E--3---0--3---0--|--0--3--3--0--0--3--0--0--|----------------|


G---------------|--------------------------|--------------------|
D---------------|--------------------------|--------------------|
A--3--3---5--3--|--2--2--2--2--2--2--2--2--|-1--1---1-----------|
E---------------|--------------------------|-----------0--3--1--|


  outro
G--------------------------|--------------------------|
D--------------------------|--------------------------|
A--------------------------|--------------------------|
E--0--0--0--0--0--1--0--0--|--0--0--0--0--3--0--1--1--|


G--------------------------|--------------------------|
D--------------------------|--------------------------|
A--------------------------|--------------------------|
E--0--0--0--0--0--1--0--0--|--5--5--6--6--7--7--8--8--|


bass fig 5
G-----------------------|--------------------------|
D-----------------------|--------------------------|
A--5--6--7--7-----------|--------------------------|
E--------------0--1--0--|--0--0--0--0--3--5--1--1--|


G--------------------------|--------------------------|
D--------------------------|--------------------------|
A--------------------------|--------------------------|
E--0--0--0--0--0--1--0--0--|--5--5--6--6--7--7--8--8--|

6.DON'T TREAD ON ME

||-------------------|-------|-------|-------------------|-------------
||-------------------|---%---|---%---|-------------------|-------------
||-------------------|-------|-------|-----------2--2----|-----------5--5
||-0-0-0-----0--0----|-------|-------|-0-0-0-------------|-3-3-3-------

(6/8)          (12/8)
|----------|   |--------------------|-------------------|-------------------|
|----------|   |--------------------|-------------------|-------------------|
|-3-3-3----|   |-7------------------|-------------------|-------------------|
|----------|   |-----0-------0--0---|-0--0------0--0----|-0-0-0-----0--0----|

|-------------------|-------|-------|-------|-------------------------|
|-------------------|---%---|---%---|---%---|-------------------------|
|-------------------|-------|-------|-------|-------------------------|
|-0-0-0-----0--0----|-------|-------|-------|-0-0-0----1-0---1-1/3--1-|

Bass fig.1                                         (end Bass fig.1)
|---------------------------------|--------------------------------|
|---------------------------------|--------------------------------|
|-------1/2--------------1/2------|-------1/2----------------------|
|-0-0-0-------1--0-----0--------1-|-0-0-0-------1--0----1--1/3---1-|


Play Bass fig.1 (3 times)


1st, 2nd verses
Bass fig.2 
||-------------------|------------------|----------------------|
||o------------------|------------------|----------------------|
||o------------------|------------------|----------------------|
||--0-0-0-----0--0---|-0-0-0-----1--1---|-2-2-2--1-2-3--3--2-3-|

         (end Bass fig.2)
|-------------------------||
|------------------------o||
|--------------------5---o|| 
|-4-4-4--3-4-5---6/7---7--||

"Say don't tread on me...|
|--------------------------------------|-------------------------------
|--------------------------------------|-------------------------------
|--------------------------------------|-------------------------------
|-0--0-0-0--1--0--0--0--0-0-0--3--0--0-|-0--0-0-0--5--0--0--6-0-5-0-3-0-||

Bass fig.3
|------------------------|-------------------------|-------------------
|------------------------|-------------------------|-------------------
|------------------------|-------------------------|-5---5---5---5--5-5-5---|
|-0--0-1-0-0-0---0-0-0-0-|-0---0-1-0-0-0--0-2-3---3|-------5---5----------5-|

           (end bass fig.3)
|-------------------------|------------------------|-------------------
|-------------------------|------------------------|-------------------
|-------------------------|------------------------|-------------------
|-3---3-0-3--3/4---5---6\-|-0--0-1-0-0-0---0-0-0-0-|-0--0-1-0-0-0-0-2-3--3--|

|-------------------------|---------------------|----------------------
|-------------------------|---------------------|----------------------
|-5--5---5---5------5-5---|---------------------|---------------------------|
|------5---5------5-----5-|-3---3-0-3-3-3--3--3-|-0-0-0-1-0-0-0-0-0-0-3-0-0-|
 ______________________
|
| 1. w/ Bass fig.1 (2 times)
|
 ______________________
|2.
|-----------------------------|--------------||
|-----------------------------|--------------||
|-------------------1---------|--------------||
|-3--3-3-3--3--3--3-----3--1--|--------10\---||

Guitar solo

Play Bass fig.1 (4 times)

|----------------------|-----------------|------------------|
|----------------------|-----------------|------------------|
|----------------------|-----------------|------------------|
|-0-0-0--0-0-0---0-----|---------0-0-0---|-1---1------------|

|-------------------|----------------------||
|-------------------|----------------------||
|-------------------|------------------5---||
|-2-2-2-----3--3----|-4-4-4-----5--6/7---7-||

||--------------------------------------|------------------------------
||--------------------------------------|------------------------------
||--------------------------------------|------------------------------
||-0--0-0-0--1--0--0--0--0-0-0--3--0--1-|-0--0-0-0--1-0--0--0--0-0-0--3-0-0-|

|-----------------------------------|----------------------------------
|-----------------------------------|----------------------------------
|-----------------------------------|----------------------------------
|-0--0-0-0--5--0--0--6-0--0--5-0--0-|-0--0-0-0--1--0--0--0--0-0-0--3--0--0-|

|--------------------------------------||
|--------------------------------------||
|--------------------------------------||
|-0--0-0-0--1--0--0--0--0-0-0--3--0--0-||


Play Bass fig.3 and repeat for outro

7.THROUGH THE NEVER

Intro (guitar)
    (12)
||---------|----------||
||----r----|----------||
||---------|----------||
||---------|--------3-||

/--Bass fig.1--------\
||------------------|-----------------|---------|---------------|
||o-----------------|-----------------|----%----|---------------|
||o-----4-------3---|-----4-------3---|---------|-----4---------|
||--0-2---2-0-2---2-|-0-2---2-0-2---2-|---------|-0-2---2-0-2-3-|

|-----------------|-----------------|-------|
|-----------------|-----------------|---%---|
|-----4-------3---|-----4-------3---|-------|
|-0-2---2-0-2---2-|-0-2---2-0-2---2-|-------|
 ______________
|1.
|-------------||
|------------o||
|------------o||
|-0-0-------3-||
 ______________
|2.
|--------|--------||
|--------|----r---||
|--------|--------||
|-0-0----|--------||


(Half time feel)
1st, 2nd verses
||-----------------|-----------------|----------------|-----------------|
||-----------------|-----------------|----------------|-------------0-2-|
||-----------------|-----------------|----------------|-0-1-0-----------|
||-0---0-0-0-0-0-0-|-0-0-0-0-0-0-0-0-|-0-5-----0-6----|-------3-1-0-----|

|-----------------|-----------------|-----------------|-----------------|
|-3-2-------------|-----------------|-----------------|-------------0-2-|
|-----------------|-----------------|-----------------|-0-1-0-----------|
|-----0-0-0-0-0-0-|-0-0-0-0-0-0-0-0-|-0-5------0-6----|-------3-1-0-----|

|-----------------|-----------------|-----------------|-----------------|
|-3-2-------------|-----------------|-----------------|-----------------|
|-----------------|---------7-5-----|-----------------|-----------5-7---|
|-----0-0-0-0-0-0-|-0-0-5-7-----7-5-|-0-0-0-0-0-0-0-0-|-0-0-0-5-7-----0-|

|-----------------|-----------------|-----------------|-----------------|
|-----------------|-----------------|-----------------|-----------------|
|-----------------|-----------5-7---|-----------------|-----------------|
|-0-0-0-0-0-0-0-0-|-0-0-0-5-7-----0-|-0-5------0-6----|-0-0-0-0-0-0-0-0-|

|-----------------|-----------------|-----------------|-----------------|
|-----------------|-----------------|--------%--------|-----------------|
|---------7-5-----|-----------------|-----------------|-----------------|
|-0-0-0-0-----7-5-|-3-3-3-3-3-3-3-3-|-----------------|-2-2-2-2-2-2-2-2-|

|-----------------|-----------------|-----------------|
|-----------------|-----------------|-------------0-2-|
|-----------------|-----------------|-0-1-0-----------|
|-2-2-2-2-2-2-2-2-|-0-5------0-6----|-------3-1-0-----|

Play Bass. fig.1 (4 times)

Chorus
  Bass fig.2                             (end bass fig.2)---\
||-----------------|-------|-------|-------|-----------------|--------------|
||-----------------|---%---|---%---|---%---|-----------------|--------------|
||-----------------|-------|-------|-------|-----------------|--------------|
||-0-2-2-2-0-2-2-2-|-------|-------|-------|-0-2-----0-2-----|-0-2-----0-2--|
    H       H

|----------||
|----------||
|----------||
|-----3----||

||------------------|-----------------|---------|
||o-----------------|-----------------|----%----|
||o-----4-------3---|-----4-------3---|---------|
||--0-2---2-0-2---2-|-0-2---2-0-2---2-|---------|
 _______________
|1.
|---------------||
|--------------o||
|-----4--------o||
|-0-2---2-0-2-3-||
 _______________
|2.
|------------|-----------------||
|------------|-------------0-2-||
|------------|-0-1-0-----------||
|-0-0--------|-------3-1-0-----||

|--------------|-2-3-2-0---------|--------------||
|--------------|---------3-2-0---|--------------||
|--------------|-----------------|--------------||
|-0-2-----0-2--|-----------------|-0-1--2--3--4-||


Guitar solo

||------------------|-------|-------|-----------------|
||o-0-2-2-2-0-2-2-2-|---%---|---%---|-0-2-2-2-0-2-3---|
||o-----------------|-------|-------|-----------------|
||------------------|-------|-------|-----------------|

|-----------------|-------|-------|
|-----------------|---%---|---%---|
|-0-2-2-2-0-2-2-2-|-------|-------|
|-----------------|-------|-------|
 ____________________
|1.
|------------------||
|-----------------o||
|-0-0---0---3---3-o||
|------------------||
 ___________________
|2.
|-----------------||
|-----------------||
|-----------3---3-||
|-0-0---0---------||

|-----------------|-------|-------|-----------------------||
|-----------------|---%---|---%---|-----------------------||
|-----------------|-------|-------|/12-12-12-12-12-12-3---||
|-3-5-5-5-3-5-5-5-|-------|-------|-----------------------||

|-----------------|-------|-------|-------|-------------|-------------||
|-----------------|---%---|---%---|---%---|-------------|-------------||
|-----------------|-------|-------|-------|-------------|-------------||
|-0-2-2-2-0-2-2-2-|-------|-------|-------|-0-2----0-2--|-0-2----0-2--||

|-------|-------|-------|--------|
|---r---|---r---|-19\---|-(7)\---|
|-------|-------|-------|--------|
|-------|-------|-------|--------|

  Bass fig.3-------------------------\ (play 16 times)
||------------------|-----------------||
||o-----------------|----------------o||
||o-----------------|-1--------------o||
||--0---0-0-3---0-0-|-----3---3---3---||

|----------|----------|----------|-----------||
|----------|----------|----------|-----------||
|----------|----------|----------|-----------||
|-0--------|-(0)------|-(0)------|-(0)-----3-||


Play bass fig.1 (4 times)

||-----------------|-------|--------------|-------|--------||
||-----------------|---%---|--------------|---%---|--------||
||-----------------|-------|--------------|-------|--------||
||-0-2-2-2-0-2-2-2-|-------|-0-2-----0-2--|-------|------3-||

||-----------------|-----------------|-------|-----------||
||-----------------|-----------------|---%---|-----------||
||-----4-------3---|-----4-------3---|-------|-----------||
||-0-2---2-0-2---2-|-0-2---2-0-2---2-|-------|-3-3-------||

8.NOTHING ELSE MATTERS

Wait through 24 measures of guitar intro
  Verse 1 
G|----------------|--------------------|----------------|--------------------|
D|----------------|--------------------|----------------|--------------------|
A|---------7------|--5-----------------|---------7------|--5-----------------|
E|--0-------------|----------8----3--2-|--0-------------|----------8----3--2-|

G|----------------|--------------------|--------------|------------|----------------------------||
D|----------------|--------------------|--------------|------------|----------------------------||
A|---------7------|--5-----------------|--------2-----|--------7---|--------------7--(7)\-------||
E|--0-------------|----------8----3--2-|--3-----------|--0---------|--0--0--0--0-----------3--2-||

 Verse 2
G|----------------|--------------------|----------------|--------------------|
D|----------------|--------------------|----------------|--------------------|
A|---------7------|--5-----------------|---------7------|--5-----------------|
E|--0-------------|----------8----3--2-|--0-------------|----------8----3--2-|

G|----------------|--------------------|--------------|------------|----------------------------||
D|----------------|--------------------|--------------|------------|----------------------------||
A|---------7------|--5-----------------|--------2-----|--------7---|--------------7--(7)\-------||
E|--0-------------|----------8----3--2-|--3-----------|--0---------|--0--0--0--0-----------3--2-||


Verse 3
G|----------------|--------------------|----------------|--------------------|
D|----------------|--------------------|----------------|--------------------|
A|---------7------|--5-----------------|---------7------|--5-----------------|
E|--0-------------|----------8----3--2-|--0-------------|----------8----3--2-|

G|----------------|--------------------|--------------|------------|------------||
D|----------------|--------------------|--------------|------------|------------||
A|---------7------|--5-----------------|--------2-----|--------7---|--3----0----||
E|--0-------------|----------8----3--2-|--3-----------|--0---------|------------||

Chorus
G|-------------------|------------|-------------------|-------------|
D|-------------------|------------|-------------------|-------------|
A|--5--5--5--5--5--5-|--3-----0---|--5--5--5--5--5--5-|--3-----0----|
E|-------------------|------------|-------------------|-------------|

G|----------|---------|------------------||
D|----------|---------|------------------||
A|--5--5--5-|---------|--7---------------||
E|----------|--0------|--------0----3--2-||

Interlude
G|---------------------------|------------------------|--------------|
D|---------------------------|------------------------|--------------|
A|-----7---7--7-----7---7--7-|-----7---7--7-----7-----|--------------|
E|--0-----------0------------|--0------------0-----7\-|--5------5----|

G|-----------|-------------------|-----------------|------------------|---------------|
D|-----------|-------------------|-----------------|------------------|---------------|
A|-----------|-------------------|--5----5--5--5/7-|-------7--------7-|---------------|
E|--5-----5/-|--8----8--8--7(h)8-|-----------------|--0-------0--0----|--0----0--3--2-|

G|---------------------------|------------------------|--------------|-------------|
D|---------------------------|------------------------|-------7------|-------------|
A|-----7---7--7-----7---7--7-|-----7---7--7-----7-----|------------7-|-------------|
E|--0-----------0------------|--0------------0-----7\-|--5-----------|--5-----5--7-|

G|-------------------|---------------|-------------|-----------------||
D|-------------------|-------7-----7-|-------------|-----------------||
A|-------------------|--5-------5----|-7---------7-|--7--------------||
E|--8----8--8--7(h)8-|---------------|------0------|-------0----3--2-||

Guitar Solo
G|------------|----------------|------------|----------------|------------|
D|------------|----------------|------------|----------------|------------|
A|-------7--7-|--5--5----------|-------7--7-|--5--5----------|-------2----|
E|--0--0------|--------8--3--2-|--0--0------|--------8--3--2-|--3-------0-|

G|------------|------------|-----------|-------------||
D|------------|------------|-----------|-------------||
A|------------|------------|-----------|-------------||
E|--0---------|--(0)-------|-----------|-------------||

9.OF WOLF AND MAN

INTRO! 
G:------------|------------|------------|-
D:------------|------------|------------|-
A:------------|------------|------------|-
E:-0--0--0--0-|-0--0--0--0-|-0--0--0--0-|-


G:------------|------------|-
D:------------|------------|-
A:------------|------------|-
E:-0--0--0--0-|-0--0--0--0-|-


G:-------|-------|-------|-------|-------
D:-------|-------|-------|-------|-------
A:-------|-------|-------|-------|-------
E:---0---|---0---|---0---|---0---|---0---


___________________________________________________
VERSE_1
G:-------------
D:-------------
A:-------------
E:-0-00-0----0-

G:-----------------------------
D:-----------------------------
A:-----------------------------
E:-0----0----0----0----0----0--

G:-------------
D:-------------
A:-------------
E:-0-00-0----0-

G:-------------------
D:-------------------
A:-------------------
E:-0----0----0----0--

G:-----------------------  \
D:-----------------------   \
A:---------------2---1---    \
E:-0--00--1-0--0---0-----
                               X6
G:----------------
D:----------------           /
A:-1--------------          /
E:---0--0--0--0---         /

G:-----------------
D:-----------------
A:-----------------
E:-0---0---0---12\-
______________________________________________________
CHORUS

G:-----------------------------------------------
D:-----------------------------------------------
A:-1--1--1--1--1--1--1--1-----------------2---1--
E:-------------------------0--0--1--0--0----0----

G:-----------------------------------------------
D:-----------------------------------------------
A:-1--1--1--1--1--1--1--1-----------------4---3--
E:-------------------------0--0--1--0--0----0----

G:--------------------------------------------
D:--------------------------------------------
A:-3--3--3--3--3--3--3------------------4---3-
E:---------------------0--2--2--3--2--0---0---


G:--------------------------------------------------
D:--------------------------------------------------
A:-3--3--3--3--3--3--3------------------------------
E:----------------------0--2--22--3--2--2--22--3--2-

G:-----------------
D:-----------------
A:-----------------
E:-0---0---0---12\-
______________________________________________________
Verse_2

G:-----------------------  \
D:-----------------------   \
A:---------------2---1---    \
E:-0--00--1-0--0---0-----
                               X6
G:----------------
D:----------------           /
A:-1--------------          /
E:---0--0--0--0---         /

G:-----------------
D:-----------------
A:-----------------
E:-0---0---0---12\-
_______________________________________________________
Chorus

G:-----------------------------------------------
D:-----------------------------------------------
A:-1--1--1--1--1--1--1--1-----------------2---1--
E:-------------------------0--0--1--0--0----0----

G:-----------------------------------------------
D:-----------------------------------------------
A:-1--1--1--1--1--1--1--1-----------------4---3--
E:-------------------------0--0--1--0--0----0----

G:--------------------------------------------
D:--------------------------------------------
A:-3--3--3--3--3--3--3------------------4---3-
E:---------------------0--2--2--3--2--0---0---


G:--------------------------------------------------
D:--------------------------------------------------
A:-3--3--3--3--3--3--3------------------------------
E:----------------------0--2--22--3--2--2--22--3--2-

G:-----------------
D:-----------------
A:-----------------
E:-0---0---0---12\-
_______________________________________________________
PRE SOLO


G:-----------------------------------------------
D:-----------------------------------------------
A:-----------------------------------------------
E:-2--0--2--0--2--0--2--0--2--0--2--0--2--0--12\-

_______________________________________________________
SOLO

G:-----------------------------------------------------------
D:-----------------------------------------------------------
A:-----------------------------------------------------------
E:-0--00--1-0--0--00--0--00--0--00--0--00--1-0--0--00--0--00-

G:-------------
D:-------------
A:-------------
E:-3--3--1--1--

G:-----------------------------------------------------------
D:-----------------------------------------------------------
A:-----------------------------------------------------------
E:-0--00--1-0--0--00--0--00--0--00--0--00--1-0--0--00--0--00-

G:-------------
D:-------------
A:-------------
E:-3--3--1--1--

G:----------------------|-------- 
D:----------------------|--------
A:---------------2---1--|---4--3-   
E:-0--00--1-0--0---0----|-0--0---

G:-----------------
D:-----------------
A:-----------------
E:-0---0---0---12\-

G:-----------------------\
D:----------------------- \
A:---------------2---1---  \
E:-0--00--1-0--0---0-----
                            X2   
G:----------------
D:----------------         /     
A:-1--------------        /     
E:---0--0--0--0---       /  
_____________________________________________________
Interlude


G:----------------------------------------
D:----------------------------------------
A:----------------------------------------
E:-0--00--0---0---0---0---0---0---0---0---

G:-----------------------
D:-----------------------  X4
A:------------------4--2-  
E:-2--22--3--2--22-------

G:--------------------------
D:--------------------------
A:--------------------------
E:-0--0--0--0--0--0--0--12\-
_______________________________________________________

Chorus

G:-----------------------------------------------
D:-----------------------------------------------
A:-1--1--1--1--1--1--1--1-----------------2---1--
E:-------------------------0--0--1--0--0----0----

G:-----------------------------------------------
D:-----------------------------------------------
A:-1--1--1--1--1--1--1--1-----------------4---3--
E:-------------------------0--0--1--0--0----0----

G:--------------------------------------------
D:--------------------------------------------
A:-3--3--3--3--3--3--3------------------4---3-
E:---------------------0--2--2--3--2--0---0---

G:--------------------------------------------------
D:--------------------------------------------------
A:-3--3--3--3--3--3--3------------------------------
E:----------------------0--2--22--3--2--2--22--3--2-

G:-----------|-------- 
D:-----------|--------
A:----2---1--|---4--3-   
E:--0---0----|-0--0---

G:-----------------
D:-----------------
A:-----------------
E:-0---0---0---12\-

__________________________________________

OUTRO

G:-----------------------\
D:----------------------- \
A:---------------2---1---  \
E:-0--00--1-0--0---0-----
                            X2   
G:----------------
D:----------------         /     
A:-1--------------        /     
E:---0--0--0--0---       /  

G:---------------
D:---------------
A:---------------
E:-0--00--1-0----

G:-----------------
D:-----------------
A:-----------------
E:-0---0---0---12\-

10.THE GOD THAT FAILED

Intro

Gb|-------------------------------|-------------------------------|
Db|-------------------------------|-------------------------------|
Ab|-------------------------------|-------------------------------|
Eb|--3--3--0--0--0--7--7--0--0--0-|--3--3--0--7--0--3--3--0--5--0-|


Gb|-------------------------------|-------------------------------|
Db|-------------------------------|-------------------------------|
Ab|-----------------5--5--7-------|-------------------------------|
Eb|--3--3--0--0--0-----------0--0-|--3--3--0--7--0--3--3--0--5--0-|


Gb|-------------------------------|-------------------------------|
Db|-------------------------------|-------------------------------|
Ab|-------------------------------|-------------------------------|
Eb|--3--3--0--0--0--7--7--0--0--0-|--3--3--0--7--0--3--3--0--5--0-|


Gb|-------------------------------|-------------------------------|
Db|-------------------------------|-------------------------------|
Ab|-----------------5--5--7-------|-------------------------------|
Eb|--3--3--0--0--0-----------0--0-|--3--3--0--7--0--3--3--0--5--0-|


Gb|-------------------------------|-------------------------------|
Db|-------------------------------|-------------------------------|
Ab|-------------------------------|-------------------------------|
Eb|--3--3--0--0--0--7--7--0--0--0-|--3--3--0--7--0--3--3--0--5--0-|


Gb|-------------------------------|----------------------------------|
Db|-------------------------------|----------------------------------|
Ab|-----------------5--5--7-------|----------------------------------|
Eb|--3--3--0--0--0-----------0--0-|--3--3--0--7--0--0--(pause)--5--3-|


Gb|-------------------------------|-------------------------------|
Db|-------------------------------|-------------------------------|
Ab|-------------------------------|-------------------------------|
Eb|--2--0--0--0--0--1--0--0--0--0-|--1--0--0--3--0--1--0--0--0--0-|


Gb|-------------------------------||
Db|-------------------------------||
Ab|-------------------------------||
Eb|--1--0--0--3--0--1--0--0--0--0-||


Verses 1 and 2

Gb|-------------------------------|-------------------------------|
Db|-------------------------------|-------------------------------|
Ab|-------------------------------|-------------------------------|
Eb|--1--0--0--0--0--1--0--0--0--0-|--1--0--0--3--0--1--0--0--0--0-|


Gb|-------------------------------|-------------------------------|
Db|-------------------------------|-------------------------------|
Ab|-------------------------------|-------------------------------|
Eb|--1--0--0--0--0--1--0--0--0--0-|--1--0--0--3--0--0--1--1--1--1-|


Gb|-------------------------------|---------------------------------|
Db|-------------------------------|---------------------------------|
Ab|-------------------------------|---------------------------------|
Eb|--1--0--1--1--1--1--0--1--1--1-|--1--0--1/3--0--3--0--1--1--1--1-|


Gb|-------------------------------|------------------------------------------|
Db|-------------------------------|------------------------------------------|
Ab|-------------------------------|------------------------------------------|
Eb|--1--0--1--1--1--1--0--1--1--1-|--1--0--1/3--0--3--3--0--0--0--0--0--0--0-|


Gb|--------------------------------|-------------------------------||
Db|--------------------------------|-------------------------------||
Ab|--------------------------------|-------------------------------||
Eb|--3--3--0--0--0---7--7--0--0--0-|--3--3--0--7--0--3--3--0--5--0-||


  Chorus
Gb|-------------------------------------|----------------------|
Db|-------------------------------------|----------------------|
Ab|-------------------------------------|----------------------|
Eb|--3--0--0--0--0--0--0--0--0--0--0--0-|--0--0--0--3--3--3--3-|


Gb|-------------------------------------|----------------------|
Db|-------------------------------------|----------------------|
Ab|-------------------------------------|----------------------|
Eb|--7--7--7--7--7--7--7--7--7--7--7--7-|--7--7--7--5--5--5--5-|


Gb|-------------------------------------|----------------------|
Db|-------------------------------------|----------------------|
Ab|-------------------------------------|----------------------|
Eb|--3--0--0--0--0--0--0--0--0--0--0--0-|--0--0--0--3--3--3--3-|


Gb|------------------------------------------------|--------------------------------------------|
Db|------------------------------------------------|--------------------------------------------|
Ab|------------------------------------------------|--------------------------------------------|
Eb|-7--7--7--7--7--7--7--7--7--7--7--7--7--7--7--7-|--7--7--7--7--7--7--7--7--7--7--7--7--5--7\-|

 1.______________________________________________________________________________
Gb|--------------|-------------------------------|-------------------------------|
Db|--------------|-------------------------------|-------------------------------|
Ab|--------------|-------------------------------|-------------------------------|
Eb|--3-----------|--3--3--0--0--0--7--7--0--0--0-|--3--3--0--7--0--3--3--0--5--0-|

_____________________________________________________________
Gb|-------------------------------|-------------------------|
Db|-------------------------------|-------------------------|
Ab|-----------------5--5--7-------|-------------------------|
Eb|--3--3--0--0--0-----------0--0-|--3--3--0--7--0--0--5--3-|


  2._____________
Gb|-------------|-------------------------------------|--------------------------------------||
Db|-------------|-------------------------------------|--------------------------------------||
Ab|-------------|-------------------------------------|--------------------------------------||
Eb|--3----------|--0--0--0--0--0--0--0--0--0--0--0--5-|--7--7--7--7--7--7--7--7\8/7--7--7--5-||


Guitar Solo

Gb|-------------------------------|-------------------------------|
Db|-------------------------------|-------------------------------|
Ab|-------------------------------|-------------------------------|
Eb|--3--3--0--0--0--7--7--0--0--0-|--3--3--0--7--0--3--3--0--5--0-|


Gb|----------------------------------------------|-----------------------------------------------|
Db|--------------------------------------------5-|-----------------------------------------------|
Ab|--------------------------------5--5--7--7----|-----------------------------------------------|
Eb|--3--3--0--0--3--3--5--5--7--7----------------|--7--7--0--7--7--7--7/8\7--5--3--2--3--3--2--0-|


Gb|-----------------------------|----------------------------------|
Db|-----------------------------|----------------------------------|
Ab|-----------------------------|----------------------------------|
Eb|--3--0--0--12\--7--7--0--12\-|--3--3--0--7--0--3--3--0--5--0--0-|


Gb|-------------------------------------|--------------------------------|
Db|-------------------------------------|--------------------------------|
Ab|-------------------------------------|--------------------------------|
Eb|--3--3--3--5--7--5--3--3--3--5--7--5-|--7--7--8--10--8--7--7--7--7--5-|


Gb|-----------------------------|-------------------------------|
Db|-----------------------------|-------------------------------|
Ab|-----------------------------|-------------------------------|
Eb|--3--3--0--12\--7--0--0--12\-|--3--0--0--7--0--3--3--0--5--0-|


Gb|----------------------------------|-----------------------------|
Db|----------------------------------|-----------------------------|
Ab|----------------------------------|-----------------------------|
Eb|--3--3--3--0--3--3--0--3--3--0--3-|--7--7--7--7/8\7--7--7--7--7-|


Gb|----------------------------------------------------------|-------------------------------|
Db|--4(h)5(p)4--------------------4(h)5(p)4------------------|-------------------------------|
Ab|-------------7--5--4\2--------------------7--5--4\2-------|-------------------------------|
Eb|------------------------5--3-------------------------5--3-|--2--0--0--0--0--1--0--0--0--0-|


Gb|------------------------------------|-------------------------------|
Db|------------------------------------|-------------------------------|
Ab|------------------------------------|-------------------------------|
Eb|--1--0--0--3--0--1--0--0--0--0--12\-|--1--0--0--0--0--1--0--0--0--0-|


Gb|-------------------|------------------------------||
Db|-------------------|------------------------------||
Ab|-------------------|------------------------------||
Eb|--1--0--0--3--0--0-|--(0)--3--0--0--0--3--0--0--0-||

11.MY FRIEND OF MISERY

Bass Riff1
|-----10---------10---------10--14---------12---------10------|
|---------12---------12-------------12---------12---------12--|
|--0----------0----------0--------------0----------0----------|
|-------------------------------------------------------------|

|-----9---------9---------9--12---------10---------9------|
|--------10--------10------------10---------10--------10--|
|--0---------0---------0-------------0----------0---------|
|---------------------------------------------------------|

Bass Riff2
|-----10---------10---------10--14---------12---------10------|
|---------12---------12-------------12---------12---------12--|
|--0----------0----------0--------------0----------0----------|
|-------------------------------------------------------------|

|-----9---------9---------9--12---------10---------9----|
|--------10--------10------------10---------10-----------|
|--0---------0---------0-------------0----------0--------|
|--------------------------------------------------------|

Bass Riff3
|-------------------------------------------------------------------|
|-------------------------------------------------------------------|
|------------------------------3------------------------------------|
|--5-5-5-5-5-5-5-5-5-5-5-5-5-5---3-5-5-5-5-5-5-5-5-5-5-5-5-5-5-3-5--|

Bass Riff4
|-----------------|
|-----------------|
|-----------------|
|---5-------5--5--|

Bass Riff5
|--------------------------------------------------------------------|
|--------------------------------------------------------------------|
|------0-2-3-4-------0-0---0-2--2-0-----0-2-3-4-------0-0-1-2--------|
|--2-2---------0-0-0----------------2-2---------0-0-0---------0-0-0--|

Bass Riff6
|-----------------------------------|
|-----------------------------------|
|--------------------------------0--|
|--0-0-0-0-0-0-0-0-0-0-0-0-0-0-0----|

Bass Riff7
|--------------------------------------------------------------------------|
|--------------------------------------------------------------------------|
|--------------------------------------------------------------------------|
|--2-2-----0-1--2-2-----0-3--2-2-----0-1--2-2-----0-3--2-2---2-2-0-1--2-2--|

Bass Riff7 (cont.)
|------------------------------------------------|
|------------------------------------------------|
|--------------------------------------------9--|
|--2-2-2-0-3-3-2-2-2-2-2-2-0-1-2-2-2-2-2-2-0-----|

Bass Riff8
|---------------------------------------------------------------|
|---------------------------------------------------------------|
|----------------------------------------0-2-3-4-----0-0-1-2----|
|--2-2-2-2-2-2-2-2-2-2-2-2-2-2-2-2-2-2-2---------0-----------0--|

12.THE STRUGGLE WITHIN

Don't Know
comments
We did not receive enough feedback on this tab! Please rate:
print report bad tab
1 2 3 4 5
3 comments total.
0 reply
bass_fredrik wrote on November 20 2005, 02:04 pm

Why don't you have "the struggle within" you piece of crap.Who the f*** gave this shit 5 stars?!?CRAZY....dude, weak

0 reply
saturns_bassman wrote on February 26 2006, 09:02 am

SAD BUT TRUE IS STILL WRONG YOU RETARDS!!!!!!! AND YOU SUCK FOR NOT GETTING THE STRUGGLE REJECT

0 reply
saturns_bassman wrote on June 6 2006, 08:23 am

how could you not put in the struggle within when you have the correct Unforgiven tab, you obvously have the tab book or you wouldnt have put that fill in there at the end of the chorus, and on My Friend of Misery you play a low C# during the solo

I want to post or [tab]
guest
You may want to rate the tab now too:
select rating
Please do not post tabs as comments. Select "correction" instead!