Oops, an error
Loading. Please wait.

Black Album Tab

ver2
ver2

Album

More versions @911Tabs.com
30,464 views 18 this week
7 commentsread comments
1 2 3 4 5
accurate
x 17
add to favorites launch autoscroll
font size
0
reset
Autoscroll
+/-
esc
set tempo
stop
WARNING: You are trying to view
                                    content from Ultimate-Guitar.com
                                    in an unauthorized application,
                                    which is prohibited.

                                    Please use an official Ultimate
                                    Guitar Tabs application for iPhone,
                                    iPad or Android to access legitimate
                                    chords, guitar, bass, and drum tabs
                                    from Ultimate-Guitar.com database.

                                    Type "ultimate guitar tabs" in Apple
                                    App Store's or Android Market's
                                    search to find the application.
Contents....
1.  Enter Sandman        : UNKNOWN
2.  Sad But Ture         : Vassilis Tzerpos
3.  Holier Than Thou     : tscott@plains.nodak.edu
4.  The Unforgiven       : Tuomo Eloranta (telorant@vipu.hut.fi)
5.  Wherever I May Roam  : UNKNOWN
6.  Don't Tred On Me     : Kevin Buffington (klb6222@tam2000.tamu.edu)
7.  Through The Never    : Jay Sharma (Leper.Messiah@NJackN.com)
8.  Nothing Else Matters : Martijn van Welie (mwelie@cs.vu.nl)
9.  Of Wolf And Man      : A. Stefanos
10. The God That Failed  : Andrew Bowie (bowie@yoyo.cc.monash.edu.au)
11. My Friend In Misery  : Andrew Bowie (bowie@yoyo.cc.monash.edu.au)
12. The Struggle Within  : Pavel Holka (Xholp10@st.vse.cz)

------------------------------------------------------------------------------
---------------------------     MetallicA     --------------------------------
Enter Sandman
-------------
Intro:   (Play 12 times)
======

1|---------------------------------------------------------------------------
2|---------------------------------------------------------------------------
3|---------------------------------------------------------------------------
4|------------5--------------------------------------------------------------
5|--------7---------------7--------------------------------------------------
6|----0-----------6---5------------------------------------------------------

Rhythm Fill 1:
==============

   E5

        PM------------------|   sl   PM----------------------|  sl

1|---------------------------------------------------------------------------
2|---------------------------------------------------------------------------
3|---------------------------------------------------------------------------
4|---------------------------------------------------------------------------
5|--2---------------------------/7------------------------------/7-----------
6|--0---0---0---0---0---0---0--------0---0---0---0---0---0---0---------------


   |-------------4x-------------|     |--------------8x-------------|

                 When playing the F5-E5 pulloffs, the E5 is not strummed.
                          * Skip the F5-E5 pulloff on the 8th repetition.

Rhythm Fill 2:
==============

   E5                        G5  E5  G5  E5 F#5  G5 F#5
Enter night
Take my hand
Off to never-never land

Solo
         N.C.         E5                N.C.                  E5
               1/4
e:----------------------------|-------------------------------------|
B:-15-15-15-12-----12---------|------12-12----15b(17)-15b(17)-(15)/-|
G:-------------14b----14b(16)-|-(14)-------14-----------------------|
D:----------------------------|-------------------------------------|
A:----------------------------|-------------------------------------|
E:----------------------------|-------------------------------------|

               N.C.                          G5

e:-------------------------------------------------|
B:-------------------------------------------------|
G:-12/14-14-14-14\12-12-12-12/14-14-14-14\12-12-12-|
D:-------------------------------------------------|
A:-------------------------------------------------|
E:-------------------------------------------------|

            F#5            G5 F#5 E5
                              ~~~~~~
e:-------------------------------------|
B:-------------------------------------|
G:-14p12-------------------------------|
D:-------14-14p12----------------------|
A:----------------14-14p12/10----------|
E:----------------------------12-(12)/-|

                    N.C.                                         E5

e:---------12-12-12---------12-12-12---------12-12-12---------12-12-12-|
B:-15b(17)----------15b(17)----------15b(17)----------15b(17)----------|
G:---------------------------------------------------------------------|
D:---------------------------------------------------------------------|
A:---------------------------------------------------------------------|
E:---------------------------------------------------------------------|

                    N.C.                                E5

e:---------12-12-12h15p12-12h15p12-12h15p12-12-15-12-12-14-14-|
B:-15b(17)----------------------------------------------------|
G:------------------------------------------------------------|
D:------------------------------------------------------------|
A:------------------------------------------------------------|
E:------------------------------------------------------------|

              N.C.                            G5

e:-17p14----17p14----17p14-19p15----19p15----19p15-|
B:-------15-------15-------------17-------17-------|
G:-------------------------------------------------|
D:-------------------------------------------------|
A:-------------------------------------------------|
E:-------------------------------------------------|

                                                     Half-Time Feel
              F#5                 G5  F#5   N.C.
                              ~~~~~~~~~~
e:-21p17----21p17----21p17----22b(24)-(22)/--------|------------------|
B:-------17-------17-------17---------------9b(10)-|-(9)---9b(10)---9-|
G:------------------------------------------9b(11)-|-(9)---9b(11)---9-|
D:-------------------------------------------------|------------------|
A:-------------------------------------------------|------------------|
E:-------------------------------------------------|------------------|

                      ~~~~~            ~~~~~~~~
e:-----------------------------------|------------------------------------|
B:-9b(10)--9b(10)-----------------10-|-(10)----10-8-7---7/8\7---7---------|
G:-9b(11)--9b(11)--7--9--------7-----|----------------9-------9---9-7---7-|
D:------------------------7h9--------|--------------------------------9---|
A:-----------------------------------|------------------------------------|
E:-----------------------------------|------------------------------------|

                      End HTF
                                 F#5               B5            F#5
                                                            ~~~~~
e:-----------------------------|---------------------------------------|
B:-----------------------------|---------------------------------------|
G:-9p7-------------------------|-16b(18)-14-----14-16b(18)--14------14-|
D:-----9p7---7-9-7-------------|------------16------------------16-----|
A:---------9-------9-6-7-------|---------------------------------------|
E:-----------------------10-7\-|---------------------------------------|

                     B5            F#5

e:--------------------------------------|
B:--------------------------------------|
G:-16b(18)-14----14-16b(18)-14-------14-|
D:------------16---------------16-16----|
A:--------------------------------------|
E:--------------------------------------|

                                 B5        E5       Grad. Trem.
                                                      Release
e:------------------------------------------------|------------|
B:---------17---------17---------------17---------|------------|
G:-16b(18)----16b(18)----16b(18)----------16b(18)-|-(16)-------|
D:------------------------------------------------|------------|
A:------------------------------------------------|------------|
E:------------------------------------------------|------------|

   F#5                        B5                E5

e:-21p17----21p17----21p17----21p17----21p17----21p17----|
B:-------17-------17-------17-------17-------17-------17-|
G:-------------------------------------------------------|
D:-------------------------------------------------------|
A:-------------------------------------------------------|
E:-------------------------------------------------------|

                                  ~~~~~~~~~~~~~~
e:-22b(24)--22-22--22b(24)--22-22-22b(24)-------(22)\-|
B:----------------------------------------------------|
G:----------------------------------------------------|
D:----------------------------------------------------|
A:----------------------------------------------------|
E:----------------------------------------------------|

   E5
                                        ~~~~trem~~~~
e:-----------------------------|-------------------------|
B:-10p8p7----------------------|-------------------------|
G:--------9-9p7----------------|-------------------------|
D:--------------9-9p7-5--7b(9)-|-5-----------------------|
A:-----------------------------|----7---(7)----------5h7-|
E:-----------------------------|-------------------------|

       ~~~~~~~trem~~~~~~~
e:--------------------------|
B:--------------------------|
G:--------------------------|
D:--------------------------|
A:-4---(4)----------------0-|
E:--------------------------|

(Repeat Rhythm Fill 2 twice)
(Repeat Bridge)
(Repeat Chorus Fill)
(Repeat Intro 8 times)

Now I lay me down to sleep
Pray the lord my soul to keep
If I die before I wake
Pray the lord my soul to take

(Repeat Bridge, 1st measure only, 6 times)

Hush little baby, don't say a word
And never mind that noise you heard
It's just the beasts under your bed,
In your closet, in your head

(Repeat Chorus Fill twice)

Exit light
Enter night
Take my hand
Off to never-never land

(Repeat Rhythm Fill 2 twice)

BOOM!

(Repeat Rhythm Fill 2 4 times)

Outro:
======

   E5                          F5 E5                           F5 E5

        PM              PM--|    P    PM---------------------|    P

1|---------------------------------------------------------------------------
2|---------------------------------------------------------------------------
3|---------------------------------------------------------------------------
4|---------------------------------------------------------------------------
5|--2-------7-------------------3\2-----------7------------------3\2---------
6|--0---0-------6---5---0---0---1\0---0---0------6---5---0---0---1\0---------

                                      |-------------3x-------------|

                              F5 E5

    PM--|          PM------|    P      PM--------------------------|
1|---------------------------------------------------------------------------
2|---------------------------------------------------------------------------
3|---------------------------------------------------------------------------
4|---------------------------------------------------------------------------
5|----------7------------------3\2-------------7-----------------------------
6|--0---0------6---0---0---0---1\0-----0---0-------0---0---0---0---0---------

    |------------4x--------------|     |------------4x-------------|

    PM------------------------------|

1|---------------------------------------------------------------------------
2|---------------------------------------------------------------------------
3|---------------------------------------------------------------------------
4|---------------------------------------------------------------------------
5|---------------------------------------------------------------------------
6|--0---0---0---0---0---0---0---0---0----------------------------------------

    |--- Repeat while fading out ---|

---------------------------     MetallicA     --------------------------------
Sad But True
------------
Tabbed by Vassilis Tzerpos

Key:
s = slide                      p = pull-off
__3__ = Triplets               h = hammer-on
^ = bend                       r = release bend
x = damped string              % = repeat last measure
/ = slide up to the note indicated from a few frets below
\ = slide back a few frets from the note indicated
* = slide to the above or below indicated note from as many frets below
as the number of stars

Tune guitar one whole step down.

--------------------------------I--------------------------------I
--------------------------------I--------------------------------I
2-------------------2---2---2---I3-----------------------3-------I
2-------------------2---2---2---I3-----------------------3-------I
0-------------------0---0---0---I1-----------------------1-------I
--------------------------------I--------------------------------I

--------------------------------I--------------------------------I
--------------------------------I--------------------------------I
2-------------------------------I--------------------------------I
2------------------/7---6---5---I3-5-3-5-3-5-353535353535--------I
0-------------------------------I------------------------x\------I
--------------------------------I--------------------------------I

--------------------------------I--------------------------------I
--------------------------------I--------------------------------I
2-------------------2---2---2---I3-----------------------3-------I
2-------------------2---2---2---I3-----------------------3-------I
0-------------------0---0---0---I1-----------------------1-------I
--------------------------------I--------------------------------I

--------------------------------I----         -------------------I
--------------------------------I----         -------------------I
2-------------------------------I5---         -------------------I
2------------------/7---6---5---I3---         -------------------I
0-------------------------------I----         -------x---x-x-x-x-I
--------------------------------I----         -------------------I

--------------------------------I   I   I--------------------------------I
--------------------------------I   I   I--------------------------------I
--------------------------------I % I % I--------------------------------I 4%
--------------------------------I   I   I--------------------------------I
2-----------2---2---5p0-1p0-----I   I   I2-----------2---2---5p0-5-5-----I
0-----------0---0-----------3p0-I   I   I0-----------0---0---------------I

--------------------------------I--------------------------------I
--------------------------------I--------------------------------I
--------------------------------I--------------------------------I
--------------------------------I--------------------------------I
--------------------5p0-5-5-----I(5)^----r-----------x---x-x-x-x-I
--------------------------------I--------------------------------I

--------------------------------I--------------------------------I
--------------------------------I--------------------------------I
--------------------------------I--------------------------------I
--------------------------------I--------------------------------I
2-----------2---2---5p0-1p0-----I2-----------2---2---5p0-1p0-----I
0-----------0---0-----------3p0-I0-----------0---0-----------3p0-I

All these lyrics are played over the following tablature line.

Verse 1:
Hey,            I'm your life.   I'm the one who takes you there.
Hey,            I'm your life.   I'm the one who cares.
They,           they betray.     I'm your only true friend now.
They,           they'll betray.  I'm forever there.

Verse 2:
You,            you're my mask.  You're my cover, my shelter.
You,            you're my mask.  You're the one who's blamed.
Do,             do my work.      Do my dirty work, scapegoat.
Do,             do my deeds,     for you're the one who's shamed.

Verse 3:
Hate,           I'm your hate.   I'm your hate when you want love.
Pay,            pay the price.   Pay, for nothing's fair.
Hey,            I'm your life.   I'm the one who took you there.
Hey,            I'm your life.   And I no longer care.

--------------------------------I--------------------------------I
--------------------------------I--------------------------------I
--------------------------------I--------------------------------I
------------7-------------------I------------3-------------------I
------------5-------------------I------------1-------------------I
0---0---0-0-----0---0-------0-0-I0---0---0-------0---0-------0-0-I

        I'm your dream, make you real. I'm your eyes when you must
        I'm your dream, mind astray. I'm your eyes when you're a-
--------------------------------I--------------------------------I
--------------------------------I--------------------------------I
--------------------------------I--------------------------------I
--------3-3-0---3---2-----------I--------3-3-0-------------------I
--------3-3-0---3---2-----------I--------3-3-0-------7---7---7-7-I
0---0-------------------0---0-0-I0---0-----------0---5---5---5-5-I

steal I'm your pain when you can't feel         Sad but true
way I'm your pain while you repay You know it's sad but true.
--------------------------------I--------------------------------I
--------------------------------I--------------------------------I
--------------------------------I--------___3___-----------------I
--------------------------------I--------5--5--5-5---------------I
7---7---8-8-5---7---5---5---5-5-I5---5---3--3--3-3-------3-3-----I
5---5---6-6-3---5---3---3---3-3-I3---3---------------0---1-1-0---I

_____________________
I 1.                           Sad but true.
--------------------------------I   I   I--------------------------------I
--------------------------------I   I   I--------------------------------I
--------------------------------I % I % I--------------------------------I
--------------------------------I   I   I--------------------------------I
2-----------2---2---5p0-1p0-----I   I   I2-----------2---2---5p0-5-5-----I
0-----------0---0-----------3p0-I   I   I0-----------0---0---------------I

--------------------------------I--------------------------------I
--------------------------------I--------------------------------I
--------------------------------I--------------------------------I
--------------------------------I--------------------------------I
2-----------2---2---5p0-1p0-----I2-----------2---2---5p0-5-5-----I
0-----------0---0-----------3p0-I0-----------0---0---------------I

--------------------------------I
--------------------------------I
--------------------------------I Go back and play verse 2.
--------------------------------I
(5)-----------------x---x-x-x-x-I
--------------------------------I

_____________________
I 2.                        Sad but true.
--------------------------------I   I--------------------------------I
--------------------------------I   I--------------------------------I
--------------------------------I % I--------------------------------I
--------------------------------I   I--------------------------------I
2-----------2---2---5p0-1p0-----I   I2-----------2---2-------0h1p0---I
0-----------0---0-----------3p0-I   I0-----------0---0---0-3-------3-I

--------------------------------I--------------------------------I
--------------------------------I--------------------------------I
--------------------------------I--------------------------------I
---/7---6---5---2---------------I---/7---6---5---3---------------I
--------------------------------I--------------------------------I
--------------------------------I--------------------------------I
                                I                                I
--------------------------------I--------------------------------I
--------------------------------I--------------------------------I
--------------------------------I--------------------------------I
2-------------------2---2---2---I3-----------------------3-------I
0-------------------0---0---0---I1-----------------------1-------I
--------------------------------I--------------------------------I

--------------------------------I--------------------------------I
--------------------------------I--------------------5---4---3---I
--------------------------------I--------------------------------I
---/7---6---5---2---------------I---/7---6---5---3---------------I
--------------------------------I--------------------------------I
--------------------------------I--------------------------------I
                                I                                I
--------------------------------I--------------------------------I
--------------------------------I--------------------------------I
--------------------------------I-------------------/7---6---5---I
2-------------------2---2---2---I3-------------------------------I
0-------------------0---0---0---I1-------------------------------I
--------------------------------I--------------------------------I

--------------------------------I--------------------------------I
--------------------5---4---3---I--------------------------------I
2-------------------------------I3-------------------------------I
--------------------------------I--------------------2-3-5-3-5-3-I
--------------------------------I--------------------------------I
--------------------------------I--------------------------------I
                                I                                I
--------------------------------I--------------------------------I
--------------------------------I--------------------------------I
--------------------------------I--------------------------------I
2------------------/7---6---5---I3-------------------2-3-5-3-5-3-I
--------0-----------------------I--------1-----------------------I
--------------------------------I--------------------------------I

--------------------------------I----            ----------------I
--------------------------------I----            ------------3-s-I
2-------------------------------I----            ------------5-s-I
--------------------2-3-5-3-5-2-I3---            ----------------I
--------------------------------I----            --Solo 1--------I
--------------------------------I----            ----------------I
                                I                                I
--------------------------------I----            ----------------I
--------------------------------I----            ----------------I
--------------------------------I----            ----------------I
2-------------------2-3-5-3-5-2-I3---            ----------------I

-------0-----------------------I----            ----x---x-x-x-x-I
--------------------------------I----            ----------------I

For the backing rhythm figure of solo 1 see end of transcription

----------------------------------------------------------------I
12----------------------------------------------12--12--12------I
11----------------------------------------------12--12--12------I
--------------------------------14\-----12--14------------------I
----------------------------------------------------------------I
----------------------------------------------------------------I

----------------------------------------------------------------I
----------------12----------------------------------------------I
----------------12----------------------------------------------I
14------------------14--12------14-12-----------\-------12--14--I
----------------------------14--**------------------14----------I
----------------------------------------------------------------I

----------------------------------------------------------------I
12--------------------------------------------------------------I
12------------------------------9p7p6---------------------------I
----14--12------14----------------------9---7---9-----------\---I
------------14--**------------------------------**--------------I
----------------------------------------------------------------I

----------------------------------------------------------------I
----------------------------------------------------------------I
4-h-5p4-----4---------------------------------------------------I
--------7-------7---5---4-----------------------9---s---5---s---I
----------------------------5---7-------------------------------I
--------------------------------**------------------------------I

---------- -- -- -- ____3___--- -------- -- ------ -- --------------------I
----12--15p12 15p12 ---12 12-15p12----12h15p12--12h15p12------------------I
14^------- -- -- -- 14^-- ----- --14^--- -- --14-- -- --1412--------------I
---------- -- -- -- ----- ----- -------- -- ------ -- --------14--14------I
---------- -- -- -- ----- ----- -------- -- ------ -- --------------------I
---------- -- -- -- ----- ----- -------- -- ------ -- --------------------I

----------------------------------------------------------------I
--------12------------------------------------------------------I
--------12------14--12------------------------------------------I
12-h14------14----------14--12----------------------------------I
--------------------------------14--12-s10--12--10--------------I
----------------------------------------------------------------I

----------------------------------------------------------------I
14^-r---14^-r-------------------14^-r-----------12--------------I
14^-r---14^-r---14^r12--12--14--14^-r---12------12----------12--I
----------------------14--------------------14----------14------I
----------------------------------------------------------------I
----------------------------------------------------------------I

----------------------------------------------------------------I
14^-r---12--14^-r---12--14^-r---12--14^-r-----------------------I
14^-r---12--14^-r---12--14^-r---12--14^-r---12--14^-------------I
------------------------------------------------------------12--I
----------------------------------------------------------------I
----------------------------------------------------------------I

________6________ ________6________ _________6________ ________6________I
----------------- ----------------- ------------------ -----------------I
----------------- ----------------- -------------12-12 13-12-13-15-15-15I
----------------- ---------12----12 14-12-14-14^------ -----------------I
---------12----12 14-12-14----14--- ------------------ -----------------I
14-12-14----14--- ----------------- ------------------ -----------------I
----------------- ----------------- ------------------ -----------------I

                    __________6_________ _______6_______
12h15p12--12--12 12 15p12 12 12 12 12 12-15p12 -- --------- --------------I
-- -- --15------ -- ----- -- -- -- -- -------- 15p13--13-15p13----13--15--I
-- -- ---------- -- ----- -- -- -- -- -------- -- --14----- --14----------I
-- -- ---------- -- ----- -- -- -- -- -------- -- --------- --------------I
-- -- ---------- -- ----- -- -- -- -- -------- -- --------- --------------I
-- -- ---------- -- ----- -- -- -- -- -------- -- --------- --------------I

15------15------------------------------r-----------------------I
15^-----15^-----------------------------r-----------------------I
----------------------------------------------------------------I
----------------------------------------------------------------I
----------------------------------------------------------------I
----------------------------------------------------------------I

At this point play Chorus once and go on with the second solo:

----------------------------------------------------------------I
----------------------------------------------------------------I
----------------------------------------------------------------I
2-------2-p-0---2-------2-p-0---2-------------------------------I
----------------------------------------------------------------I
----------------------------------------------------------------I
                                                                I
----------------------------------------------------------------I
----------------------------------------------------------------I
----------------------------------------------------------------I
----------------------------------------------------------------I
2-----------------------2-------2-------5-p-0---1-p-0-----------I
0-----------------------0----

---------------------------     MetallicA     --------------------------------
Holier Than Thou
----------------
Transcription by Tim Scott

This is a non-spoon feeding type of tab.  It gives enough information
on how to play the song and leaves the player the task of counting
how many times a rhythm is played, the changes, etc...

Intro Rhythm 1
    ____  ___3___  ___3___  ____  repeat umpteen times....
--|-|--|--|--|--|--|--|--|--|--|-|-----------------------------------------
--|-|--|--|--|--|--|--|--|--|--|-|-----------------------------------------
-/^\|--|--|--|--|--|--|--|--|--|/|-----------------------------------------
2-|[2]-|--|--|--|--|--|--|--|--2-|-----------------------------------------
2-|[2]-|--|--|--|--|--|--|--|--2-|-----------------------------------------
0-|[0]-0--0--0--0--0--0--0--0--0-|-----------------------------------------
(brackets signify the chord is held over from previous measure..)

   Lead in to rhythm 2
--|---------------------|---------------------|----------------------|-----
--|---------------------|---------------------|----------------------|-----
--|---------------------|---------------------|----------------------|-----
--|---------------------|---------------------|----------------------|-----
--|-0--1--0------------/^\--0^1--------------/^\--0^1----------------|-----
--|----------3--5--3--0-|[0]----0--3--5--3--0-|[0]----0--3--5--3~~~~-|-----
                         /\ P.M.-------| P.M.---|              (~ = vibrato)
Hold on 1st time only ___/
P.M. and pick otherwise...

Rhythm 3 (accompanies lyrics)
-----------------------------|-------------------|-------------------------
-----------------------------|-------------------|-------------------------
-----------------------------|-------------------|-------------------------
-----------------2-----------|----------------5--|-------------------------
--0--1--0--------2-----------|-0--1--0--------5--|-------------------------
-----------3--5--0-----------|----------3--5--3--|-------------------------
           PM-|

End of verse riff
----------------------------------------|----------------------------------
----------------------------------------|----------------------------------
----------------------------------------|----------------------------------
--------------------------------------2-|----------------------------------
-0--1--0------------------------------2-|----------------------------------
----------3--5--3--6--6--6-6-6--5--3--0-|----------------------------------

Riff before solo    (Repeat once)   (Repeat twice with this added to end)
---------------------------------|-----------------------------------------
---------------------------------|-----------------------------------------
--------------------------------.|-----------------------------------------
-----------5-7-8-----------8-7-5.|---5-7-----------------------------------
--7--4-6-7-------7--4-6-7--------|-8---------------------------------------
---------------------------------|-----------------------------------------

Repeat the riff and the extra end and end it like this
-----------------------------------|---------------------------------------
-----------------------------------|---------------------------------------
-----------------------------------|---------------------------------------
----5--7-----5--7-----5--7>slide>14|---------------------------------------
--9-------10-------11--------------|---------------------------------------
-----------------------------------|---------------------------------------

I haven't got the solo entirely down (that damn wah-wah screws me up) but
I also don't plan on posting it when I do...So good luck with that..

With this info you should be able to figure out most if not all of the
song...Have fun with it...

---------------------------     MetallicA     --------------------------------
The Unforgiven
--------------
There are actually 4 different guitars played in this song, so it's quite
difficult to type in the whole tabs, so I've left the rhythm guitar and
some fills off, but here is some kind of version to play along with
I hope you are satisfied. If you need the fills, email me, and I'll
try to find out a way to type them in a way that can be read. The rhythm
figure might be a bit easier, so I might make a ChordPro file out of it.

The timing should be right, 1/8 note equals to 0---, 1/16 to 0- etc.)

I've used two .s to indicate the repeat mark in the notes, I hope it doesn't
bother you

Slowly ( 0--- =69 )

THE INTRO PART:
---------------
4/4 timing
 Gtr II (electric, clean tone)                     H            ~~~~~
|---------------------------------|---------------------------------|
|---------------------------------|---------------------------------|
|---------------------------------|---------2---4-5^4-------5-4-2---|
|---------------------------------|---------------------------------|
|---------------------------------|---------------------------------|
|---------------------------------|---------------------------------|
|Gtr I. (acous.)
| let ring            Play 4 times
|---------------------------------|---------------------------------|
|.0-------0-----0-----0-----1----.|-0-------0-----0-----1-----1-----|
|-----2-----2-----2-----2-----2---|-----2-----2-----2-----2-----2---|
|.------2-----2-----2-----2-----2.|-------2-----2-----2-----2-----2-|
|-0-------------------------------|-0-------------------------------|
|---------------------------------|---------------------------------|

 ~~~~~~~~        H          ~~~~~~~~~~~~~~~                     ~~~~~
|---------------------------------|---------------------------------|
|---------------------------------|---------------------------------|
|(2)------2---4-4^5-------5-2-----|(2)------2---4-4^5-------5-4-2---|
|---------------------------------|---------------------------------|
|---------------------------------|---------------------------------|
|---------------------------------|---------------------------------|
|
|
|---------------------------------|---------------------------------|
|-0-------0-----1-----1-----1-----|-0-------0-----0-----1-----1-----|
|-----2-----2-----2-----2-----2---|-----2-----2-----2-----2-----2---|
|-------2-----2-----2-----2-----2-|-------2-----2-----2-----2-----2-|
|-0-------------------------------|-0-------------------------------|
|---------------------------------|---------------------------------|

 ~~~~~~~~        H          ~~~~~~~~~~~~~~~
|---------------------------------|---------------------------------|
|---------------------------------|---------------------------------|
|(2)------2---4-4^5-------5-2-----|(2)------2---4-4^5----4^5------5-|
|---------------------------------|---------------------------------|
|---------------------------------|---------------------------------|
|---------------------------------|---------------------------------|
|
|
|---------------------------------|---------------------------------|
|-0-------0-----1-----1-----1-----|-------------0---1-------1-----1-|
|-----2-----2-----2-----2-----2---|---------2-----------------------|
|-------2-----2-----2-----2-----2-|-----2-----------------2-----2---|
|-0-------------------------------|-0-------------------3-----------|
|---------------------------------|---------------------------------|

     ~~~~~~~~ sl             H                     H       H
|---------------------------------|---------------------------------|
|---------------------------------|-----------------------3^5-----5-|
|-5-4---------4\----------2-2^4---|-2-------2---4-4^5---------------|
|-----5-----------2---------------|---------------------------------|
|---------------------------------|---------------------------------|
|---------------------------------|---------------------------------|
|
|                              H
|---------------------------------|-------------------------0-----0-|
|---------------------------------|-------------0---1-----------1---|
|-----0-------0-----------2---2^4-|-2-------2-----------------------|
|---0-------------2---2-2---------|-------2---------------2---------|
|---------------------------------|-----0---------------3-----------|
|-3-------3-----------------------|---------------------------------|

               sl        sl    H    ~~~~~~~~~~~~~~~~~~~~~~~~~~~~~~~~
|---------------------------------|---------------------------------|
|-5-3-----------------------------|---------------------------------|
|-----4-------4\--1------\4-1-2^4-|-2-------------------------------|
|---------------------------------|---------------------------------|
|---------------------------------|---------------------------------|
|---------------------------------|---------------------------------|
|
|
|---------------------------------|---------------------------------|
|-1-3-0-------3-------------------|---------0-----0-----0-----1-----|
|-----------------1---1---4-1-2^4-|-----2-----2-----2-----2-----2---|
|---------------------------------|-------2-----2-----2-----2-----2-|
|---------------------------------|-0-------------------------------|
|---------3-----------------------|---------------------------------|

(Gtr.II out)
|---------------------------------||
|---------------------------------||
|---------------------------------||
|---------------------------------||
|---------------------------------||
|---------------------------------||
|
|                        (Gtr.I out)
|---------------------------------||
|-0-------0-----0-----0-----1-----||
|-----2-----2-----2-----2---------||
|-------2-----2-----2-----2-------||
|-0-------------------------------||
|---------------------------------||

VERSE PART
~~~~~~~~~~

             H    ~~~~~~~
|---------------------------------|---------------------------------|
|.----------------------------8---|-8---7---7-----------------------|
|-7---5---4-4^5-------------------|-------------5---5-----------7---|
|-----------------5---------------|---------------------------------|
|.--------------------------------|---------------------------------|
|---------------------------------|---------------------------------|
 New  blood_joins this earth  and quickly he's sub-dued       Through


|---------------------------------|---------------------------------|
|---------------------------------|---------------------------------|
|---------------------------------|---------------------------------|
|---------------------------------|---------------------------------|
|---------------------------------|---------------------------------|
|---------------------------------|---------------------------------|
constant pain_ disgrace,- the young _boy_ learns their rules._   With

|---------------------------------|---------------------------------|
|---------------------------------|---------------------------------|
|---------------------------------|---------------------------------|
|---------------------------------|---------------------------------|
|---------------------------------|---------------------------------|
|---------------------------------|---------------------------------|
time the child draws in      this whipping boy done wrong.        De-

             H    ~~~~~~~         2/4 timing
|---------------------------------|-----------------|
|-----------------------------8---|-8---7---7-------|
|-7---5---4-4^5-------------------|-------------5---|
|-----------------5---------------|-----------------|
|---------------------------------|-----------------|
|---------------------------------|-----------------|
prived of all_his_ thoughts, the young_ man struggles

    P.M--|  P.M--|  P.M--|  P.M--|
|---------------------------------|---------------------------------|
|---------------------------------|---------------------------------|
|-5-------4-------2-------0-------|---------------------------------|
|---0-------0-------0-------0-----|-5-------------------------------|
|-----0-0-----0-0-----0-0-----0-0-|-3---------5-3-0-5---------------|
|---------------------------------|-----------------3---------------|
on and  on. He knows,_      oo, a  vow unto   his own            that

    P.M--|  P.M--|  P.M--|  P.M--|
|---------------------------------|---------------------------------|
|---------------------------------|---------------------------------|
|-5-------4-------2-------0-------|---------------------------------|
|---0-------0-------0-------0-----|-5-------------------------------|
|-----0-0-----0-0-----0-0-----0-0-|-3---------5-3-0-3---------------|
|---------------------------------|-----------------5---------------|
never from_ this day_         his will they'll take a - way__________

2/4 timing
|----------------||
|----------------||
|----------------||
|----------------||
|-2--------------||
|-0--------------||
______________

CHORUS PART
~~~~~~~~~~~
Gtr II
mf                       ~~~~~~~        ~~~~~~~  sl.           H
|---------------------------------|---------------------------------|
|---------------------------------|---------------------------------|
|--------2---4---5-------5------5-|-5-4---------4\----------2-2^4---|
|---------------------------------|-----5-----------2---------------|
|---------------------------------|---------------------------------|
|---------------------------------|---------------------------------|
What I've felt,__  what I've   known never shined through in what I've

  ~~~~~~~~        ~~~~~~~~
|---------------------------------|---------------------------------|
|-------------------------5-----5-|-5-3-----------------------------|
|-2-------2---4---5---------------|-----4-------4\--1------\4-1-2^4-|
|---------------------------------|---------------------------------|
| --------------------------------|---------------------------------|
|---------------------------------|---------------------------------|
shown. Never be.___   Never see.______  Won't see what_ might have___

  ~~~~~~~         ~~~~~~~~              ~~~~~~~  sl.           H
|---------------------------------|---------------------------------|
|---------------------------------|---------------------------------|
|-2-------2---4---5-------5-----5-|-5-4---------4\----------2-2^4---|
|---------------------------------|-----5-----------2---------------|
|---------------------------------|---------------------------------|
|---------------------------------|---------------------------------|
been.What I've felt,what I've known,never shined through in what I've shown

  ~~~~~~~         ~~~~~~~               ~~~~~~~~ sl.       sl.   H
|---------------------------------|---------------------------------|
|-------------------------5-----5-|-5-3-----------------------------|
|-2-------2---4---5---------------|-----4-------4\--1------\4-1-2^4-|
|---------------------------------|---------------------------------|
|---------------------------------|---------------------------------|
|---------------------------------|---------------------------------|
          Never free.     Never me.           So I dub thee unforgiv-

  ~~~~~~~~~~~~~~~~~~~~~~~~~~~~~~~  Played after 1st verse
|---------------------------------|---------------------------------|
|---------------------------------|--------------------------------.|
|-2-------------------------------|---------------------------------|
|---------------------------------|---------------------------------|
|---------------------------------|--------------------------------.|
|---------------------------------|---------------------------------|
en.                                                            2.They

 Play after 2nd verse                Interlude
 Gtr. I                             Gtr. II
|---------------------------------||---------------------------------|
|-0-------0-----0-----0-----1-----||---------------------------------|
|-----2-----2-----2-----2-----2---||---4-5-7-5-4^5^4---4-------------|
|-------2-----2-----2-----2-----2-||-7---------------7---5-5^7-------|
|-0-------------------------------||---------------------------------|
|---------------------------------||---------------------------------|

To be continued....

Additional Lyrics:

2. They dedicate their lives to running all of his
He tries to please them all, this bitter man he is
Throughout the life the same, he's battled constantly
This fight he cannot win. A tired man they see no longer cares.
The old man then prepares to die regretfully
That old man here is me. (To Chorus)

---------------------------     MetallicA     --------------------------------
Wherever I May Roam
-------------------
Intro (Sitar arranged for guitar)

----------------|------------ ----|----------------|----------------|
------5-5s6-5---|------8-8s10 6---|5-----5-5s6-5---|(5)-------------| Repeat
----------------|------------ ----|----------------|----------------| this
------2-2s3-2---|------5-5s7- 3---|2-----2-2s3-2---|(2)-------------| line
----------------|------------ ----|----------------|----------------| once
0---------------|0----------- ---0|----------------|----------------|

----------------|------------    ----|------------------------|    ------|
------5-5s6-5---|------8-8s10 10s6---|5-----------------------|    ------|
----------------|------------    ----|------------------------|    ------|
------2-2s3-2---|------5-5s7-  7s3---|2-----------------------|    ------|
----------------|------------    ----|------------------------|    ------|
0---------------|0-----------    ----|0-----------------------|    5s20\-|

----------------|----------------|----------------|----------------|
----------------|----------------|----------------|----------------| Repeat
----------------|----------------|----------------|----------------| this
----------------|------5-5s7-----|----------------|----------------| line
------7-7h8-7---|------------8---|7-----7-7h8-7---|(7)-------------| once
0---------------|----------------|0---------------|----------------|

--------|----------------|
--------|----------------|
--------|----------------|
--------|----------------|
(7)-----|7---8---9---10\-|
--------|5---6---7---8-\-|

Rhy. Fig.1                                         (end Rhy. Fig. 1)
----------------|----------------|----------------|----------------|
----------------|----------------|----------------|----------------| Repeat
----------------|----------------|----------------|----------------| this
-------------tr-|------5-5s7-----|9------------tr-|----------------| line
2-----7-7h8-7(8)|7-----------8---|7-----7-7h8-7(8)|7---8---9---10--| once
0---0-----------|0---0-----------|0---0-----------|5---6---7---8---|

Rhy. Fig.2                                         (end Rhy. Fig. 2)
----------------|----------------|----------------|----------------|
----------------|----------------|----------------|----------------|
----------------|----------------|----------------|----------------|
-------------tr-|------5-5s7-----|9------------tr-|----------------|
5-6-7-8-7h8-7(8)|7-----------8---|7-----7-7h8-7(8)|7---8---9---10--|
----------------|0---0-----------|0---0-----------|5---6---7---8---|

--------|----------------|----------------|----------------|------------------|
--------|----------------|----------------|----------------|------------------|
--------|----------------|----------------|----------------|------------------|
--------|2---------------|----------------|----3-----------|------------------|
5-6-7-8-|2---------------|----------------|--3-------------|------------------|
--------|0---------------|----------------|1---------------|------------------|

       And the road becomes my bride     And the road becomes my bride
----------------|----------------|----------------|----------------|
----------------|----------------|----------------|----------------|
------0---------|----------------|----------------|----------------|
----2-----------|----------------|----3-----------|----------------|
--2-------------|----------------|--3-------------|----------------|
0---------------|----------------|1---------------|----------3s10\-|

E5--------------|----------------|Bb5-------------|----------------|
       I have stripped of all but pride,        so in her I do  con-

A5--------------|----------------|Bb5-------------|------------E-E-|
fide,   and she keeps me satis-   fied          Gives me all I need

E5--------------|----------------|Bb5-------------|----------------|
        And with dust in throne I crave, only knowledge will  I save
--------0-------|--------0-------|----------------|----------------|
------------0---|------------0---|--------3-------|--------3-------|
----------------|----------------|------------3---|------------3---|
----------------|----------------|----3-----------|----3-----------|
----2-----------|----2-----------|1---------------|1---------------|
0---------------|0---------------|----------------|----------------|

G5--------------|----------------|Bb5-------------|----------------|
           To the game you stay a slave             rover, wanderer
----------------|----------------|----------------|----------------|
--------3-------|--------3-------|--------3-------|--------3-------|
------------3---|------------3---|------------3---|------------3---|
----------------|----------------|----3-----------|----3-----------|
----1-----------|----1-----------|1---------------|1---------------|
3---------------|3---------------|----------------|----------------|

nomad, vagabond  call me what you will
----------------|----------------|----------------|----------------|
----------------|----------------|----------------|----------------|
----------------|----------------|----------------|----------------|
----------------|----------------|------5-5s7-----|9------------tr-|
1---1---2---3---|5-6-7-8-7h8-7---|7-----------8---|7-----7-7h8-7(8)|
----------------|----------------|0---0-----------|0---0-----------|

             Oh          But I'll take my time anywhere     free to
----------------|----------------|----------------|----------------|
----------------|----------------|----------------|----------------|
----------------|----------------|-------------tr-|----------------|
----------------|3---3-------3---|----3---2h3-2(3)|2---2-------2---|
7---8---9---10--|3---3-------3---|----3-----------|2---2-------2---|
5---6---7---8---|1---1---1-1-1---|1-1-1-----------|0---0---0-0-0---|

speak my mind anywhere   And I'll redefine anywhere
----------------|----------------|----------------|
----------------|----------------|----------------|
-------------tr-|3---3-------3---|----3--------tr-|
----2---2h3-2(3)|3---3-------3---|----3---2h3-2(3)|
----2-----------|1---1---1-1-1---|1-1-1-----------|
0-0-0-----------|----------------|----------------|

A5--------------|----------------|G5--------------|------------D-\-|
Anywhere I roam                   Where I lay my head is home, yeah

First time play Rhy.Fig. 1 and continue as follows,
second time skip to CODA

              And the earth becomes my throne  And the earth becomes my throne
--------|----------------|----------------|----------------|------------------|
--------|----------------|----------------|----------------|------------------|
--------|----------------|----------------|----------------|------------------|
--------|2---------------|----------------|----3-----------|------------------|
5-6-7-8-|2---------------|----------------|--3-------------|------------------|
--------|0---------------|----------------|1---------------|------------3s10\-|

Continue with Verse 2

CODA
----------------|-------- --------|----------------|---------- -- ----|
----------------|-------- --------|----------------|---------- -- ----|
----------------|-----tr- ----9---|----------------|----8-9-11s12 8---|
-------------tr-|6-7-6(7) 9-10----|------------6-7-|9-10------ -- ----|
2----/7-7-8-7(8)|-------- --------|2-------7-8-----|---------- -- ----|
0---0-----------|-------- --------|0---0-0---------|---------- -- ----|

For the next line you have two guitars notated one above the other.

----------------|-------- --------|----------------|---------- -- ----|
----------------|-----tr- ----8---|----------------|----7-8-10 12 7---|
-------------tr-|4-5-4(5) 8-9-9---|------------4-5-|8-9-8-9-11 12 8---|
--------6-7-6(7)|6-7-6(7) 9-10----|--------6-7-6-7-|9-10------ -- ----|
2---2---7-8-7(8)|-------- --------|2---2---7-8-----|---------- -- ----|
0---0-0---------|-------- --------|0---0-0---------|---------- -- ----|

Play prechorus and chorus again

Solo 1

Play prechorus and last chorus which goes:

A5--------------|----------------|G5--------------|----------------|
Anywhere I roam                   Where I lay my head is home

C5--------------|----------------|B5--------------|Bb5-------E-G-F#|
Carved upon my stone           my body lie, but    still I roam yeah yeah

Rhy.fig.1

Rhy.fig.2 until end over solo 2

---------------------------     MetallicA     --------------------------------
Don't Tred On Me
----------------
All gtrs tune down 1/2 step

                           Tablature Explanation
     p.m. - palm muting
     ^    - bend, above the staff is the amount of bend
            F - full step     1/2 - half step    2 - two steps...
     tr~~~- trill between note and note in paranthesis
     H    - Hammer on
     P    - Pull off

     Note, in part of the solo, i placed the Hammer ons and pull offs
       above the staff to make reading easier.  I also used lower case
       and upper case for the same reason.  There is no difference in
       the meanings.

 Rhy. Fig 1---------------------------------------------------------------|
 12/8 time                              two guitars
 p.m. -|            p.m. -|             p.m. ------| (cont muting pattern)
||------------------|------------------|----------------------------------|
||------------------|------------------|----------------------------------|
||------------------|------------------|-------9-9-9----------------------|
||------------------|------------------|-9-9-9-2-2-2--9/11----------------|
||-2-2-2-----2-2----|-2-2-2-----2-2----|-2-2-2--------2/4---12-----7------|
||-0-0-0-----0-0----|-0-0-0-----0-0----|---------------------5-----0------|

||-----------------------------------|----------------------------------|
||-----------------------------------|----------------------------------|
||-------9-9-9-9/11------------------|------121212--11------------------|
||-9-9-9-2-2-2-2/4----13-------------|121212-5-5-5---4-----12-----------|
||-2-2-2---------------8-----9-------|-5-5-5----------------5-----12----|
||---------------------------7-------|-----------------------------5----|

6/8 time             12/8 time
p.m.---------------| let ring--------------------------| w/Rhy Fig 1 (3x)
||------------------|-----------------|-----------------|-----------------|
||------------------|-----------------|-----------------|-----------------|
||------------------|----9------------|-----------------|-----------------|
||---------10-10-10-|-9--2--9---------|(9)--------------|-----------------|
||10-10-10--3--3--3-|-2-----2---------|(2)--------------|-----------------|
||-3--3--3----------|-----------------|-----------------|-----------------|

                     Rhy. Fig. 2
                     p.m.--|    p.m.---|    p.m.-----| (sim.)
||------------------|-------------------------|-------------------------|
||------------------|-------------------------|-------------------------|
||------------------|-------------------------|-------------------------|
||------------------|-------3-----------3-----|-------3-----------------|
||------------------|-2-2-2-1---3-2---2-1---3-|-2-2-2-1---3-2---3/5---3-|
||------------------|-0-0-0-----1-0---0-----1-|-0-0-0-----1-0---1/3---1-|
                                     (end Rhy Fig 2)  w/Rhy Fig 2 (2x)
||-------------------------|-------------------------|-----------------|
||-------------------------|-------------------------|-----------------|
||-------------------------|-------------------------|-----------------|
||-------3-----------3-----|-------3-----------------|-----------------|
||-2-2-2-1---3-2---2-1---3-|-2-2-2-1---3-2---3/5---3-|-----------------|
||-0-0-0-----1-0---0-----1-|-0-0-0-----1-0---1/3---1-|-----------------|

                   Riff A    w/slide
||----------------|---------------------|------------------|-----------------|
||----------------|---------------------|------------------|-----------------|
||----------------|---------/12-\-11--9-|(9)----/12\11-9-9-|------/12-\-11-9-|
||----------------|---------------------|------------------|-----------------|
||----------------|---------------------|------------------|-----------------|
||----------------|-0-------------------|------------------|-0---------------|
                    Don't tread on me

        (end Riff A)  Rhy Fig 3
||------------------||------------------|-----------------|-----------------|
||------------------||------------------|-----------------|-----------------|
||(9)----/12\11-9-9-||o-----------------|-----------------|-----------------|
||------------------||o-----------------|-----------------|-----------------|
||------------------||--2-2-2----2--2---|-2-2-2----3--3---|-4-4-4----5--5---|
||------------------||--0-0-0----0--0---|-0-0-0----1--1---|-2-2-2----3--3---|
                     Liberty or...

      (end Rhy Fig 3) w/Rhy Fig 2
||-------------------|-----------------|-----------------|-----------------|
||-------------------|-----------------|-----------------|-----------------|
||-------------------|-----------------|-----------------|-----------------|
||---------------7---|-----------------|-----------------|-----------------|
||-6-6-6----7--8-5---|-----------------|-----------------|-----------------|
||-4-4-4----5--6---7-|-----------------|-----------------|-----------------|
                          Never begins...

                                       w/Rhy Fig 2 (1st 2 bars only)
||------------------|-----------------|-----------------|-----------------|
||------------------|-----------------|-----------------|-----------------|
||------------------|-----------------|-----------------|-----------------|
||------------------|-----------------|-----------------|-----------------|
||------------------|-----------------|-----------------|-----------------|
||------------------|-----------------|-0---------------|(0)--------------|
                               ...rage.                               Say,
                                                    Rhy Fig 4
||-----------------------|-------------------------|-------------------------|
||-----------------------|-------------------------|-------------------------|
||-----------------------|-------------------------|-------------------------|
||-------4---------------|-------2-----------------|-------------------------|
||-2-222-2-2-2-222-5-2-2-|-2-222-0-2-2-------------|-2---2-2-2-2-2---2-2-2-2-|
||-0-000---0-0-000-3-0-0-|-0-000---0-0-6-0-5-0-3-0-|-0---0-0-0-0-0---0-0-0-0-|
 don't tread on me                                              So  be  it

                                                        (end Rhy Fig 4)
||-------------------------|----------------------|--------------------|
||-------------------------|----------------------|--------------------|
||-------------------------|----------------------|--------------------|
||---------------------2---|-8---8---8-8-8---8--8-|---------------2--3-|
||-2---2-2-2-2-2-------0---|-5---5---5-5-5---5--5-|-5---5-----6---0--1-|
||-0---0-0-0-0-0---2-3-----|----------------------|-3---3-----4--------|
            threaten no more        to secure peace               war

 w/Rhy Fig 4 (1st 3 bars only)
||------------------|-----------------|-----------------|-----------------|
||--------------9---|-----------------|-----------------|-----------------|
||----------7/9-----|-----------------|-----------------|-----------------|
||------------------|-----------------|-----------------|-----------------|
||------------------|-----------------|-----------------|-5--5--5-5--5----|
||------------------|-----------------|-----------------|-3--3--3-3--3----|

                        |--------------------------------------------------
                        |1.
                         w/Rhy Fig 2 & Riff A
||---------------------|-----------------|-----------------|-----------------|
||---------------------|-----------------|-----------------|-----------------|
||---------------------|-----------------|-----------------|-----------------|
||---------------------|-----------------|-----------------|-----------------|
||-2-222-5-2-222-5-2-2-|-----------------|-----------------|-----------------|
||-0-000-3-0-000-3-0-0-|-----------------|-----------------|-----------------|

--------------------| |--------------------                 Guitar Solo
                    | |2.                              FINE|w/Rhy Fig 2 (2x)
                    | |                     6/8 time        12/8 time
||------------------||---------------------|---------------|-------------------|
||------------------||---------------------|---------------|tr~~~tr~~~tr~~~tr~~|
||-----------------o||---------------------|---------------|12(0)11(0)12(0)11(0|
||-----------------o||---------------------|---------------|-------------------|
||------------------||-5-555-5---8--5---3--|---------------|-------------------|
||------------------||-3-333-3---6--3---1--|---------------|-------------------|
                                         Don't tread on me!
                                                                         1/2
                                F    F                                     F
||--------------------------|-----------12--------F-12|----------------------
||---------------/12--11-10\|-15^--15^-----15-12--12--|-15-------------------
||-12-(0)-11-(0)------------|-------------------14^---|---12---------H---14^-
||--------------------------|-------------------------|-----14-12--12-14-14^-
||--------------------------|-------------------------|----------14----------
||--------------------------|-------------------------|----------------------

                         1/2                           1/2
                   F       F    F    F           F       F    F    2
----P-----------|-----------------------------|-----------------------------|
(14)-12---------|---12---14^-----12-----------|---12---14^------12----------|
(14)-12---------|14^--12-14^--14^--14^-12~~~~~|14^--14-14^--14^--14^-12~~~~~|
---------14~~~~~|-----------------------------|-----------------------------|
----------------|-----------------------------|-----------------------------|
----------------|-----------------------------|-----------------------------|

       F      H P P       H P P    P           H P
||---15^--15141514121412------------------------------|----------------------
||----------------------14151412-1412\1012------------|14-12---14-12---14-12-
||----------------------------------------14-121412---|14-12---14-12---14-12-
||--------------------------------------------------14|-----14------14-------
||----------------------------------------------------|----------------------
||----------------------------------------------------|----------------------

               P
------------|1712-12-12------------------------------------|----------------
------------|----------17-12-12-12-----P-------------------|----------------
------------|---------------------12-1712121212----P-------|----------------
-14-14~~~~~~|----------------------------------121712121212|-----------H----
------------|----------------------------------------------|12-17-12\1012-10
------------|----------------------------------------------|----------------

                        H P  ph   P   p h      P  ph     H P
----------------------|-------------------------------------------------|
----------------------|-----------------------------------------13------|
------------12--------|9129-----1310------11-129-------101310---13---14-|
---------------14~~~~\|----10910----111011------1091010------11---------|
---10--12/14----------|-------------------------------------------------|
-12-------------------|-------------------------------------------------|
                                                          H      F     F
||-------------------------------------|------------19-/-------13----14---|
||-16-14----16-14----17-15----17-15----|---19----17-----1517---16^---17^--|
||-16-14----16-14----17-15----17-15----|16----19--------------------------|
||-------16-------16-------17-------17-|----------------------------------|
||-------------------------------------|----------------------------------|
||-------------------------------------|----------------------------------|

     F
||-22^-------~~~~~--|-------------------------|-------------------------|
||------------------|-------------------------|-------------------------|
||------------------|-------------------------|-------------------------|
||------------------|-------------------------|-------2-----------------|
||------------------|-2-222-5-2-2---222-5-2-2-|-2-222-0-2-2--P-----P----|
||------------------|-0-000-3-0-0-0-000-3-0-0-|-0-000---0-0-6-0-0-5-0-0-|

||-------------------------|-------------------------|-----------------------|
||-------------------------|-------------------------|-----------------------|
||-------------------------|-------------------------|-----------------------|
||-------------------------|-------2-----------------|-----------------------|
||-2-222-5-2-2-2-222-5-2-2-|-2-222-0-2-2------P---P--|-2-222-5-2-2-2-222-5-22|
||-0-000-3-0-0-0-000-3-0-0-|-0-000---0-0-6-0-5-0-3-0-|-0-000-3-0-0-0-000-3-00|

 Chorus
 w/Rhy Fig 4
||------------------|-----------------|-----------------|-----------------|
||------------------|-----------------|-----------------|-----------------|
||--------------9---|-----------------|-----------------|-----------------|
||----------7/9-----|-----------------|-----------------|-----------------|
||------------------|-----------------|-----------------|-----------------|
||------------------|-----------------|-----------------|-----------------|
          So be it        threaten...     to secure peace          ...war

 w/Rhy Fig 3      F             1/2  F
||------------------|-----------------|---H----------------|
||-----------F------|-----------17^15^|-1517----\-14-12-12-|
||-12---\----|\-----|-----------------|-----------14-12-12-|
||-12---\---14--12^-|(12)-------------|--------------------|
||------------------|-----------------|--------------------|
||------------------|-----------------|--------------------|
      Liberty or...

   1/2  1/2   1/2
     F    F     F          D.S. (take 2nd ending) al Fine
||------------------------|-----------------|
||------------------------|-----------------|   ^^^
||-14^--14^---14^---12-\--|-------------9---|   What this means is go back to
||-14^--14^---14^---12-\--|---------7/9-----|   the repeat, take 2nd ending
||------------------------|-----------------|   again, and then stop at Fine.
||------------------------|-----------------|
                   tail.          So be it,

Lyrics:

Liberty of death, what we so proudly hail.
Once you provoke her, rattling of her tail.
Never begins is, never but once engaged,
never surrenders, showing the fangs of rage.
Say, Don't tread on me.

Chorus
So be it, threaten no more.
To secure peace is to prepare for war.
So be it, settle the score.
Touch me again for the words that you will hear evermore.

Don't tread on me

Love it or leave it, she, with the deadly bite.
Quick is the blue tongue, forked as the lightning strike.
Shining with brightness, always on surveillance.
The eyes, they never close, emblem of vigilance.
Say, Don't tread on me.

---------------------------     MetallicA     --------------------------------
Through the Never
-----------------
Transcribed by Leper.

         16x          Riff A         3x  Fill 1          Riff A 3x
||----------|--------|-----------------||---------------|         |----------|
||----------|--------|-----------------||---------------|         |----------|
||.--------.|--------|.---------------.||---------------|         |----------|
||.--------.|--------|.---------------.||---------------|         |----------|
||-----4----|-2-2---5|-----4-------3---||-----4-------5-|         |-2-2---5--|
||-0-2---2--|-0-0---3|-0-2---2-0-2---2-||-0-2---2-0-2-3-|         |-0-0---3--|
   PM.....             PM.............    PM.........

Riff A 3x  Fill 1  Riff A 3x
                             |-------------------------|
                             |-------------------------|
                             |---------2-3-2-0---------|
                             |---------2-3-2-0-3-2-0-3-|
                             |-2-2-------------3-2-0-3-|
                             |-0-0---------------------|
                                               PM.....

Rhy Fig 1
|---------|---------|---------|---------|-----------|---------------------|
|---------|---------|---------|---------|-----------|---------------------|
|.--------|---------|---------|---------|---2----3--|-2-3-2-0------------.|
|.--------|---------|---------|---------|---2----3--|---------3-2-0-2-3P2.|
|---------|---------|---------|---------|-----------|---------------------|
|-0-0-0-0-|-0-0-0-0-|-0-0-0-0-|-0-0-0-0-|-0----0----|---------------------|
  PM...................................  PM   PM
                                      3x
|---------|---------|---------|---------|-----------|---------|---------|
|---------|---------|---------|---------|-----------|---------|---------|
|.--------|---------|---------|--------.|---2----3--|---------|---------|
|.--------|---------|---------|--------.|---2----3--|---------|---------|
|---------|---------|---------|---------|-----------|---------|---------|
|-0-0-0-0-|-0-0-0-0-|-0-0-0-0-|-0-0-0-0-|-0----0----|-0-0-0-0-|-0-0-0-0-|
  PM...................................  PM   PM      PM...............

|---------|---------|---------|---------|---------|---------|---------|
|---------|---------|---------|---------|---------|---------|---------|
|---------|---------|---------|---------|---------|---------|---------|
|---------|---------|---------|---------|---------|---------|---------|
|---------|---------|---------|---------|---------|---------|---------|
|-0-0-0-0-|-0-0-0-0-|-3-3-3-3-|-3-3-3-3-|-3-3-3-3-|-3-3-3-3-|-2-2-2-2-|
  PM.................................................................
                                               end Rhy Fig 1
|---------|---------|---------|-----------|-----------------|
|---------|---------|---------|-----------|-----------------|
|---------|---------|---------|---2----3--|-2-3-2-0---------|
|---------|---------|---------|---2----3--|---------3-2-0-3-|
|---------|---------|---------|-----------|-----------------|
|-2-2-2-2-|-2-2-2-2-|-2-2-2-2-|-0----0----|-----------------|
  PM.........................  PM   PM

 GTR I (Rhy Fig 2)                                         (end Rhy Fig 2)
|-----------------|-----------------|-----------------|-------------------|
|-----------------|-----------------|-----------------|-------------------|
|-----------------|-----------------|-----------------|-------------------|
|-----------------|-----------------|-----------------|-------------------|
|-----4-------3---|-----4-------3---|-----4-------3---|-----4-------3-----|
|-0-2---2-0-2---2-|-0-2---2-0-2---2-|-0-2---2-0-2---2-|-0-2---2-0-2---2---|
| PM............. | ............... | ............... | ...............   |
|                 |                 |                 |                   |
|GTR II(Rhy Fig 2)|                 |                 |    (end Rhy Fig 2)|
|-----------------|-----------------|-----------------|-------------------|
|-----------------|-----------------|-----7-----------|-------------------|
|-----------------|-----------------|--------6--5--4--|-------------------|
|-----------------|-----------------|-----------------|-----4-------------|
|-----4-------3---|-----4-------3---|-----------------|--------4--3--2----|
|-0-2---2-0-2---2-|-0-2---2-0-2---2-|-----------------|-------------------|
  PM.............   ...............
 ________________________
 Rhy Fig 3               |
 3x                    3x       Riff A 3x  Fill 1  Riff A 3x
|------------||----------|-----|
|------------||----------|-----|
|.----------.||.--------.|-----|
|.----------.||.--------.|-----|
|-2-4--4-----||-2-4--2-4-|-5---|
|-0-2--2-2-2-||-0-2--0-2-|-3---|

                           Rhy Fig 1  Rhy Fig 2  Rhy Fig 3
|-------------------------|                                |---------------|
|-------------------------|                                |---------------|
|---------2-3-2-0---------|                                |-2-3-2-0-------|
|---------2-3-2-0-3-2-0-3-|                                |---------3-2-0-|
|-2-2-------------3-2-0-3-|                                |---------------|
|-0-0---------------------|                                |---------------|
                  PM.....
 (solo)              14x                       14x           3x    6x
|-------------||---------|-------------||---------|------------|-----|
|-------------||---------|-------------||---------|------------|-----|
|-------------||.-------.|------------.||.-------.|.----------.|.---.|
|-------------||.2-4-4-4.|------------.||.-------.|.----------.|.---.|
|-4-2--2--2-2-||-0-2-2-2-|-4-2--2--2-2-||-5-7-7-7-|-2-4--4-----|-2-4-|
|-2-0--0--0-0-||---------|-2-0--0--0-0-||-3-5-5-5-|-0-2--2-2-2-|-0-2-|
  Heavy PM...             Heavy PM...     PM..................

|---------|---------|---------|---------|---------|---------|---------|
|---------|---------|---------|---------|---------|---------|---------|
|---------|---------|---------|---------|---------|---------|---------|
|---------|---------|---------|---------|---------|---------|---------|
|---------|---------|---------|---------|---------|---------|---------|
|-0-0-0-0-|-0-0-0-0-|-0-0-0-0-|-0-0-0-0-|-0-0-0-0-|-0-0-0-0-|-0-0-0-0-|
  PM.................................................................
                                                 12x                   4x
|---------|---------|----------|--------------------|----------|---------|
|---------|---------|----------|--------------------|----------|---------|
|---------|---------|.---------|-------------------.|----------|.-------.|
|---------|---------|.---------|-------------------.|----------|.-------.|
|---------|---------|-2------5-|-----------5--7P5---|-2-4--2-4-|-----3---|
|-0-0-0-0-|-0-0-0-0-|-0--0-0-3-|-0-0-/6(6)--------6-|-0-2--0-2-|-0-2---2-|
  PM...............      PM.     PM.

Rhy Fig 2  Rhy Fig 3 |---| Riff A 3x  |-----|
                     |---|            |-----|
                     |---|            |-----|
                     |---|            |-----|
                     |-5-|            |-5-5-|
                     |-3-|            |-3-3-|

---------------------------     MetallicA     --------------------------------
Nothing Else Matters
--------------------
Transcription to "Nothing Else Matters" (Metallica)
 by Martijn van Welie

6/8 time
E-------0-----|-------0-----|-------0-----|-------0---7-|
B-----0---0---|-----0---0---|-----0---0---|-----0---0---|
G---0-------0-|---0-------0-|---0-------0-|---0---------|
D-------------|-------------|-------------|-------------|
A-------------|-------------|-------------|-------------|
E-0-----------|-0-----------|-0-----------|-0-----------|
               P           (9/8 time)        H P S       S P
E-7-----------7^0---------|---------7---8---7^8^7\5-7---5\2^0---|
B-----0-----------0-------|---------0---0-----------0-----------|
G---------0-----------0---|-----0-------------------------------|
D-------------------------|-------------------------------------|
A-------------------------|-------------------------------------|
E-0-----------------------|-0-----------------------------------|
               P
E-------------2^0---------|-------------0---0---0---|
B-5-------5-------5-------|---------5-------5---5---|
G-----5---------------5---|-----5-----------5---5---|
D-------------------------|-------------------------|
A-0-----------------------|-0---------------0---2---|
E-------------------------|-------------------------|
               P                         H P   P   H
E-0-----------3^0-----0---|-0-----------0^5^0--------|
B-5-------5-------5---5---|-7-------7---------7^0-0^5|
G-5-----5---5-------5-5---|-7-----7---7--------------|
D-------------------------|--------------------------|
A-3---3---------------3---|-5---5--------------------|
E-------------------------|--------------------------|
    <.NH.>
E-------12----|-------0-----|-------0-----|-------0-----|
B-----12--0---|-----0---0---|-----0---0---|-----0---0---|
G---12------0-|---0-------0-|---0-------0-|---0-------0-|
D-------------|-------------|-------------|-------------|
A-------------|-------------|-------------|-------------|
E-0-----------|-0-----------|-0-----------|-0-----------|

E-------------7-----------|-------------|-------------7-----------|
B-------------8-----------|-----7-----5-|-------------8-----------|
G-----------9-------------|-----7-----5-|-----------9-------------|
D---------9---------------|---7-----5---|---------9---------------|
A-------7-----------------|-5-----3-----|-------7-----------------|
E-0-----------------------|-------------|-0-----------------------|

E-------------|-------------7-----------|-----5-----------3-------|
B-----7-----5-|-------------8-----------|-------7-----------5-----|
G-----7-----5-|---------9---------------|---------7-----------5---|
D---7-----5---|-----------9-------------|-----7-----------5-------|
A-5-----3-----|-------7-----------------|-5-----------3-----------|
E-------------|-0-----------------------|-------------------------|

E-----3-----------2-------|-------0-----|-------0-----|
B-------3-----------4-----|-----0---0---|-----0---0---|
G---------4-----------2---|---0-------0-|---0-------0-|
D-----5-----------4-------|-------------|-------------|
A-------------2-----------|-------------|-------------|
E-3-----------------------|-0-----------|-0-----------|

Main guitar part :
E-------------3-----0-----|-2-----3-----0-----------|
B---------0-----------0---|---------3-------3-------|
G-----0-----------0-----0-|-----------0-------0-----|
D-------------------------|-0-----------------------|
A-------------------------|-------------3-----------|
E-0-----------------------|---------------------3-2-|

E-------------3-----0-----|-2-----------------------|
B---------0-----------0---|-------3-----3-----------|
G-----0-----------0-----0-|---------2-------0-------|
D-------------------------|-0-----------------------|
A-------------------------|-------------3-----------|
E-0-----------------------|---------------------3-2-|

E-------------3-----0-----|-2-----3-----3-----------|
B---------0-----------0---|---------3-------3-------|
G-----0-----------0-----0-|-----------0---------0---|
D-------------------------|-0-----------------------|
A-------------------------|-------------3-----------|
E-0-----------------------|-------------------------|

E---------3---2-----2-----|-0-----0-----|-------------0-----------|
B---------3---0-----0-----|-0---0---0---|---------0-------0-------|
G-----0-------2-----2-----|---0-------0-|-----0-------------------|
D-------------------------|-------------|-------------------------|
A-------------2-----2-----|-------------|-------------------------|
E-3-----------------------|-0-----------|-0-------------------3-2-|

Chorus guitar part
                1   2   3   4   5   6
E-------------|-2-----2-2-2-3---2-0-0-2-|
B-1-----2-----|-3-----3-3-3-3---3-3-3-3-|
G-0-----2-----|-2-----2-2-2-2---2-2-2-2-|
D-2-----2-----|-0-----0-0-0-0---0-0-0-0-|
A-3-----0-----|-------------------------|
E-------------|-------------------------|

E-------------|-2-----2-2-2-3---2-0-0-2-|
B-1-----2-----|-3-----3-3-3-3---3-3-3-3-|
G-0-----2-----|-2-----2-2-2-2---2-2-2-2-|
D-2-----2-----|-0-----0-0-0-0---0-0-0-0-|
A-3-----0-----|-------------------------|
E-------------|-------------------------|

E-------------|-2-----2-2-2-0-----------|
B-1-----2-----|-3-----3-3-3-0-----------|
G-0-----2-----|-2-----2-2-2-0-----------|
D-2-----2-----|-0-----0-0-0-2-----------|
A-3-----0-----|-------------2-----------|
E-------------|-------------0-----------|

Interlude, only one part is notated.

E-12----14----|-15----17----|-8-----8-----|-------8-----|-0-------0---|
B---12----12--|---12----12--|---5-----5---|-----5---5---|---1-------1-|
G-------------|-------------|-----5-----5-|---5-------5-|-----0-------|
D-------------|-------------|-------------|-------------|-------------|
A-------------|-------------|-------------|-------------|-------------|
E-------------|-------------|-------------|-------------|-------------|

E-0-------0---|-0-0---------0-0---------|-------0-----|
B---3-------3-|-----0-----------0-------|-----0---0---|
G-----2-------|---------0-----------0---|---0-------0-|
D-------------|-------------------------|-------------|
A-------------|-------------------------|-------------|
E-------------|-------------------------|-------------|

Guitar solo :
  E5  E5(VII) | D5(V)  C5(III)
  E5  E5(VII) | D5(V)  C5(III)
  E5  E5(VII) | D5(V)  C5(III) | G5(III)  B5(II) | E5

    B       B  R   V                            V
E---------------------------|-------------------------------------|
B-15------15----------------|-------------------------------------|
G-14(16)--14(16)14-12----12-|-11-12-11----11-------------12-14-12-|
D---------------------------|----------14----12-14----------------|
A---------------------------|-------------------------------------|
E---------------------------|-------------------------------------|
    B        B                            B  R                 V
E-------12-------12-------------------|---------------------------|
G----12-------12----15-12----12-------|------------14----14-13----|
G-14(16)---14(16)---------15----15-14-|-12(14)12---14----14-13-12-|
D-------------------------------------|---------14----------------|
A-------------------------------------|---------------------------|
E-------------------------------------|---------------------------|
  S                            H  P  S              V
E-/15-14----15-14-17-|-15----14^15^14\12----15-14-|---------------
B--------12----------|-------------------12-------|-12------------
G--------------------|----------------------------|------12-14-12-
D--------------------|----------------------------|---------------
A--------------------|----------------------------|---------------
E--------------------|----------------------------|---------------
    B  R              B                B  R  P     B
E-------------------------|-12----------------------------|-------
B-15-------------------12-|-------15-15(17)15^12-15(17)---|-------
G-14(16)14-12----12-14(16)|-------------------------------|-------
D-------------14----------|-------------------------------|-------
A-------------------------|-------------------------------|-------
E-------------------------|-------------------------------|-------
    H  P       S     H P
E-----------------|--------------
B-12^15^12\\\\\\7-|-5^7^5--------
G-----------------|--------------
D-----------------|--------------
A-----------------|--------------
E-----------------|--------------

The end :
E-0-----0-----|-------0---7-|-7-----------7^0---------|
B-----0---0---|-----0---0---|-----0-----------0-------|
G---0-------0-|---0---------|---------0-----------0---|
D-------------|-------------|-------------------------|
A-------------|-------------|-------------------------|
E-0-----------|-0-----------|-0-----------------------|

E---------7---8---7^8^7\5--7---5\2--0-|
B---------0---0------------0----------|
G-----0-------------------------------|
D-------------------------------------|
A-------------------------------------|
E-0-----------------------------------|

---------------------------     MetallicA     --------------------------------
Of Wolf And Man
---------------
A. Stefanos

  INTRO
e:------------|-----------|-----------|-----------|-----------|-----------|
B:------------|-----------|-----------|-----------|-----------|-----------|
G:------------|-----------|-----------|-----------|-----------|-----------|
D:-2--2--2--2-|2--2--2--2-|2--2--2--2-|2--2--2--2-|2--2--2--2-|2--2--2--2-|
A:-2--2--2--2-|2--2--2--2-|2--2--2--2-|2--2--2--2-|2--2--2--2-|2--2--2--2-|
E:-0--0--0--0-|0--0--0--0-|0--0--0--0-|0--0--0--0-|0--0--0--0-|0--0--0--0-|



e:-----------------------------|-----------------------------|
B:-----------------------------|-----------------------------|
G:-----------------------------|-----------------------------|
D:---------------------4-----3-|---------------------4-----3-|
A:------------3--2-----2-----1-|------------3--2-----2-----1-|
E:-0----0--0--1--0--0-----0----|-0----0--0--1--0--0-----0----|



e:---------------------------------|
B:---------------------------------|
G:---------------------------------|
D:----------------------------4--3-|
A:------------3--2------------2--1-|
E:-0----0--0--1--0--0---0--0-------|

                F5  E5    B5   Bb5  E5
Off through the new day's mist I    run.

             F5  E5    B5   Bb5  F5   E5
Out from the new day's mist  I   have come.

  F5 E5              F5 E5
I    hunt, therefore I  am.

        F5  E5
Harvest the land.

          F5  E5       B5  Bb5
Taking of the fal__len     lamb.



e:----------------------------|-------------------------------|-|
B:----------------------------|-------------------------------|-|
G:----------------------------|-------------------------------|-|
D:--------------------4-----3-|-------------------------------|-|
A:-----------3--2-----2-----1-|--------5-7-5-0-5-7---5-7--7\--|-|
E:0----0--0--1--0--0-----0----|--5--7-------------------------|-|



                F5  E5    B5   Bb5  E5
Off through the new day's mist I    run.

             F5  E5    B5   Bb5  F5   E5
Out from the new day's mist  I   have come.

   F5 E5    B5 Bb5
We    shift,      pulsing with the earth.

               F5 E5
Company we keep,     roaming the land while you

                           Shape shift.
   sleep.      Oh...                  Nose to the wind.
e:---------------|----------------||--------------------------------|
B:---------------|----------------||--------------------------------|
G:---------------|----------------||--------------------------------|
D:-2---2---2---2-|-----4-------3--||----------------------4-------3-|
A:-2---2---2---2-|-----2-------1--||--2---2---3---2-------2-------1-|
E:-0---0---0---0-|-0-------0------||--0---0---1---0---0-------0-----|

Shape shift.
                         Move shift
   Feeling I've been               All senses clean
e:-------------------------------|-------------------------------|
B:-------------------------------|-------------------------------|
G:-------------------------------|-------------------------------|
D:---------------------6-------5-|---------------------6-------5-|
A:-2---2---3---2-------4-------3-|-4---4---5---4-------4-------3-|
E:-0---0---1---0---0-------0-----|-2---2---3---2---0-------0-----|

Earth's gift

(Back to the meaning),back to the meaning of...         life.
e:-----------------------------------------|------------------|
B:-----------------------------------------|------------------|
G:-----------------------------------------|------------------|
D:-----------------------------------------|------------------|
A:-----------5---4-------------5---4-------|-4---4---4--------|
E:-2---2-2---3---2---2---2-2---3---2-------|-2---2---2---14\--|

 - Additional lyrics :

 Bright is the moon,high in starlight.
 Chill in the air,cold as steel tonight.
 We shift.Call of the wild.
 Fear in your eyes.It's later than you realized.

---------------------------     MetallicA     --------------------------------
The God That Failed
-------------------
Tabbed by Andrew Bowie
Tunning Eb

These are the most distinct parts. There are a million more as this is
less of a riff bassed song and I would have to tab the entire song
to get it sounding right. But mostly these parts are used. The 10,10,7 etc.
bit is used both at the start, speed up and slightly modified uner (I see
Faith in your eyes) and moved to E and A string for "Never you Here the dis-
coraging lies".

The two chord used at start...
|-------------------|---------------------------------------------|
|-------------------|---------------------------------------------|
|-12-12-9---16-16-9-|---------------------------------------------|
|-------------------|-----------9-9---------------9-----------7---|
|-10-10\7---14-14\7-|-10-10-7-------7-----10-10-7---7-10-10-7---7-|
|-------------------|---------0-------0---------------------------|
                      Main riff. This is modified and used in many places
                      (see above notes)

Used with above at start before next riff..
|-------------------------------------------------|-------------------------------
|-------------------------------------------------|-------------------------------
|-------------------------------------------------|-------------------------------
|---------------------------9---4h5p4-------------|-------------------------------
|-10-10-7---5-5-7---10-10-7---7-2-----7-5-4\2-----|-------------------------------
|---------0-------0-------------0-------------5-3-|-------------------------------

Verse riff. First time it comes in, the first chord is F# (244)
|---------------------------------------|
|---------------------------------------|
|---------------------------------------|
|---------------------------------------|
|-3-2-2-2---3-2-2-2---3-2-2-5-2-3-2-2-2-|
|-1-0-0-0---1-0-0-0---1-0-0-3-0-1-0-0-0-|

Used under (it feeds, it grows, it clouds all that you will know)
|-------------------------------------------|
|-------------------------------------------|
|-------------------------------------------|
|-------------------------------------------|
|-------------------------------------------|
|-1-0-1-1---1-0-1-1---1-0-1/3-0-3---0-1-1-1-|

---------------------------     MetallicA     --------------------------------
My Friend Of Misery
-------------------
Tabbed by : Andrew Bowie
Tuning : E, A, G....e (normal)

These are the "main" parts of MFOM. It should be enough to get started.

    Repeated chord over bass and in some middle parts.
   /
|-----|--------------------------------------------------------|
|-----|--------------------------------------------------------|
|--2--|--------------------------------------------------------|
|--3--|--3-----------3--------------------2-----------2--------|
|--0--|--------5-----------0--------------------3-----------0--|
|-----|--------------------------------------------------------|
         Next part over chord and bass.

|-------------------------------------|----------------------------------|
|-------------------------------------|----------------------------------|
|-------------------------------------|----------------------------------|
|-3-----3-----------3-----3-----------|-----2-----2-----------2-----2/7--|
|----5-----0-----------5-----0--------|--------3-----0-----------3-------|
|-------------------------------------|----------------------------------|
 Verse riff..............................................................

|---------------------------------------------------------------------------------
|---------------------------------------------------------------------------------
|-------------------------------------------4--4----------------------------------
|-------------------2--------7--7--------7--4--4-----------------------2----------
|-4--4--0--2--3--4--2--------7--7--------7-----------4--4--0--2--3--4--2----------
|-2--2--------------0-----0--5--5--------5-----------2--2--------------0-----0----
  Chorus (repeated x2)....................................................

                                                                     x2
---------------------|-----------------------------------------------|
---------------------|--------------5-----------5--------------------|
2--2--3--4-----------|--------5-----------------------7-----5-----7--|
2--2--3--4--2-----2--|--7----------------7---------------------------|
0--0--1--2--2-----2--|-----------------------------------------------|
------------0-----0--|-----------------------------------------------|
....................   Trippy middle intelude (use volume knob to get effect)

    bend               x2
|--/-------------------|
|-10--10-----5--------o|
|------------------5---|
|----------------------|
|---------------------o|
|----------------------|


                     bend
|------------------0/----\-------------------------------------0--|
|------------3-----3------3------------------------------------1--|
|---------2-------------------2---------------------0h2-----2-----|
|----2h3------------------------------------0h2--2----------------|
|-0--------------------------------------0------------------------|
|-----------------------------------------------------------------|
Accoustic after trippy intelude.

---------------------------     MetallicA     --------------------------------
The Struggle Within
-------------------
Transcribed by Pavel Holka

Moderate rocks =144

CHORD EXPLANATION:
!         = 1/8 beat pause
E5  /  /  = strike this chord for 3 times(/ means strike for 1/8beat)
            (I don`t bother with making tablature rhythm guitar ,but
             this is sufficient,and actually the same)
sl.       = slide the first chord to the second one

TABULATURE EXPLANATION:
P.M..... = Palm mute
/        = slide up
\        = slide down
^        = hammer ons,pull offs
F        = full bend (whole step)
FR       = full bend and relaese
'        = half bend (half step)
~~~~~~   = vibrato (tremolo or with left hand)
X        = muffled string

EACH BAR MEANS 4 BEATS
guitarI:
starting 3 Bars only with drums                        B5
---------------|---------------|---------------|-----------------|
---------------|---------------|---------------|-----------------|
---------------|---------------|---------------|-----------------|
---------------|---------------|---------------|------------9\---|
---------------|---------------|---------------|------------9\---|
---------------|---------------|---------------|------------7\---|
*****************************************************************

GuitarI                         w/Fill1                        3x
P.M. ........................................
E5/ ! / / / / / / / ! / / !! /  / / ! / / / / / D5/ ! / / ! B5
---------------|---------------|---------------|-----------------|
---------------|---------------|---------------|-----------------|
*--------------|---------------|---------------|-7--------------*|
-2-------------|---------------|---------------|-7----------9\---|
*2-------------|---------------|---------------|-5----------9\--*|
-0-------------|---------------|---------------|------------7\---|

                                Fill1 (guitarIII) H  ~~~~~~~~~~
                               |-----------7-8-|-8^10----------|
                               |---------------|---------------|
                               |---------------|---------------|
                               |---------------|---------------|
                               |---------------|---------------|
                               |---------------|---------------|

                                                               3x
guitarII                                          ~~~~~~~~~~~~
---------------|---------------|---------------|-----------------|
---------------|-7-8-7---------|-7-8----7--7-8-|10---------------|
*-------7------|-7-9-7---------|-----9---------|----------------*|
-/7--9--5----9-|---------------|--------9------|--------------9--|
*/5--7-------7-|---------------|---------------|--------------9-*|
---------------|---------------|---------------|--------------7--|

Between this star lines is everything played together!!
                  |
                  |
*****************************************************************

guitarI
E5/ ! / / / / / / / ! /                      ~~~~~~~~~~~~~~~
---------------|--------12-----|-(12)----(12)--|-----------(12)\-|
---------------|---------------|---------------|-----------------|
---------------|---------------|---------------|-----------------|
-2-------------|---------------|---------------|-----------------|
-2-------------|---------------|---------------|-----------------|
-0-------------|---------------|---------------|-----------------|

FROM HERE EACH BAR MEANS TWO BEATS
Rhy.fig I        (end rhy.fig.I)
E5 /  !   /        /  /  /  /    w/Rhy.fig.I(play 4 times)
P.M. .........................
---------------|---------------|---------------|-----------------|
---------------|---------------|---------------|-----------------|
---------------|---------------|---------------|-----------------|
-2-------------|---------------|---------------|-----------------|
-2-------------|---------------|---------------|-----------------|
-0-------------|---------------|---------------|-----------------|

                verse1
---------------|---------------|---------------|-----------------|
---------------|---------------|---------------|-----------------|
---------------|---------------|---------------|-----------------|
---------------|---------------|---------------|-----------------|
---------------|---------------|---------------|-----------------|
---------------|---------------|---------------|-----------------|
               Reaching out for something you`ve got-ta    feel__

 (rhy.fig.1 played for the 4th) E5  /   !   /     /   /    /.
---------------|---------------|---------------|-----------------|
---------------|---------------|---------------|-----------------|
---------------|---------------|---------------|-----------------|
---------------|---------------|-2-------------|-----------------|
---------------|---------------|-2-------------|-----------------|
---------------|---------------|-0-------------|-----------------|
        You`re  clutching  to   what you   had  thought was re-al

GuitarI&II     Rhy.fig2
E5  /   !   /    /    /   G5    E5   /  !   /    /    /  F#5slG5
P.M....................         P.M....................
---------------|---------------|---------------|-----------------|
---------------|---------------|---------------|-----------------|
---------------|---------------|---------------|-----------------|
---------------|----------5----|-2-------------|------------4/5--|
---------------|----------5----|-2-------------|------------4/5--|
---------------|----------3----|-0-------------|------------2/3--|
               Kick-ing    at a dead horse      pleas-es   you__

E5   /  !   /   /    /  F#5slG5 E5   /   !   /   /   /   G5
P.M...................          P.M...........
---------------|---------------|---------------|-----------------|
---------------|---------------|---------------|-----------------|
---------------|---------------|---------------|-----------------|
---------------|----------4/5--|-2-------------|----------5------|
---------------|----------4/5--|-2-------------|----------5------|
---------------|----------2/3--|-0-------------|----------3------|
                No way      of   showin`   your  grat-i-  tude___

                               (end Rhy.Fig2)  Rhy.fig3
E5   /   !   /   /   /   F5      E5  /   !   /   /   /  F#5slG5
P.M.................             P.M..................
---------------|---------------|---------------|-----------------|
---------------|---------------|---------------|-----------------|
---------------|---------------|---------------|-----------------|
-2-------------|---------3-----|-2-------------|-----------4/5---|
-2-------------|---------3-----|-2-------------|-----------4/5---|
-0-------------|---------1-----|-0-------------|-----------2/3---|
______                          S______________ so   man -   y

E5    /  !   /   /   / F#5slG5  E5  /   !    /   /    /    G5
P.M..................           P.M....................
---------------|---------------|---------------|-----------------|
---------------|---------------|---------------|-----------------|
---------------|---------------|---------------|-----------------|
-2-------------|---------4/5---|-2-------------|------------5----|
-2-------------|---------4/5---|-2-------------|------------5----|
-0-------------|---------2/3---|-0-------------|------------3----|
things you don`t wan-na  do_______              What is     it,

E5   /   !   /   /   /   G5     E5   /   !   /   /    /    F5
P.M.................            P.M....................
---------------|---------------|---------------|-----------------|
---------------|---------------|---------------|-----------------|
---------------|---------------|---------------|-----------------|
-2-------------|----------5----|-2-------------|------------3----|
-2-------------|----------5----|-2-------------|------------3----|
-0-------------|----------3----|-0-------------|------------1----|
what have you got_  to   lose?____________________

(end Rhy.Fig.3) Rhy.Fig.4
E(open)F5 E F5  E5   /  !   /    /   /  F#5slG5 E5   /    !    /
                P.M...................          P.M..............
-0-------0-----|---------------|---------------|-----------------|
-0-------0-----|---------------|---------------|-----------------|
-1-------1-----|---------------|---------------|-----------------|
-2---3---2---3-|-2-------------|----------4/5--|-2---------------|
-2---3---2---3-|-2-------------|----------4/5--|-2---------------|
-0---1---0---1-|-0-------------|----------2/3--|-0---------------|
                (What the hell?)What the hell?____

                                                  (end Rhy.Fig.4)
E5   /  F#5slG5  E5  /   !   /   /   /   G5     E    G5  E   G5
P.M...           P.M..................          P.M.     P.M.
---------------|---------------|---------------|-0-------0-------|
---------------|---------------|---------------|-0-------0-------|
---------------|---------------|---------------|-1-------1-------|
-2--------4/5--|-2-------------|---------5-----|-2---5---2---5---|
-2--------4/5--|-2-------------|---------5-----|-2---5---2---5---|
-0--------2/3--|-0-------------|---------3-----|-0---3---0---3---|
What is     it  you think you`re gon-na  find?________________

E5   /   !   /   /   /   G5      E5  /   !   /   /   /   G5
P.M..................            P.M..................
---------------|---------------|---------------|-----------------|
---------------|---------------|---------------|-----------------|
---------------|---------------|---------------|-----------------|
-2-------------|----------5----|-2-------------|----------5------|
-2-------------|----------5----|-2-------------|----------5------|
-0-------------|----------3----|-0-------------|----------3------|
(Hyp-o-crite.)  Hyp - o- crite.                 Bore-dom sets

E5  /   !   /    /   /   G5      E   G5  E   G5
P.M.................. P.M.       P.M.    P.M.    (1/2 beat pause)
---------------|---------------|-0-------0-----|-----------------|
---------------|---------------|-0-------0-----|-----------------|
---------------|---------------|-1-------1-----|-----------------|
-2-------------|----------5----|-2---5---2---5-|-----------------|
-2-------------|----------5----|-2---5---2---5-|-----------------|
-0-------------|----------3----|-0---3---0---3-|-----------------|
into the   bor - ing    mind._________________________

************
FROM HERE EACH BAR MEANS 4 BEATS
I don`t bother with timing here.
GuitarI
Rhy.Fig.5A                                H                H
---------------|---------------|---------------|-----------------|
---------------|---------------|---------------|-----------------|
---------------|---------------|---------------|-----------------|
--5--5----5/7--|-3--3----5/7---|--5--5---4^5---|--3--3----4^5----|
--5--5---------|-3--3----------|--5--5---------|--3--3-----------|
--3--3---------|-1--1----------|--3--3---------|--1--1-----------|

GuitarII
Rhy.Fig.5B
---------------|---------------|---------------|-----------------|
---------------|---------------|---------------|-----------------|
---------------|---------------|---------------|-----------------|
--5--5----5/7--|-3--3----5/7---|--5--5---5/7---|--3--3----5/7----|
--5--5---------|-3--3----------|--5--5---------|--3--3-----------|
--3--3---------|-1--1----------|--3--3---------|--1--1-----------|

GuitarI&II
Rhy.Fig.6       (end Rhy.Fig.6) w/Rhy.Fig.6 (3 times)
F#5 (let ring)  E5 (let ring)
---------------|---------------|---------------|-----------------|
---------------|---------------|---------------|-----------------|
---------------|---------------|---------------|-----------------|
--4------------|--2------------|---------------|-----------------|
--4------------|--2------------|---------------|-----------------|
--2------------|--0------------|---------------|-----------------|
             It  suits  fine__              Your ru   -   in.
(Struggle within)              (Struggle within)

                                (Rhy.Fig.6 played for the 3rd time)
---------------|---------------|---------------|-----------------|
---------------|---------------|---------------|-----------------|
---------------|---------------|---------------|-----------------|
---------------|---------------|---------------|-----------------|
---------------|---------------|---------------|-----------------|
---------------|---------------|---------------|-----------------|
           You seal your own coffin.         The struggling within.
(Struggle within)              (Struggle within)
*******************************************************************
GuitarI
Rhy.fig.5C H               H
---------------|---------------|---------------|-----------------|
---------------|---------------|---------------|-----------------|
---------------|---------------|---------------|-----------------|
--5---5---4^5--|--3---3---4^5--|--5---5---3/5--|--3---3---3/5----|
--5---5--------|--3---3--------|--5---5--------|--3---3----------|
--3---3--------|--1---1--------|--3---3--------|--1---1----------|

GuitarII
w/Rhy.fig.5B
---------------|---------------|---------------|-----------------|
---------------|---------------|---------------|-----------------|
---------------|---------------|---------------|-----------------|
---------------|---------------|---------------|-----------------|
---------------|---------------|---------------|-----------------|
---------------|---------------|---------------|-----------------|
*****************************************************************
w/Fill2                                        GuitarII
GuitarI                                         w/Rhy.Fig1(2&half
                                                times)
---------------|---------------|---------------|----------------|
---------------|---------------|---------------|----------------|
---------------|---------------|---------------|----------------|
--2------2-----|-(2)-----------|-(2)-----------|-(2)------------|
--2------2-----|-(2)-----------|-(2)-----------|-(2)------------|
--0------0-----|-(0)-----------|-(0)-----------|-(0)------------|

GuitarII
Fill2               H
---------------|---------------|---------------|
---------------|---3^5---------|-(5)------(5)\-|
---------------|--X------------|---------------|
--2------2-----|-X-------------|---------------|
--2------2-----|---------------|---------------|
--0------0-----|---------------|---------------|

******************************************************************

GuitarI
---------------|---------------|---------------|-----------------|
---------------|---------------|---------------|-----------------|
---------------|---------------|---------------|-----------------|
-(2)-----------|-(2)-----------|-(2)-----------|-(2)-------------|
-(2)-----------|-(2)-----------|-(2)-----------|-(2)-------------|
-(0)-----------|-(0)-----------|-(0)-----------|-(0)-------------|

Verse2
GuitarI&II
w/Rhy.Fig2
 E5       G5     E5                     F#5 G5   E5
---------------|---------------|---------------|-----------------|
---------------|---------------|---------------|-----------------|
---------------|---------------|---------------|-----------------|
---------------|---------------|---------------|-----------------|
---------------|---------------|---------------|-----------------|
---------------|---------------|---------------|-----------------|
Home is not a   home,it    be- comes a hell__________

Substitute     Resume Rhy.Fig2
by Rhy.Fill 1   E5                         G5    E5
---------------|---------------|---------------|-----------------|
---------------|---------------|---------------|-----------------|
---------------|---------------|---------------|-----------------|
---------------|---------------|---------------|-----------------|
---------------|---------------|---------------|-----------------|
---------------|---------------|---------------|-----------------|
Turn-ing  it    in-to      a    pris-on   cell._________

Rhy.Fill 1 (both guithars)
---------------|
---------------|
---------------|
--2--2--4------|
--2--2--4------|
--0--0--2------|

*****************************************************************
                                GuitarI&II
                                w/Rhy.fig.3(1st 9 bars only)
        F5            E5               F#5  G5   E5
---------------|---------------|---------------|-----------------|
---------------|---------------|---------------|-----------------|
---------------|---------------|---------------|-----------------|
---------------|---------------|---------------|-----------------|
---------------|---------------|---------------|-----------------|
---------------|---------------|---------------|-----------------|
                          Ad - van-tag-es   are tak-en       not

        F#5 G5  E5                       G5      E5
---------------|---------------|---------------|-----------------|
---------------|---------------|---------------|-----------------|
---------------|---------------|---------------|-----------------|
---------------|---------------|---------------|-----------------|
---------------|---------------|---------------|-----------------|
---------------|---------------|---------------|-----------------|
hand-ed out.______              While      you struggle       in-

          G5     E5                   F5         E   F5   E  F5
---------------|---------------|---------------|-----------------|
---------------|---------------|---------------|-----------------|
---------------|---------------|---------------|-----------------|
---------------|---------------|---------------|-----------------|
---------------|---------------|---------------|-----------------|
---------------|---------------|---------------|-----------------|
side    your    hell,_____________________________ow.

GuitarI&II
w/Rhy.Fig.4(2 times)
 E5                     F#5 G5   E5                       F#5 G5
---------------|---------------|---------------|-----------------|
---------------|---------------|---------------|-----------------|
---------------|---------------|---------------|-----------------|
---------------|---------------|---------------|-----------------|
---------------|---------------|---------------|-----------------|
---------------|---------------|---------------|-----------------|
(Reaching out.) Reaching out______              Grab - bing  for

E5                        G5      E  G5  E  G5   E5
---------------|---------------|---------------|-----------------|
---------------|---------------|---------------|-----------------|
---------------|---------------|---------------|-----------------|
---------------|---------------|---------------|-----------------|
---------------|---------------|---------------|-----------------|
---------------|---------------|---------------|-----------------|
something you`ve got to feel._______            (Clo-s-ing in.)

        F#5 G5  E5                      F#5 G5  E5
---------------|---------------|---------------|-----------------|
---------------|---------------|---------------|-----------------|
---------------|---------------|---------------|-----------------|
---------------|---------------|---------------|-----------------|
---------------|---------------|---------------|-----------------|
---------------|---------------|---------------|-----------------|
Clo-s-ing in.____          The  pres-sure   up - on   you     is

        F#5 G5   E5 G5  E5  G5  N.C.
---------------|---------------|---------------|-----------------|
---------------|---------------|---------------|-----------------|
---------------|---------------|---------------|-----------------|
---------------|---------------|---------------|-----------------|
---------------|---------------|---------------|-----------------|
---------------|---------------|---------------|-----------------|
so    un-  real.____________________

GuitarI&II
w/Rhy.figs.5A&5B
G5              F5              G5              F5
---------------|---------------|---------------|-----------------|
---------------|---------------|---------------|-----------------|
---------------|---------------|---------------|-----------------|
---------------|---------------|---------------|-----------------|
---------------|---------------|---------------|-----------------|
---------------|---------------|---------------|-----------------|

CHORUS
GuitarI&II
w/Rhy.fig.6
 F#5            E5              F#5             E5
---------------|---------------|---------------|-----------------|
---------------|---------------|---------------|-----------------|
---------------|---------------|---------------|-----------------|
---------------|---------------|---------------|-----------------|
---------------|---------------|---------------|-----------------|
---------------|---------------|---------------|-----------------|
            It  suits you fine.             Your  ru  -   in.___
(Struggle within)               (Struggle within)

 F#5            E5               F#5             E5
---------------|---------------|---------------|-----------------|
---------------|---------------|---------------|-----------------|
---------------|---------------|---------------|-----------------|
---------------|---------------|---------------|-----------------|
---------------|---------------|---------------|-----------------|
---------------|---------------|---------------|-----------------|
            You seal your own coffin         S-truggl-ing within._
(Struggle within)              (Struggle within)

GuitarI&II
w/Rhy.Figs.5B&5C
G5              F5              G5              F5
---------------|---------------|---------------|-----------------|
---------------|---------------|---------------|-----------------|
---------------|---------------|---------------|-----------------|
---------------|---------------|---------------|-----------------|
---------------|---------------|---------------|-----------------|
---------------|---------------|---------------|-----------------|
*****************************************************************
Guitar I
---------------|---------------|---------------|-----------------|
---------------|---------------|---------------|-----------------|
---------------|---------------|---------------|-----------------|
--2----2-------|--(2)----------|--(2)----------|--(2)------------|
--2----2-------|--(2)----------|--(2)----------|--(2)------------|
--0----0-------|--(0)----------|--(0)----------|--(0)------------|

GuitarII                              feedback
Fill3               H             ~~~~~~~~~~~~~~~~~~~~~~~~~~~
---------------|---------------|---------------|-----------------|
---------------|---3^5---------|-(5)-----------|-(5)--------(5)\-|
---------------|--X------------|---------------|-----------------|
--2----2-------|-X-------------|---------------|-----------------|
--2----2-------|---------------|---------------|-----------------|
--0----0-------|---------------|---------------|-----------------|

*****************************************************************
SOLO (I don`t bother with rhythm guitar part but it is based on
      E5 and G5 chord and sometimes are used Bb5,F#5,Ab5,F5,Gb5
      chord)

-----12-----12-----12-----12---|-----12-12-----12-12------12-----|
-15F--X-15F----15F----15F------|-15F-------15F-----X--15F--------|
-------------------------------|---------------------------------|
-------------------------------|---------------------------------|
-------------------------------|---------------------------------|
-------------------------------|---------------------------------|
                                             ~~~~~~~~~~~~~~
-----12--12-----12-12------12--|-17FR------17F-------------------|
-15F--------15F-----X--15F-----|---------------------------------|
-------------------------------|--------------------------X\-----|
-------------------------------|---------------------------------|
-------------------------------|---------------------------------|
-------------------------------|---------------------------------|
     P P     P P     P P           P P P    P P    P P   P P
-------------------------------|---------------------------------|
--/10^8^7--10^7^0--10^8^7------|-10^8^7^0--------10^8^7----------|
-------------------------------|-----------9^7^0--------9^7^0----|
-------------------------------|---------------------------------|
-------------------------------|---------------------------------|
-------------------------------|---------------------------------|
   P P   P P    P P   P P         P P
-------------------------------|---------------------------------|
-10^8^7------------------------|---------------------------------|
--------9^7^0--9^7^0-----------|---------------------------------|
----------------------9^7^0----|--9^7^0--------------------------|
-------------------------------|---------10---7--------(7)/14----|
-------------------------------|---------------------------------|

-17--19--15--19--14--19----19--|----19----19--14--19--15--19-----|
------------------------17-----|-15----17------------------------|
-------------------------------|---------------------------------|
-------------------------------|---------------------------------|
-------------------------------|---------------------------------|
-------------------------------|---------------------------------|
  H  P  P     P  P  H           P  H
19^17^15-17^15^14^15--14-------|---------------------------------|
--------------------17--17-15^14^15----14---15---17/19---X---8/--|
-------------------------------|----16---------------------------|
-------------------------------|---------------------------------|
-------------------------------|---------------------------------|
-------------------------------|---------------------------------|

      P    H  P     P      P       P        P
-------------------------------|---------------------------------|
15-18^15-14^17^15-18^15--17^14-|-18^15----17^14----18-18F--18----|
--------X--------16----16----16|-------16-------16---------------|
-------------------------------|---------------------------------|
-------------------------------|---------------------------------|
-------------------------------|---------------------------------|
    P    P
-------------------------------|---------------------------------|
-------------------------------|---------------------------------|
------------3------------------|---------3-----------------------|
--5'^0-5'^0----5---3-----------|--3---5------5-------(5)/--------|
----------------------5--------|---------------------------------|
-------------------------------|---------------------------------|

w/wah efects                                      wah off    P
-------------------------------|---------------------------------|
---------14--14---14---14------|-(14)--14------14-----14---------|
---------14--14---14---14------|-(14)--14------14-----14---------|
-------------------------------|---------------------------------|
-------------------------------|---------------------------16^14-|
-------------------------------|---------------------------------|

                                             P
-------------------------------|---------------------------------|
----14------16-----------------|-------14--17^14------------16'--|
---(14)-----16---14-------14---|--16F------------16--14--14-16F--|
-16-------------------16-------|-----------------------16--------|
-------------------------------|---------------------------------|
-------------------------------|---------------------------------|

-------------------------------|---------------------------------|
-(16)------------------16'-----|--(16)---------------------------|
-(16)---14--------14---16F-----|--(16)---14----------------------|
-------------16----------------|--------------16------16---------|
-------------------------------|---------------------------------|
-------------------------------|---------------------------------|
          H                 ~~~~~~~~~~~~~~~~~~~~~~~~~~~~~~~~~~~~
-------------------------------|---------------------------------|
-------------------------------|---17----------------------------|
---------------14-----14--16F--|-------------(16)----------------|
--(16)--14^16------16----------|---------------------------------|
-------------------------------|---------------------------------|
-------------------------------|---------------------------------|
  P              P                P                 P
18^15--15----------------------|---------------------------------|
-----18--18-15-18^15----15-----|---------------------------------|
---------------------18---17-15|17^15-15-15----------------------|
-------------------------------|------------17-15-17^15---15-----|
-------------------------------|------------------------17--17-15|
-------------------------------|---------------------------------|
  P        P                H
-------------------------------|---------------------------------|
-------------------------------|-------15------15-------(15)\----|
-------------------------------|-17----15------15-------(15)\----|
--------------------------15^17|(17)-----------------------------|
17^15-13-15^13----13-15/17-----|---------------------------------|
---------------15--------------|---------------------------------|

w/wah effects   wah off
---------------|----15---15-15-|---------------|-----------------|
--X------------|-16F--16----16F|---------------|--18F---18--18---|
--X------------|---------------|---------------|-----------------|
---------------|---------------|---------------|-----------------|
---------------|---------------|---------------|-----------------|
---------------|---------------|---------------|-----------------|

*****************************************************************
GuitarI&II

  H     P.M....   H     P.M....   H    P.M.....
---------------|---------------|---------------|-----------------|
---------------|---------------|---------------|-----------------|
*--------------|---------------|---------------|----------------*|
-----2--2-2-2-2|-----2--2-2-2-2|-----2--2-2-2-2|-7\6--5--5\4--3--|
*2^5-2--2-2-2-2|-2^5-2--2-2-2-2|-2^5-2--2-2-2-2|-7\6--5--5\4--3-*|
-0^3-0--0-0-0-0|-0^3-0--0-0-0-0|-0^3-0--0-0-0-0|-5\4--3--3\2--1--|

                Verse3
                w/Rhy.fig.3(both guitars)
P.M.....        E5      F#5 G5  E5                       F#5 G5
---------------|---------------|---------------|-----------------|
---------------|---------------|---------------|-----------------|
---------------|---------------|---------------|-----------------|
-3--3--3-------|---------------|---------------|-----------------|
-3--3--3-------|---------------|---------------|-----------------|
-1--1--1-------|---------------|---------------|-----------------|
               Reaching out for something you`ve got to  feel.___

E5                       G      E5                         G5
---------------|---------------|---------------|-----------------|
---------------|---------------|---------------|-----------------|
---------------|---------------|---------------|-----------------|
---------------|---------------|---------------|-----------------|
---------------|---------------|---------------|-----------------|
---------------|---------------|---------------|-----------------|
         While  clutching   to  what you   had thought was real._

                                w/Rhy.fig.4(2 times)
E5                          F5  E5                      F#5 G5
---------------|---------------|---------------|-----------------|
---------------|---------------|---------------|-----------------|
---------------|---------------|---------------|-----------------|
---------------|---------------|---------------|-----------------|
---------------|---------------|---------------|-----------------|
---------------|---------------|---------------|-----------------|
                                What the hell?_______

E5                      F#5 G5  E5                        G5
---------------|---------------|---------------|-----------------|
---------------|---------------|---------------|-----------------|
---------------|---------------|---------------|-----------------|
---------------|---------------|---------------|-----------------|
---------------|---------------|---------------|-----------------|
---------------|---------------|---------------|-----------------|
                What is      it you think you`re   gonna find?____

                 E5                     F#5 G5  E5
---------------|---------------|---------------|-----------------|
---------------|---------------|---------------|-----------------|
---------------|---------------|---------------|-----------------|
---------------|---------------|---------------|-----------------|
---------------|---------------|---------------|-----------------|
---------------|---------------|---------------|-----------------|
____________                    Hypo-o-crite_______

        F#5 G5  E5                        G5
---------------|---------------|---------------|-----------------|
---------------|---------------|---------------|-----------------|
---------------|---------------|---------------|-----------------|
---------------|---------------|---------------|-----------------|
---------------|---------------|---------------|-----------------|
---------------|---------------|---------------|-----------------|
Bore-dom   sets in-to       the bor-ing mind.____________________

                w/Rhy.Figs.5A&5B(both guitars)
 N.C            G5              F5              G5
---------------|---------------|---------------|-----------------|
---------------|---------------|---------------|-----------------|
---------------|---------------|---------------|-----------------|
---------------|---------------|---------------|-----------------|
---------------|---------------|---------------|-----------------|
---------------|---------------|---------------|-----------------|
______________

                w/Rhy.fig.6(both guitars)
F5              F#5             E5              F#5
---------------|---------------|---------------|-----------------|
---------------|---------------|---------------|-----------------|
---------------|---------------|---------------|-----------------|
---------------|---------------|---------------|-----------------|
---------------|---------------|---------------|-----------------|
---------------|---------------|---------------|-----------------|
                            It  suits you fine.              Your
               (Struggle within)                (Struggle within)

E5              F#5             E5              F#5
---------------|---------------|---------------|-----------------|
---------------|---------------|---------------|-----------------|
---------------|---------------|---------------|-----------------|
---------------|---------------|---------------|-----------------|
---------------|---------------|---------------|-----------------|
---------------|---------------|---------------|-----------------|
ru -      in.             You  seal your own coffin._____     S--
               (Struggle within)                (Struggle wiithin)

E5              E5              G5              F5
---------------|---------------|---------------|-----------------|
---------------|---------------|---------------|-----------------|
---------------|---------------|---------------|-----------------|
---------------|---------------|---------------|-----------------|
---------------|---------------|---------------|-----------------|
---------------|---------------|---------------|-----------------|
truggling within.__________________

G5              F5
---------------|---------------|
---------------|---------------|
---------------|---------------|
---------------|---------------|
---------------|---------------|
---------------|---------------|
*****************************************************************
Guitar I
---------------|---------------|---------------|-----------------|
---------------|---------------|---------------|-----------------|
---------------|---------------|---------------|-----------------|
--2--2---------|--(2)----------|--(2)----------|--(2)------------|
--2--2---------|--(2)----------|--(2)----------|--(2)------------|
--0--0---------|--(0)----------|--(0)----------|--(0)------------|

GuitarII             H
---------------|---------------|---------------|-----------------|
---------------|----3^5--------|---(5)---(5)\--|-----------------|
---------------|---X-----------|---------------|-----------------|
---2----2------|--X------------|---------------|---2--2------2---|
---2----2------|---------------|---------------|---2--2------2---|
---0----0------|---------------|---------------|---0--0------0---|

******************************************************************
Guitar I
---------------|---------------|---------------|
---------------|---------------|---------------|
---------------|---------------|---------------|
--(2)----------|--(2)----------|--(2)----------|
--(2)----------|--(2)----------|--(2)----------|
--(0)----------|--(0)----------|--(0)----------|

Guitar II
---------------|---------------|---------------|
---------------|---------------|---------------|
---------------|---------------|---------------|
---2--2--2--2--|---2--2----2---|---2--2--2--2--|
---2--2--2--2--|---2--2----2---|---2--2--2--2--|
---0--0--0--0--|---0--0----0---|---0--0--0--0--|

*****************************************************************

GuitarsI&II
P.M............................................
---------------|---------------|---------------|-----------------|
---------------|---------------|---------------|-----------------|
---------------|---------------|---------------|-----------------|
---2--2----2---|---2--2--2--2--|---2--2----2---|--2--------------|
---2--2----2---|---2--2--2--2--|---2--2----2---|--2--------------|
---0--0----0---|---0--0--0--0--|---0--0----0---|--0--------------|

Ufffffffff.       It`s enough. I`ve got it!:-)

Comments to Jonathan Frank (efrank@dalco.net)
mail : efrank@dalco.net
comments
print report bad tab
7 comments total. Showing first comments.
+1 reply
Rage wrote on May 7 2002, 12:00 am

Great job!!!

+1 reply
guitarplayer34 wrote on May 8 2002, 12:00 am

you copied it from the book!!! good job anyway though for typing it out!!!!!!!!!!!!!!

+1 reply
bcocoracchio wrote on May 9 2002, 12:00 am

Being the person who submitted this tab i think it is great, check out the garage inc tab i have submitted also

I want to post or [tab]
guest
You may want to rate the tab now too:
select rating
Please do not post tabs as comments. Select "correction" instead!