Oops, an error
Loading. Please wait.

Black Album Bass Tab

ver3
ver3

Album

Interactive

More versions @911Tabs.com
241 views 6 this week
no commentswrite comment
1 2 3 4 5
please rate
Autoscroll
+/-
esc
set tempo
stop
Contributor
Hey! There's an official Ultimate Guitar app which is ideal
for learning songs when you're away from computer. Get the app
WARNING: You are trying to view
                                    content from Ultimate-Guitar.com
                                    in an unauthorized application,
                                    which is prohibited.

                                    Please use an official Ultimate
                                    Guitar Tabs application for iPhone,
                                    iPad or Android to access legitimate
                                    chords, guitar, bass, and drum tabs
                                    from Ultimate-Guitar.com database.

                                    Type "ultimate guitar tabs" in Apple
                                    App Store's or Android Market's
                                    search to find the application.
Artist:    Metallica
Album:     Metallica (Black Album)
Year:      1991
Tabbed By: fraberjam

Pretty easy album to play. Still fun though. 

Tuning is standard unless otherwise stated.





Metallica-Enter Sandman

Rest 8 Bars

Intro
|-----------------|-----------------|-----------------|-----------------|
|-----------------|-----------------|-----------------|-----------------|
|-----------------|-----------------|-----------------|-----------------|
|-0-0-0-0-0-0-0-0-|-0-0-0-0-0-0-0-0-|-0-0-0-0-0-0-0-0-|-0-0-0-0-0-0-0-0-|

|-----------------|-----------------|-----------------|-----------------|
|-----------------|-----------------|-----------------|-----------------|
|-----------------|-----------------|-----------------|-----------------|
|-0-0-0-0-0-0-0-1-|-0-0-0-0-0-0-0-1-|-0-0-0-0-0-0-0-1-|-0-0-0-0-0-0-0-1-|

|-----------------|-----------------|-----------------|-----------------|
|-----------------|-----------------|-----------------|-----------------|
|-----------------|-----------------|-----------------|-----------------|
|-0-0-0-0-0-0-0-1-|-0-0-0-0-0-0-0-1-|-0-0-0-0-0-0-0-1-|-0-0-0-5---5---1-|

|-----------------|-----------------|-----------------|-----------------|
|-----------------|-----------------|-----------------|-----------------|
|-----------------|-----------------|-----------------|-----------------|
|-0-0-0-0-0-0-0-1-|-0-0-0-0-0-0-0-1-|-0-0-0-0-0-0-0-1-|-0-0-0-0-0-0-0-1-|

|-----------------|-----------------|-----------------|-----------------||
|-----------------|-----------------|-----------------|-----------------||
|-----------------|-----------------|-----------------|-----------------||
|-0-0-0-0-0-0-0-1-|-0-0-0-0-0-0-0-1-|-0-0-0-0-0-0-0-1-|-0-0-0-0-0-0-0-0-||

Riff 1
|-----------------|-----------------|-----------------|-----------------|2x this row
|-----------------|-----------------|-----------------|-----------------|
|-----------------|-----------------|-----------------|-----------------|
|---0-0-6-5-5-0-0-|---0-0-6-5-5-0-0-|---0-0-6-5---0-3-|---0-2-0-2-3-2-0-|

|-----------------|-----------------|-----------------|-----------------|
|-----------------|-----------------|-----------------|-----------------|
|-----------------|-----------------|-----------------|-----------------|
|---0-0-0-0-0-0-1-|-0-0-0-0-0-0-0-1-|-0-0-0-0-0-0-0-3-|---0-2-0-2-3-2-0-|

|-----------------|-----------------|-----------------|-----------------|
|-----------------|-----------------|-----------------|-----------------|
|-----------------|-----------------|-----------------|-----------------|
|---0-0-0-0-0-0-1-|-0-0-0-0-0-0-0-1-|-0-0-0-0-0-0-0-3-|---0-2-0-2-3-0-2-|

|-----------------|-----------------|-----------------|-----------------|
|-----------------|-----------------|-----------------|-----------------|
|---------2-------|---------2-------|---------2-------|-----------------|
|(2)------------2-|(2)------------2-|(2)------------2-|-2-2-2-2-2-0-0-1-|

|-----------------|-----------------|-----------------|-----------------|
|-----------------|-----------------|-----------------|-----------------|
|-------3-2-2-2---|-------3-2-2-2---|-------3-2-2-2---|-----5---7-5-----|
|-2-2-2---------2-|---2-2---------2-|-2-2-2---------0-|---57--7-----7-3-|

|-----------------|-----------------|-----------------||2x whole riff
|-----------------|-----------------|-----------------||
|-------3-2-2-2---|-----------------|---R-------------||
|-2---2---------0-|---0-2-0-3-0-5-0-|-3-------------0-||

Lead In
|-----------------||
|-----------------||
|---------7-7-7---||
|---0-0-0-0-0-0-0-||

Solo
|-----------------|-----------------|-----------------|-----------------|
|-----------------|-----------------|-----------------|-----------------|
|-----------------|-----------------|-----------------|-----------------|
|---0-0-6-5-5-0-0-|---0-0-6-5-5-0-0-|---0-0-6-5---0-3-|---0-2-0-2-3-2-0-|

|-----------------|-----------------|-----------------|-----------------|
|-----------------|-----------------|-----------------|-----------------|
|-----------------|-----------------|-----------------|-----------------|
|---0-0-6-5-5-0-0-|---0-0-6-5-5-0-0-|---0-0-6-5---0-3-|---0-2-0-2-3-0-2-|

|-----------------|-----------------|-----------------|-----------------|
|-----------------|-----------------|-----------------|-----------------|
|---------2-------|---------2-------|---------2-------|-----------------|
|(2)------------2-|(2)------------2-|(2)------------2-|-2-2-2-2-2-0-0-1-|

|-----------------|-----------------|-----------------|-----------------|
|-----------------|-----------------|-----------------|-----------------|
|-------3-2-2-2---|-------3-2-2-2---|-------3-2-2-2---|---7-5-----------|
|-2-2-2---------2-|---2-2---------2-|-2-2-2---------0-|---------8-7-5-3-|

|-----------------|-----------------|-----------------||
|-----------------|-----------------|-----------------||
|-------3-2-2-2---|-----------------|---R-------------||
|-2---2---------0-|-0-0-2-0-3-0-5-0-|-5---------------||

Bridge
|-----------------|-----|-----------------|-----------------|----|-----------------||
|-----------------|-11x-|-----------------|-----------------|-7x-|-----------------||
|-----------------|-----|-----------------|-----------------|----|-----------------||
|-0-0-0-0-0-0-0-1-|-----|-0-0-0-0-0-0-0-2-|-2-2-2-2-2-2-2-2-|----|-2-2-2-2-2-0-0-1-||

Riff 1a
|-----------------|-----------------|-----------------|-----------------|
|-----------------|-----------------|-----------------|-----------------|
|-------3-2-2-2---|-------3-2-2-2---|-------3-2-2-2---|---7---5-----7---|
|-2---2---------2-|---2-2---------2-|-2-2-2---------0-|-----0---0-7---3-|

|-----------------|-----------------|
|-----------------|-----------------|
|-------3-2-2-2---|-----------------|
|-2-2-2---------0-|---0-0-0-0-0-0-1-|

|-----------------|-----------------|-----------------|-----------------|
|-----------------|-----------------|-----------------|-----------------|
|-------3-2-2-2---|-------3-2-2-2---|-------3-2-2-2---|-----5---7-5-----|
|-2-2-2---------2-|---2-2---------2-|-2-2-2---------0-|---57--------7-3-|

|-----------------|-----------------|-----------------|-----------------|
|-----------------|-----------------|-----------------|-----------------|
|-------3-2-2-2---|-----------------|---R-------------|-----------------|
|-2-2-2---------0-|---0-2-0-3-0-5-0-|-3-------------0-|(0)--------------|

|-----------------||
|-----------------||
|-----------------||
|(0)------------0-||

Outro
|-----------------|----|-----------------|-----------------|
|-----------------|-4x-|-----------------|-----------------|
|-----------------|----|-----------------|-----------------|
|---0-0-6-5-5-5-0-|----|---0-0-6-5-5-0-3-|---0-2-0-2-3-2-0-|

|-----------------|----|-----------------||
|-----------------|-8x-|-----------------||
|-----------------|----|-----------------||
|-0-0-0-0-0-0-0-1-|----|-0-0-0-0-0-0-0-0-|| repeat and fade last bar





Metallica-Sad But True

D Tuning

Riff 1
|-----------------|-----------------|-----------------|-----------------|
|-----------------|-----------------|-----------------|-----------------|
|-0---------0-0-0-|-1-----------1---|-0---------0-0-0-|-1---------------|
|-----------------|-----------------|-----------------|-----------------|

|-----------------|-----------3-0---|-----------------|---R-------------||
|-----------------|---------------3-|-----------------|-3---------------||
|-0---------0-0-0-|-1---------------|-0---------0-0-0-|-1---------------||
|-----------------|-----------------|-----------------|-----------------||

Drums

Riff 2
|-----------------|-----------------|-----------------|-----------------|
|-----------------|-----------------|-----------------|-----------------|
|-7-----7-7-5010--|-7-----7-7-5010--|-7-----7-7-5010--|-7-----7-7-5055~-|
|-0-----0-0-----30|-0-----0-0-----30|-0-----0-0-----30|-0-----0-0-------|

|-----------------|-----------------|-----------------|-----------------|
|-----------------|-----------------|-----------------|-----------R-----|
|-7-----7-7-5010--|-7-----7-7-5010--|-7-----7-7-5010--|-7-----7-7-------|
|-0-----0-0-----30|-0-----0-0-----30|-0-----0-0-----30|-0-----0-0-------|

|-----------------|-----------------|-----------------|-----------------||
|-----------------|-----------------|-----------------|-----------------||
|-R---------------|-----------------|-7-----7-7-5010--|-7-----7-7-5010--||
|-----------------|-----------------|-0-----0-0-----30|-0-----0-0-----30||

Riff 3
|-----------------|-----------------|-----------------|-----------------|2x this row
|-----------------|-----------------|-----------------|-----------------|
|-------5-----R---|-------------R---|-------5-----R---|-------------R---|
|-0-0-00--0-0---00|-0-0-0-6-0-0---00|-0-0-00--0-0---00|-0-0-0-6-0-0---00|

|-----------------|-----------------|-----------------|-----------------||2x this row
|-------0---------|-------0---------|-----------------|-----| |---------||
|-----------------|-----------------|-----------------|-----333-3-------||
|-0-0-11--1-0-0-00|-0-0-11--0-5-5-55|-5-55543-5-3-3-33|-3-3-------0--013||

Riff 2a
|-----------------|-----------------|-----------------|-----------------|
|-----------------|-----------------|-----------------|-----------------|
|-7-----7-7-5010--|-7-----7-7-5010--|-7-----7-7-5010--|-7-----7-7-5055~-|
|-0-----0-0-----30|-0-----0-0-----30|-0-----0-0-----30|-0-----0-0-------|

|-----------------|-----------------|-----------------||
|-----------------|-----------R-----|-----------------||
|-7-----7-7-5010--|-7-----7-7-------|-R---------------||
|-0-----0-0-----30|-0-----0-0-------|-----------------||

Play Riff 3

Riff 2b
|-----------------|-----------------|-----------------||
|-----------------|-----------------|-----------------||
|-7-----7-7-5010--|-7-----7-7-5010--|-7-----7-7---010-||
|-0-----0-0-----30|-0-----0-0-----30|-0-----0-0-03---3||

Play Riff 1
Drums

Solo 1
|-----------------|-----------------|-----------------|-----------------|
|-----------------|-----------------|-----------------|-----------------|
|-7-----7-7-5010--|-7-----7-7-5010--|-7-----7-7-5010--|-7-----7-7-50----|
|-0-----0-0-----30|-0-----0-0-----30|-0-----0-0-----30|-0-----0-0---0035|

|-----------------|-----------------|-----------------|----||
|-----------------|-----------------|-----------------|-4x-||
|-7-----7-7-5010--|-7-----7-7---010-|-----------------|----||
|-0-----0-0-----30|-0-----0-0-03---3|-5-5-663-6-5-5-55|----||

Play Second Row of Riff 3 – 2x

Solo 2
|-----------------|-----------------|-----------------|-----------------|
|-----------------|-----------------|-----------------|-----------------|
|-7-----7-7-5010--|-7-----7-7---010-|-7-----7-7-5010--|-7-----7-7---010-|
|-0-----0-0-----30|-0-----0-0-03---3|-0-----0-0-----30|-0-----0-0-03---3|

|-----------------|-----------------|-----------------|---------||
|-----------R-----|-----------------|-----------------|---------||
|-7-----7-7-------|-R---------------|-----------------|---------||
|-0-----0-0-------|-----------------|-----------------|---------||

Riff 3a
|-----------------|-----------------|-----------------|-----------------|
|-----------------|-----------------|-----------------|-----------------|
|-------5-----R---|-------------R---|-------5-----R---|-----------------|
|-0-0-00--0-0---00|-0-0-0-6-0-0---00|-0-0-00--0-0---00|-0-0-0-6-0-6-0-6-|

|-----------------|-----------------|-----------------|-----------------|
|-----------------|-----------------|-----------------|-----------------|
|-------5-----R---|-------------R---|-------5-----R---|-------------R---|
|-0-0-00--0-0---00|-0-0-0-6-0-0---00|-0-0-00--0-0---00|-0-0-0-6-0-0---00|

|-----------------|-----------------|-----------------|-----------------||2x this row
|-------0---------|-------0---------|-----------------|-----| |---------||
|-----------------|-----------------|-----------------|-----333-3-------||
|-0-0-11--1-0-0-00|-0-0-11--0-5-5-5-|-5-5-663-5-3-3-33|-3-3-------0-110-||

Outro
|-----------------|-----------------|-----------------|-----------------|
|-----------------|-----------------|-----------------|-----------R-----|
|-7-----7-7-5010--|-7-----7-7-5010--|-7-----7-7-5010--|-7-----7-7-------|
|-0-----0-0-----30|-0-----0-0-----30|-0-----0-0-----30|-0-----0-0-------|

|-----------------|-----------------|-----||
|-----------------|-----------------|-----||
|-R---------------|-----------------|-7---||
|-----------------|-----------------|-0---||





Metallica-Holier Than Thou

Intro
|---|-----------------|-----|-----------------||
|---|-----------------|-23x-|-----------------||
|-7-|---------------7-|-----|---0-1---0-1-----||
|-0-|---0-000-000-0-0-|-----|-------3-----3-0-||

Riff 1
|-----------------|-----------------|-----------------|-----------------|
|-----------------|-----------------|-----------------|-----------------|
|---0-1---0-1-----|---0-1---0-1-----|---0-1---0-1-----|---0-1---0-1-----|
|-------3-----3-0-|-------3-----3---|-0-----3-----3-0-|-------3-----3---|

|-----------------|-----------------|-----------------|-----------------|
|-----------------|-----------------|-----------------|-----------------|
|---0-1---0-1-----|---0-1---0-1-----|---0-1---0-1-----|---0-1---0-1-----|
|-0-----3-----3-0-|-------3-----3---|-0-----3-----3-0-|-------3-----0---|

|-----------------|-----------------||
|-----------------|-----------------||
|-----------------|---0-1---0-1-----||
|(0)--------------|-------3-----3---||

Riff 2
|-----------------|-----------------|-----------------|-----------------|
|-----------------|-----------------|-----------------|-----------------|
|-----------------|-----------------|-----------------|-----------------|
|-3-3-3-3-3-3-3-3-|-3-3-3-3-3-3-0-0-|-0-0-0-0-0-0-0-0-|-0-0-0-0-0-0-3-3-|

|-----------------|-----------------|-----------------|-----------------|
|-----------------|-----------------|-----------------|-----------------|
|-----------------|-----------------|-----------------|---------------1-|
|-3-3-3-3-3-3-3-3-|-3-3-3-3-3-3-0-0-|-0-0-0-0-0-0-0-0-|-0-0-0-0-0-0-0---|

|-----------------|-----------------|-----------------|-----------------|
|-----------------|-----------------|-----------------|-----------------|
|---1-1-0-1-0---7-|---------------7-|---------------7-|---0-1---0-1-----|
|-------------3-0-|---0-000-000-0-0-|---0-000-000-0-0-|-------3-----3---|

|-----------------|-----------------|-----------------|-----------------|
|-----------------|-----------------|-----------------|-----------------|
|-----------------|-----------------|-----------------|-----------------|
|-3-3-3-3-3-3-3-3-|-3-3-3-3-3-3-0-0-|-0-0-0-0-0-0-0-0-|-0-0-0-0-0-0-3-3-|

|-----------------|-----------------|-----------------|-----------------|-----------------||
|-----------------|-----------------|-----------------|-----------------|-----------------||
|-----------------|-----------------|-----------------|---------------1-|---1-1-0-1-0-----||
|-3-3-3-3-3-3-3-3-|-3-3-3-3-3-3-0-0-|-0-0-0-0-0-0-0-0-|-0-0-0-0-0-0-0---|-------------3-0-||

Riff 1a
|-----------------|-----------------|-----------------|-----------------|
|-----------------|-----------------|-----------------|-----------------|
|---0-1---0-1-----|---0-1---0-1-----|---0-1---0-1-----|---0-1---0-1-----|
|-------3-----3-0-|-------3-----3---|-0-----3-----3-0-|-------3-----3---|

|-----------------|-----------------|-----------------|-----------------|
|-----------------|-----------------|-----------------|-----------------|
|---0-1---0-1-----|---0-1---0-1-----|---0-1---0-1-----|---0-1---0-1---7-|
|-0-----3-----3-0-|-------3-----3---|-0-----3-----3-0-|-------3-----3-0-|

|-----------------|-----------------|-----------------|-----------------|
|-----------------|-----------------|-----------------|-----------------|
|---------------7-|---------------7-|---------------7-|---0-1---0-1-----|
|---0-000-000-0-0-|---0-000-000-0-0-|---0-000-000-0-0-|-------3-----0---|

|-----------------|-----------------||
|-----------------|-----------------||
|-----------------|---0-1---0-1-----||
|(0)--------------|-------3-----3---||

Play Riff 2

Riff 1b
|-----------------|-----------------|-----------------|-----------------|
|-----------------|-----------------|-----------------|-----------------|
|---0-1---0-1-----|---0-1---0-1-----|---0-1---0-1-----|---0-1---0-1-----|
|-------3-----3-0-|-------3-----3---|-0-----3-----3-0-|-------3-----3---|

|-----------------|-----------------|-----------------|-----------------|
|-----------------|-----------------|-----------------|-----------------|
|---0-1---0-1-----|---0-1---0-1-----|---0-1---0-1-----|---0-1---0-1---7-|
|-0-----3-----3-0-|-------3-----3---|-0-----3-----3-0-|-------3-----3-0-|

|-----------------|-----------------|-----------------|-----------------|
|-----------------|-----------------|-----------------|-----------------|
|---------------7-|---------------7-|---------------7-|---0-1---0-1-----|
|---0-000-000-0-0-|---0-000-000-0-0-|---0-000-000-0-0-|-------3-----0---|

|-----------------|-----------------||
|-----------------|-----------------||
|-----------------|-----------------||
|(0)------------3-|(3)--------2-1-0-||

Riff 3
|-----------------|-----------------|2x this row
|-----------------|-----------------|
|-----------------|---------1-0-----|
|---0-0-0-0-0-0-0-|---0-0-0-----3-0-|

|-----------------|-----------------|---------|2s this row
|-----------------|-----------------|---------|
|-----------------|---------1-0-----|---------|
|---0-0-0-0-0-0-0-|---0-0-0-----3-0-|---1-1-0-|

|-----------------|-----------------|-----------------|-----------------|
|-----------------|-----------------|-----------------|-----------------|
|-----------------|---------1-0-----|-----------------|-----------------|
|---0-0-0-0-0-0-0-|---0-0-0-----3-0-|---1-1-2---2-2-3-|---3-3-4---4-444-|

|---------|-----------------||
|---------|-----------------||
|---------|-----------------||
|-444-4-4-|---4-444-444-3-0-||

Solo
|-----------------|-----------------|-----------------|-----------------|
|-----------------|-----------------|-----------------|-----------------|
|-----------------|-----------0-1---|-----------------|-----------0-1---|
|---0-000-000-0-3-|---0-000-0-------|-000-000-000-0-3-|---0-000-0-------|

|-----------------|-----------------|-----------------|-----------------|
|-----------------|-----------------|-----------------|-----------------|
|-----------------|-----------0-1---|-----------------|---0-1---0-1-----|
|-000-000-000-0-3-|---0-000-0-------|-000-000-000-0-3-|-------3-----3---|

|-----------------|-----------------|-----------------|-----------------|
|-----------------|-----------------|-------------2---|-----------------|
|-----------------|-----------------|-----------------|---0-1---0-1-----|
|-3-3-3-3-3-3-3-3-|-3-3-3-3-3-3-0-0-|-0-0-0-0-0-0-----|-------3-----3---|

|-----------------|-----------------|-----------------|-----------------|
|-----------------|-----------------|-----------------|-----------------|
|-----------------|---------------1-|---1-1-0-1-0---7-|---------------7-|
|-3-3-3-3-3-3-3-3-|-3-3-3-3-3-3-3---|-------------3-0-|---0-000-000-0-0-|

|-----------------|-----------------|-----------------||
|-----------------|-----------------|-----------------||
|---------------7-|---------------7-|---------7-------||
|---0-000-000-0-0-|---0-000-000-0-0-|---0-0-0-------0-||

Outro
|-----------------|-----------------|-----------------|-----------------|
|-----------------|-----------------|-----------------|-----------------|
|---0-1---0-1-----|---0-1---0-1-----|---0-1---0-1-----|---0-1---0-1-----|
|-------3-----3-0-|-------3-----3---|-0-----3-----3-0-|-------3-----3---|

|-----------------|-----------------|-----------------|-----------------|2x this row
|-----------------|-----------------|-----------------|-----------------|
|---0-1---0-1-----|---0-1---0-1-----|---0-1---0-1-----|---0-1---0-1-----|
|-0-----3-----3-0-|-------3-----3---|-0-----3-----3-0-|-------3-----3---|

|-----------------|-----------------|-----------------|-----------------|
|-----------------|-----------------|-----------------|-----------------|
|---0-1---0-1-----|---0-1---0-1-----|---0-1---0-1-----|---0-1---0-1---7-|
|-0-----3-----3-0-|-------3-----3---|-0-----3-----3-0-|-------3-----3-0-|

|-----------------|-----------------|-----------------|-----------------|
|-----------------|-----------------|-----------------|-----------------|
|---------------7-|---------------7-|---------------7-|---0-1---0-1-----|
|---0-000-000-0-0-|---0-000-000-0-0-|---0-000-000-0-0-|-------3-----0---|

|-----------------|-----------------|-----------------|-----------------||
|-----------------|-----------------|-----------------|-----------------||
|-----------------|---0-1---0-1-----|-----------------|---0-1-----R-----||
|---0-----0-----0-|-------3-----3---|---3-----3-----3-|-------0-0-------||





Metallica-The Unforgiven

Rest For a Bit

Riff 1
|-----------------|-----------------|-----------------|-----------------|
|-----------------|-----------------|-----------------|-----------------|
|-0-----2-3-------|--------------02-|-0---0-2-3-------|-------------2-02|
|-----------------|-3-----3-0-------|-----------------|-3-----3-0-0-----|

|-----------------|-----------------||
|-----------------|-----------------||
|-0---------------|-0---------------||
|-----------------|-----------------||

Riff 2
|-----------------|-----------------|-----------------|-----------------|
|-----------------|-------7-7-7-7-7-|-----------------|-----------7-7---|
|-0-0-3-7-7-7-7-5-|-5-5-5-0-0-0-0-0-|-0-0-3-7-7-7-7-5-|-5-555-0-0-0-0-0-|
|---------0-0-0---|-----------------|---------0-0-0---|----------------3|

|-----------------|-----------------|-----------------|---------|
|-----------------|-------7-7-7-7-7-|-----------------|---------|
|-0-0-3-7-7-7-7-5-|-5-5-5-0-0-0-0-0-|-0-0-3-7-7-7-7-5-|-5-5-5-0-|
|---------0-0-0---|-----------------|---------0-0-0---|---------|

|-----------------|-----------------|-----------------|-----------------|---------|
|-----90--70--50--|-----------------|-----90--70--50--|-----------------|---------|
|-0-00--00--00--00|-3----530--------|-0-00--00--00--00|-3----530--------|-----7---|
|-----------------|---------3---33--|-----------------|---------3---33--|-0-------|

|-----------------|-----------------|-----------------|-----------------|2x this row
|-----------------|-----5-----------|-----------------|-----5-----------|
|-0-----2-3-------|--------------02-|-0---0-2-3---3---|-------------2-02|
|-----------------|-3-----3-0-------|-----------------|-3-----3-0-------|

|-----------------|-----------------||2x Whole Riff
|-----------------|-----------------||
|-0---------------|-0---------------||
|-----------------|-----------------||

Lead In
|-----------------|----|-----------------||
|-----------------|-4x-|------/7-777-777-||
|-0---------------|----|-0---------------||
|-----------------|----|-----------------||

Riff 2a
|-----------------|-----------------|-----------------|-----------------|
|-----------------|-------7-7-7-7-7-|-----------------|-----------7-7---|
|-0-0-3-7-7-7-7-5-|-5-5-5-0-0-0-0-0-|-0-0-3-7-7-7-7-5-|-5-555-0-0-0-0-0-|
|---------0-0-0---|-----------------|---------0-0-0---|----------------3|

|-----------------|-----------------|-----------------|---------|
|-----------------|-----------------|-----------------|---------|
|-0-0-3-7-7-7-7-5-|-5-555-0-0---0-0-|-0-0-3-7-7-7-7-5-|-5-5-5-0-|
|---------0-0-0---|-----------3----3|---------0-0-0---|---------|

|-----------------|-----------------|--------02520----|-----------------|---------|
|-----90--70--50--|-----------------|-------2-----20--|-----------------|---------|
|-0-00--00--00--00|-3----530--------|-0-0003--------02|-3----530--------|---------|
|-----------------|---------3-------|-----------------|---------3---33--|-0-------|

|-----------------||
|-----------------||
|-----------------||
|-0---------------||

End
|-----------------|-----------------|-----------------|-----------------||Repeat
|-----------------|-----5-----------|-----------------|-----5-----------||And
|-0-----2-3-------|--------------02-|-0---0-2-3---3---|-------------2-02||Fade
|-----------------|-3-----3-0-------|-----------------|-3-----3-0-------||





Metallica-Wherever I May Roam

Intro (after 12 bars)
|-----------------|-----------------|-----------------|-----------------|
|-----------------|-----------------|-----------------|-----------------|
|-7---------------|(7)--------------|-----------------|-----------------|
|-0---------------|(0)--------------|-0---------------|(0)--------------|

|-----------------|-----------------|-----------------|-----------------|
|-----------------|-----------------|-----------------|-----------------|
|-7---------------|-----------------|-----------------|-----------------|
|-0---------------|-0---------------|-0---------------|(0)--------------|

|---------|-----------------|
|---------|-----------------|
|---------|-----------------|
|(0)------|-5---6---7---8---|

Riff 1
|-----------------|-----------------|-----------------|-----------------|
|-----------------|-----------------|-----------------|-----------------|
|-7---------------|-----------------|-----------------|-----------------|
|-0-0-0-0-0-0-0-0-|-0-0-0-0-0-0-1-1-|-0-0-0-0-0-0-0-0-|-5-5-6-6-7-7-8-8-|

|-----------------|-----------------|-----------------|-----------------||
|-----------------|-----------------|-----------------|-----------------||
|-----------------|-----------------|-----------------|-----------------||
|-0-0-0-0-0-0-0-0-|-0-0-0-0-3-5-1-1-|-0-0-0-0-0-1-0-0-|-5-5-6-6-7-7-8-8-||

Lead In
|-----------------|-----------------|-----------------|-----------------|---------|
|-----------------|-----------------|-----------------|-----------------|---R-----|
|-5-6-7-8-----7---|-----------------|-----------------|-----------------|-5-------|
|---------0-0-----|-0-0-0-0-0-0-1-1-|-0-0-0-0-0-0-0-0-|-5-5-6-6-7-7-8-8-|---------|

|-----------------|-----------------|-----------------|-----------------||
|-----------------|-----------------|-----------------|-----------------||
|---------7-------|---------7-------|-----------------|-----------------||
|-0-------------0-|-0---0-----------|-1---1---------0-|-1-0-1-----1-3-1-||

Riff 2
|-----------------|-----------------|-----------------|-----------------||
|-----------------|-----------------|-----------------|-------------3---||
|-----------------|---------7-------|-----------------|-----------------||
|-0---0-0-0---0-0-|-0---0-0---------|-1---1-1-1---1-1-|-1-0-1---1-------||

Riff 3 (a big one)
|-----------------|-----------------|-----------------|-----------------|
|-----------------|-----------------|-----------------|-----------------|
|-----------------|-----------------|-----------------|-----------------|
|-0---0---0---0-0-|-0---0---0---3-5-|-6---6-6-6---6-6-|-6---6---6---6-6-|

|-----------------|-----------------|-----------------|-----------------|
|-----------------|-----------------|-----------------|-----------------|
|-----------------|-----------------|-----------------|-----------------|
|-5---5-5-5---5-5-|-5---5---5---5-5-|-6---6-6-6---6-6-|-6---6---6---0-0-|

|-----------------|-----------------|-----------------|-----------------|
|-----------------|-----------------|-----------------|-----------------|
|-----------------|-----------------|-----------------|-----------------|
|-0---0---0---0-0-|-0---0---0---3-5-|-6---6-6-6---6-6-|-6---6---6---6-6-|

|-----------------|-----------------|-----------------|-----------------|
|-----------------|-----------------|-----------------|-----------------|
|-----------------|-----------------|-----------------|-----------------|
|-3---3-3-3---3-3-|-3---3---3---3-3-|-6---6-6-6-6-6-6-|-6---6---6---6---|

|-----------------|-----------------|
|-----------------|-----------------|
|-----------------|-5-6-7-8-7-8-7---|
|-6---6---7---8---|-----------------|

|-----------------|-----------------|-----------------|
|-----------------|-----------------|-----------------|
|-----------------|-----------------|-----------------|
|-0---0-0-3-5-1-1-|-0---0-0-0-1-0-0-|-5-5-6-6-7-7-8-8-|

|-----------------|-----------------|-----------------|-----------------|
|-----------------|-----------------|-----------------|-----------------|
|-----------------|-----------------|-----------------|-----------------|
|-1-1-1-1-1-1-1-1-|-1-1-1-1-1-3-1-1-|-0-0-0-0-0-0-0-0-|-0-0-0-0-0-0-3-5-|

|-----------------|-----------------|-----------------|-----------------|
|-----------------|-----------------|-----------------|-----------------|
|-----------------|-----------------|-----------------|-----------3-----|
|-6-6-6-6-6-6-6-6-|-6-6-6-6-6-6-6-0-|-5---5-3-5---5-3-|-5---5-3-5---5-3-|

|-----------------|-----------------||
|-----------------|-----------------||
|-----------------|-----------------||
|-3---3-3-3---3-3-|-0-3---0-3-3-3-3-||

Play Riff 1

Lead In
|---------||
|-----R---||
|-5-------||
|---------||

Play Riff 2
Play Riff 3

Fill
|-----------------|-----------------|-----------------|-----------------|
|-----------------|-----------------|-----------------|-------------1---|
|-----------------|-------------3---|-----------------|-----------------|
|-0-0-0-0-0-0-0-0-|-0-0-0-0-110---1-|-0-0-0-0-0-0-0-0-|-0-0-0-0-2-3-----|

|-----------------|-----------------|-----------------|-----------------||
|-----------------|-----------------|-----------------|-------------1---||
|-----------------|-----------------|-----------------|-----------------||
|-0-0-0-0-0-1-0-0-|-0-0-0-0-0-1-3-1-|-0-0-0-0-0-0-0-0-|-0-0-0-0-2-3-----||

Riff 3a
|-----------------|-----------------|-----------------|-----------------|
|-----------------|-----------------|-----------------|-----------------|
|-----------------|-----------------|-----------------|-----------------|
|-1-1-1-1-1-1-1-1-|-1-1-1-1-1-3-1-1-|-0-0-0-0-0-0-0-0-|-0-0-0-0-0-0-3-5-|

|-----------------|-----------------|-----------------|-----------------|
|-----------------|-----------------|-----------------|-----------------|
|-----------------|-----------------|-----------------|-----------3-----|
|-6-6-6-6-6-6-6-6-|-6-6-6-6-6-6-6-0-|-5---5-3-5---5-3-|-5---5-3-5---5-3-|

|-----------------|-----------------||
|-----------------|-----------------||
|-----------------|-----------------||
|-3---3-0-3---3---|-3---------3-2-1-||

Play Riff 1

Lead In
|---------||
|-----R---||
|-5-------||
|---------||

Riff 2a
|-----------------|-----------------|-----------------|-----------------|
|-----------------|-----------------|-----------------|-----------------|
|---------7-------|---------7-------|-----------------|-----------------|
|-0---0-0-----0-0-|-0---0-0-----3-5-|-6---6---6---6-5-|-6-5-6---6---6-6-|

|-----------------|-----------------|-----------------|-----------------|
|-----------------|-----------------|-----------------|-----------------|
|-----------------|-----------------|-----------------|-----------------|
|-3---3---3---3-0-|-3---3-------3-5-|-6---6-6-6---6-5-|-6-5-6---6---6-5-|

|-----------------|-----------------|
|-----------------|-----------------|
|-----------------|-5-6-7-8-7-8-7---|
|-6---6---7---8---|-----------------|

|-----------------|-----------------|-----------------|-----------------||
|-----------------|-----------------|-----------------|-----R-----------||
|-----------------|-----------------|-----------------|-5---------------||
|-0---0-0-3-5-1-1-|-0---0-0-0-1-0-0-|-5-5-6-6-7-7-8-8-|-----------------||

Riff 3b
|-----------------|-----------------|-----------------|-----------------|
|-----------------|-----------------|-----------------|-----------------|
|-----------------|-----------------|-----------------|-----------------|
|-1-1-1-1-1-1-1-1-|-1-1-1-1-1-1-3-1-|-0-0-0-0-0-0-0-0-|-0-0-0---0-1-3-5-|

|-----------------|-----------------|-----------------|-----------------|
|-----------------|-----------------|-----------------|-----------------|
|-----------------|-----------------|-----------------|-----------3-----|
|-6-6-6-6-6-6-6-6-|-6-6-6-6-6-6-6-6-|-5---5-3-5---5-3-|-5---5-3-5---5-3-|

|-----------------|-----------------|-----------------|-----------------|
|-----------------|-----------------|-----------------|-----------------|
|-----------------|-----------------|-3-----0-3-----0-|-3---3-------5-3-|
|-3-----0-3-----0-|-0-3-3-0-0-3-0-0-|-----------------|-----------------|

|-----------------|-----------------||
|-----------------|-----------------||
|-2-2-2-2-2-2-2-2-|-1-1---1---------||
|-----------------|-----------0-3-2-||

Outro
}-----------------|-----------------|-----------------|-----------------|
|-----------------|-----------------|-----------------|-----------------|
|-----------------|-----------------|-----------------|-----------------|
|-0-0-0-0-0-1-0-0-|-0-0-0-0-3-5-1-1-|-0-0-0-0-0-1-0-0-|-5-5-6-6-7-7-8-8-|

}-----------------|-----------------|-----------------|-----------------||Repeat
|-----------------|-----------------|-----------------|-----------------||And Fade
|-5-6-7-7---------|-----------------|-----------------|-----------------||This Row
|---------0-1-0---|-0-0-0-0-3-5-1-1-|-0-0-0-0-0-1-0-0-|-5-5-6-6-7-7-8-8-||





Metallica-Don't Tread On Me

Intro
|-------------------------|---|---|-------------------------|-------------------------|
|-------------------------|-%-|-%-|-------------------R-----|-------------------R-----|
|-------------------R-----|-%-|-%-|-------------2---2-------|-------------5---5-------|
|-0-0-0-------0---0-------|---|---|-0-0-0-------------------|-3-3-3-------------------|

|-------------|-------------------------|-------------------------|
|-------------|-------------------------|-------------------------|
|-3-3-3-------|-7-----------------R-----|-------R-----------R-----|
|-------------|-----0-------0---0-------|-0---0-------0---0-------|

|-------------------------|---|---|---|---|-------------------------||
|-------------------------|-%-|-%-|-%-|-%-|-------------------------||
|-------------------R-----|-%-|-%-|-%-|-%-|-------------------------||
|-0-0-0-------0---0-------|---|---|---|---|-0-0-0-----1-0---1-3---1-||

Riff 1
|-------------------------|-------------------------||4x
|-------------------------|-------------------------||
|-------2-----------2-----|-------2-----------------||
|-0-0-0-----1-0---0-----1-|-0-0-0-----1-0---1-3---1-||

Riff 2
|-------------------------|-------------------------|
|-------------------------|-------------------------|
|-------------------R-----|-------------------R-----|
|-0-0-0-------0---0-------|-0-0-0-------1---1-------|

|-------------------------|-------------------------||2x
|-------------------------|-------------------------||
|-------------------------|---------------------5---||
|-2-2-2---1-2-3---3---2-3-|-4-4-4---3-4-5---6/7---7-||

Play Riff 1

Riff 1a
|-------------------------|-------------------------||
|-------------------------|-------------------------||
|-------------------------|-------------------------||
|-0-000-1-0-0-0-000-3-0-0-|-0-000-5-0-0-6-0-5-0-3-0-||

Riff 3
|-------------------------|-------------------------|
|-------------------------|-------------------------|
|-------------------------|-------------------------|
|-0---0-1-0-0-0---0-0-0-0-|-0---0-1-0-0-0-0-2-3---3-|

|-------------------------|-------------------------|
|-------------------------|-------------------------|
|-5---5-0-5-0-5---5-5-5-0-|-------------------------|
|-------------------------|-3---3-0-3-3/4---5---6\--|

|-------------------------|-------------------------|
|-------------------------|-------------------------|
|-------------------------|-------------------------|
|-0---0-1-0-0-0---0-0-0-0-|-0---0-1-0-0-0-0-2-3---3-|

|-------------------------|-------------------------|-------------------------||
|-------------------------|-------------------------|-------------------------||
|-5---5-0-5-0-5---0-5-5-0-|-------------------------|-------------------------||
|-------------------------|-3---3-0-3-3-3---3---3---|-0-000-1-0-0-0-000-3-0-0-||

Play Riff 1 - 2x
Play Riff 2 - 2x
Play Riff 3 - 2x
Play Riff 1
Play Riff 1a
Play Riff 3

Riff 4
|-------------------------|-------------||
|-------------------------|-------------||
|-------------1-----------|-R-----------||
|-3-333-3-3-3-----3---1---|-------10\---||

Play Riff 2 - 4x [solo]

Solo
|-------------------------|-------------------------|-------------------------|
|-------------------------|-------------------------|-------------------------|
|-------------------R-----|-R-----------------------|-------R-----------------|
|-0-0-0---0-0-0---0-------|---------------0-0-0-----|-1---1-------------------|

|-------------------------|-------------------------|-------------------------|
|-------------------------|-------------------------|-------------------------|
|---------------------R---|---------------------5---|-------------------------|
|-2-2-2---------3---3-----|-4-4-4-------5---6/7---7-|-0-000-1-0-0-0-000-3-0-1-|

|-------------------------|-------------------------|
|-------------------------|-------------------------|
|-------------------------|-------------------------|
|-0-000-1-0-0-0-000-3-0-0-|-0-000-5-0-0-6-0-0-5-0-0-|

|-------------------------|-------------------------|-------------------------||
|-------------------------|-------------------------|-------------------------||
|-------------------------|-------------------------|-------------------------||
|-0-000-1-0-0-0-000-3-0-0-|-0-000-5-0-0-6-0-5-0-3-0-|-0-000-1-0-0-0-000-3-0-0-||

Riff 3a
|-------------------------|-------------------------|
|-------------------------|-------------------------|
|-------------------------|-------------------------|
|-0---0-1-0-0-0---0-0-0-0-|-0---0-1-0-0-0-0-2-3---3-|

|-------------------------|-------------------------|
|-------------------------|-------------------------|
|-5---5-0-5-0-5---5-5-5-0-|-------------------------|
|-------------------------|-3---3-0-3-3/4---5---6\--|

|-------------------------|-------------------------|
|-------------------------|-------------------------|
|-------------------R-----|-------------------R-----|
|-0-0-0-------0---0-------|-0-0-0-------1---1-------|

|-------------------------|-------------------------||
|-------------------------|-------------------------||
|-------------------------|---------------------5---||
|-2-2-2---1-2-3---3---2-3-|-4-4-4---3-4-5---6/7---7-||

Play Riff 3
Play Riff 4 (without last note)





Metallica-Through The Never

Rest 12 bars

Intro
|-----------------||
|-----------------||
|-----------------||
|-------------3---||

Riff 1
|-----------------|----|-----------------|-----------------|----|-----------------|
|-----------------|-3x-|-----------------|-----------------|-3x-|-----------------|
|-----4-------3---|----|-----4-----------|-----4-------3---|----|-----R-----------|
|-0-2---2-0-2---2-|----|-0-2---2-0-2-3---|-0-2---2-0-2---2-|----|-0-0---------3---|

|-----------------|----|-----------------|-----------------|----|-----------------||
|-----------------|-3x-|-----------------|-----------------|-3x-|-----------------||
|-----4-------3---|----|-----4-----------|-----4-------3---|----|-----R-----------||
|-0-2---2-0-2---2-|----|-0-2---2-0-2-3---|-0-2---2-0-2---2-|----|-0-0-------------||

Guitar

Riff 2
|-----------------|-----------------|-----------------|-----------------|
|-----------------|-----------------|-----------------|-------------0-2-|
|-----------------|-----------------|-----------------|-0-1-0-----------|
|-0---0-0-0-0-0-0-|-0-0-0-0-0-0-0-0-|-0-5-----0-6-----|-------3-1-0-----|

|-----------------|-----------------|-----------------|-----------------|
|-3-2-------------|-----------------|-----------------|-------------0-2-|
|-----------------|-----------------|-----------------|-0-1-0-----------|
|-----0-0-0-0-0-0-|-0-0-0-0-0-0-0-0-|-0-5-----0-6-----|-------3-1-0-----|

|-----------------|-----------------|-----------------|-----------------|
|-3-2-------------|-----------------|-----------------|-----------------|
|-----------------|---------7-5-----|-----------------|-----------5-7---|
|-----0-0-0-0-0-0-|-0-0-5-7-----7-5-|-0-0-0-0-0-0-0-0-|-0-0-0-5-7-----0-|

|-----------------|-----------------|-----------------|-----------------|
|-----------------|-----------------|-----------------|-----------------|
|-----------------|-----------5-7---|-----------------|-----------------|
|-0-0-0-0-0-0-0-0-|-0-0-0-5-7-----0-|-0-5-----0-6-----|-0-0-0-0-0-0-0-0-|

|-----------------|-----------------|-----------------|-----------------|
|-----------------|-----------------|-----------------|-----------------|
|---------7-5-----|-----------------|-----------------|-----------------|
|-0-0-0-0-----7-5-|-3-3-3-3-3-3-3-3-|-3-3-3-3-3-3-3-3-|-2-2-2-2-2-2-2-2-|

|-----------------|-----------------|-----------------||
|-----------------|-----------------|-------------0-2-||
|-----------------|-----------------|-0-1-0-----------||
|-2-2-2-2-2-2-2-2-|-0-5-----0-6-----|-------3-1-0-----||

Riff 3
|-----------------|-----------------|-----------------|-----------------|
|-----------------|-----------------|-----------------|-----------------|
|-----4-------3---|-----4-------3---|-----4-------3---|-----4-------3---|
|-0-2---2-0-2---2-|-0-2---2-0-2---2-|-0-2---2-0-2---2-|-0-2---2-0-2---2-|

|-----------------|----|-----------------|-----------------|---------||
|-----------------|-4x-|-----------------|-----------------|---------||
|-----------------|----|-----R-------R---|-----R-------R---|---------||
|-0h2-2-2-0h2-2-2-|----|-0-2-----0-2-----|-0-2-----0-2-----|-----3---||

Riff 1a
|-----------------|----|-----------------|-----------------|----|-----------------|
|-----------------|-3x-|-----------------|-----------------|-3x-|-----------------|
|-----4-------3---|----|-----4-----------|-----4-------3---|----|-----R-----------|
|-0-2---2-0-2---2-|----|-0-2---2-0-2-3---|-0-2---2-0-2---2-|----|-0-0-------------|

|-----------------||
|-------------0-2-||
|-0-1-0-----------||
|-------3-1-0-----||

Play Riff 2

Riff 3a
|-----------------|-----------------|-----------------|-----------------|
|-----------------|-----------------|-----------------|-----------------|
|-----4-------3---|-----4-------3---|-----4-------3---|-----4-------3---|
|-0-2---2-0-2---2-|-0-2---2-0-2---2-|-0-2---2-0-2---2-|-0-2---2-0-2---2-|

|-----------------|----|-----------------|-----------------|
|-----------------|-4x-|-----------------|-----------------|
|-----------------|----|-----R-------R---|-----R-------R---|
|-0h2-2-2-0h2-2-2-|----|-0-2-----0-2-----|-0-2-----0-2-----|

|-R---2-3-2-0-------|-----------------||
|-------------3-2-0-|-----------------||
|-------------------|-----R---R---R---||
|-------------------|-0-1---2---3---4-||

Solo
|-----------------|----|-----------------|-----------------|----|-----------------|
|-----------------|-3x-|-----------------|-----------------|-3x-|-----R---R---R---|
|-0-2-2-2-0-2-2-2-|----|-0-2-2-2-0-2-3---|-0-2-2-2-0-2-2-2-|----|-0-0---0---3---3-|
|-----------------|----|-----------------|-----------------|----|-----------------|

|-----------------|----|-----------------|-----------------|----|-----------------|
|-----------------|-3x-|-----------------|-----------------|-3x-|---------R---R---|
|-0-2-2-2-0-2-2-2-|----|-0-2-2-2-0-2-3---|-0-2-2-2-0-2-2-2-|----|-----R-----3---3-|
|-----------------|----|-----------------|-----------------|----|-0-0---0---------|

|-----------------|----|-----------------|-----------------|----|-----------------|
|-----------------|-3x-|-----------------|-----------------|-4x-|-----------------|
|-----------------|----|/1212121212123---|-----------------|----|-----R-------R---|
|-3-5-5-5-3-5-5-5-|----|-----------------|-0h2-2-2-0h2-2-2-|----|-0-2-----0-2-----|

|---------------------|
|---------------------|
|-----R-------R-------|
|-0-2-----0-2---------| rest a bit. come in with long slide

Riff 4
|-----------------|-----------------||16x
|-----------------|-----------------||
|-----------------|-1---------------||
|-0---0-0-3---0-0-|-----3---3---3---||

Lead In
|-----------------|-----------------|-----------------|-----------------||
|-----------------|-----------------|-----------------|-----------------||
|-----------------|-----------------|-----------------|-----------------||
|-0---------------|(0)--------------|(0)--------------|(0)----------3---||

Riff 3b
|-----------------|-----------------|-----------------|-----------------|
|-----------------|-----------------|-----------------|-----------------|
|-----4-------3---|-----4-------3---|-----4-------3---|-----4-------3---|
|-0-2---2-0-2---2-|-0-2---2-0-2---2-|-0-2---2-0-2---2-|-0-2---2-0-2---2-|

|-----------------|----|-----------------|
|-----------------|-4x-|-----------------|
|-----------------|----|-----R-------R---|
|-0h2-2-2-0h2-2-2-|----|-0-2-----0-2-----|

|-----------------|----|-----------------|-----------------|---------|
|-----------------|-2x-|-----------------|-----------------|---------|
|-----------------|----|-----R-------R---|-----R-------R---|---------|
|-0h2-2-2-0h2-2-2-|----|-0-2-----0-2-----|-0-2-----0-2-----|-----3---|

|-----------------|-----------------|-----------------|-----------------||
|-----------------|-----------------|-----------------|-----------------||
|-----4-------3---|-----4-------3---|-----4-------3---|-----R-----------||
|-0-2---2-0-2---2-|-0-2---2-0-2---2-|-0-2---2-0-2---2-|-3-3-------------||





Metallica-Nothing Else Matters

Rest For a Good While

Riff 1
|-------------|-------------|-------------|-------------|
|-------------|-------------|-------------|-------------|
|-------7-----|-5-----3-----|-------7-----|-5-----3-----|
|-0-----------|-----------32|-0-----------|-----------32|

|-------------|-------------|-------------|-------------|-------------||2x
|-------------|-------------|-------------|-------------|-------------||
|-------7-----|-5-----3-----|-------2-----|-------7-----|-------7\----||
|-0-----------|-----------32|-3-----------|-0-----------|-00-00-----32||

Riff 1a
|-------------|-------------|-------------|-------------|
|-------------|-------------|-------------|-------------|
|-------7-----|-5-----3-----|-------7-----|-5-----3-----|
|-0-----------|-----------32|-0-----------|-----------32|

|-------------|-------------|-------------|-------------|-------------||
|-------------|-------------|-------------|-------------|-------------||
|-------7-----|-5-----3-----|-------2-----|-------7-----|-3-----0-----||
|-0-----------|-----------32|-3-----------|-0-----------|-------------||

Riff 2
|-------------|-------------|-------------|-------------|-------|
|-------------|-------------|-------------|-------------|-------|
|-5-5-5-5-5-5-|-3-----0-----|-5-5-5-5-5-5-|-3-----0-----|-5-5-5-|
|-------------|-------------|-------------|-------------|-------|

|-------------|-------------||
|-------------|-------------||
|-------------|-7-----------||
|-0-----------|-------0---32||

Riff 1b
|-------------|-------------|-------------|-------------|
|-------------|-------------|-------------|-------------|
|-------7-----|-5-----3-----|-------7-----|-5----/10----|
|-0-----------|-----------32|-0-----------|-----------32|

|-------------|-------------|-------------|-------------|-------------||
|-------------|-------------|-------------|-------------|-------------||
|-------7-----|-5-----3-----|-------2-----|-------7-----|-3-----0-----||
|-0-----------|-----------32|-3-----------|-0-----------|-------------||

Play Riff 2

Riff 3
|-------------|-------------|-------------|-------------|
|-------------|-------------|-------------|-------------|
|---7-77--7-77|---7-77--7---|-------------|-------------|
|-0-----0-----|-0-----0---7\|-5----------5|-5---------5/|

|-------------|-------------|-------------|-------------|
|-------------|-------------|-------------|-------------|
|-------------|-5-----5-5-57|-------7---7-|-------------|
|-8-----8-8-78|-------------|-0------0-0--|-0--------032|

|-------------|-------------|-------------|-------------|
|-------------|-------------|-------7-----|-------------|
|---7-77--7-77|---7-77--7---|-----------7-|-------------|
|-0-----0-----|-0-----0---7\|-5-----------|-5---------5/|

|-------------|-------------|-------------|-------------||
|-------------|-------7---5-|-------------|-------------||
|-------------|-5-------5---|-7---------7-|-7-----------||
|-8-----8-8-78|-------------|-------0-----|-------0---32||

Play Riff 1
Play Riff 1a

Riff 2a
|-------------|-------------|-------------|-------------|
|-------------|-------------|-------------|-------------|
|-5-5-5-5-5-5-|-3-----0-----|-5-5-5-5-5-5-|-3-----0-----|
|-------------|-------------|-------------|-------------|

|-------------|-------------|-------------|-------------|-------|
|-------------|-------------|-------------|-------------|-------|
|-5-5-5-5-5-5-|-3-----0-----|-5-5-5-5-5-5-|-3-----0-----|-5-5-5-|
|-------------|-------------|-------------|-------------|-------|

|-------------|-------------||
|-------------|-------------||
|-------------|-------------||
|-0-----------|-000000000000||

Outro (let last note ring out)
|-------------|-------------|-------------|-------------|
|-------------|-------------|-------------|-------------|
|-------7---7-|-5---5-3-----|-------7---7-|-5---5-3-----|
|-0---0-------|-----------32|-0---0-------|-----------32|

|-------------|-------------|-------------|-------------||
|-------------|-------------|-------------|-------------||
|-------7---7-|-5---5-3-----|-------2-----|-------------||
|-0---0-------|-----------32|-3---------0-|-0-----------||





Metallica-Of Wolf And Man

Intro
|-----------------|-----------------|----|
|-----------------|-----------------|-5x-|
|-R---------------|---R---R---R---R-|----|
|-----------------|-0---0---0---0---|----|

|-----------------|-----------------|-----------------|-----------------|2x this row
|-----------------|-----------------|-----------------|-----------------|
|-----------------|-----------------|-----------------|-----------------|
|-0---------------|(0)--------------|(0)--------------|(0)--------------|

Riff 1
|-----------------|-----------------|-----------------|-----------------|
|-----------------|-----------------|-----------------|-----------------|
|---------R-------|-R-------R-------|-R-------R-------|-R-------R-------|
|-0-000-------0---|-----0-------0---|-----0-------0---|-----0-------0---|

|-----------------|-----------------|-----------------|-----------------||
|-----------------|-----------------|-----------------|-----------------||
|---------R-------|-R-------R-------|-R-------R-------|-------------2-1-||
|-0-000-------0---|-----0-------0---|-----0-------0---|-0-001-0-0-00----||

Riff 2
|-----------------|-----------------|-----------------|-----------------||3x
|-----------------|-----------------|-----------------|-----------------||
|-----------2---1-|-----------------|-----------2---1-|-----------------||
|-0-001-0-0---0---|---0-0-0-0-0-0-0-|-0-001-0-0---0---|---0-0-0-0-0-0-0-||

Riff 3
|-----------------|---------|-----------------|-----------------|
|-----------------|---------|-----------------|-----------------|
|---R---R---R---R-|---2---1-|---1-1-1-1-1-1-1-|-----------2---1-|
|-0---0---0---0---|-0---0---|-----------------|-0-0-1-0-0---0---|

|-----------------|-----------------|-----------------|-----------------|
|-----------------|-----------------|-----------------|-----------------|
|---1-1-1-1-1-1-1-|-----------4---3-|---3-3-3-3-3-3---|-----------4---3-|
|-----------------|-0-0-1-0-0---0---|---------------0-|-2-2-3-2-0---0---|

|-----------------|-----------------|-----------------||
|-----------------|-----------------|-----------------||
|---3-3-3-3-3-3---|-----------------|---R---R---R-----||
|---------------0-|-2-223-2-2-223-2-|-2---2---2---12\-||

Riff 2a
|-----------------|-----------------|-----------------|-----------------||
|-----------------|-----------------|-----------------|-----------------||
|-----------2---1-|-----------------|-----------2---1-|-----575-57--57--||
|-0-001-0-0---0---|---0-0-0-0-0-0-0-|-0-001-0-0---0---|---0----7--------||

Play Riff 2 - 2x
Play Riff 3

Lead In
|-----------------|-----------------|-----------------|-----------------|
|-----------------|-----------------|-----------------|-----------------|
|---------R---7---|(7\)-----R---7---|(7\)-----R---7---|(7\)-----R---7\--|
|-0-000-----------|-----0-----------|-----0-----------|-----0-----------|

|-----------------|-----------------||
|-----------------|-----------------||
|-----------------|-----------------||
|-0---------------|(0)--------------||

Solo
|-----------------|-----------------|-----------------|-----------------|2x this row
|-----------------|-----------------|-----------------|-----------------|
|-----------------|-----------------|-----------------|---R---------R---|
|-0-001-0-0-000-00|-0-001-0-0-000-00|-0-001-0-0-000-00|-3---3-----1---1-|

|-----------------|-----------------|-----------------|-----------------|
|-----------------|-----------------|-----------------|-----------------|
|-----------2---1-|---1-1-1-1-1-1-1-|-1-1-1-1-1-4---3-|---3-3-3-3-3-3\--|
|-0-0-1-0-0---0---|-----------------|-----------------|-----------------|

|-----------------|-----------------|-----------------|
|---R---R---R---R-|-----------------|-----------------|
|-3---4---5---6---|-----------2---1-|-----575-57--57--|
|-----------------|-0-001-0-0---0---|---0----7--------|

|-----------------|-----------------|-----------------|-----------------||
|-----------------|-----------------|-----------------|-----------------||
|-----------2---1-|-----575-57--57--|(7)--------------|-----------------||
|-0-001-0-0---0---|---0----7--------|---------3-0-332-|(2)--------------||

Lead In
|-----------------|-----------------|----||
|-----------------|-----------------|-7x-||
|-----------------|-----------------|----||
|-0---------------|(0)--------------|----||

Riff 1a
|-----------------|-----------------|-----------------|-----------------|
|-----------------|-----------------|-----------------|-----------------|
|---------R-------|-R-------R-------|-R-------R-------|-R-------R-------|
|-0-000-------0---|-----0-------0---|-----0-------0---|-----0-------0---|

|-----------------|-----------------|-----------------|-----------------|
|-----------------|-----------------|-----------------|-----------------|
|-------------4-3-|-------------4-3-|-------------4-3-|-------------4-3-|
|-2-223-2-2-22----|-2-223-2-2-22----|-2-223-2-2-22----|-2-223-2-2-22----|

|-----------------|-----------------||
|---R---R---R---R-|---R---R---R-----||
|-3---4---5---6---|-4---5---6---7\--||
|-----------------|-----------------||

Riff 3a
|---------|-----------------|-----------------|-----------------|
|---------|-----------------|-----------------|-----------------|
|---2---1-|---1-1-1-1-1-1-1-|-----------2---1-|---1-1-1-1-1-1-1-|
|-0---0---|-----------------|-0-0-1-0-0---0---|-----------------|

|-----------------|-----------------|-----------------|-----------------|
|-----------------|-----------------|-----------------|-----------------|
|-----------4---3-|---3-3-3-3-3-3---|-----------4---3-|---3-3-3-3-3-3---|
|-0-0-1-0-0---0---|---------------0-|-2-2-3-2-0---0---|---------------0-|

|-----------------|-----------------|-----------------|-----------------|
|-----------------|-----------------|-----------------|-----------------|
|-----------------|---2---1---1-1-1-|-1-1-1-1-1-4---3-|-3-----------3\--|
|-2-223-2-2-223-2-|-0---0-----------|-----------------|-----------------|

Outro
|-----------------|-----------------|-----------------|-----------------|
|-----------------|-----------------|-----------------|-----------------|
|-3---4---5---6\--|-----------2---1-|-----575-57--57--|-----------2---1-|
|-----------------|-0-001-0-0---0---|---0----7--------|-0-001-0-0---0---|

|-----------------|-----------------|-----------------|-----------------||
|-----------------|-----------------|-----------------|-----------------||
|-----575-57--57--|(7)--------------|-----------------|---R---R---R---R-||
|---0----7--------|---------3-0-332-|(2)--------------|-0---0---0---0---||





Metallica-The God That Failed

Eb Tuning

Intro
|-----------------|-----------------|-----------------|-----------------|2x this row
|-----------------|-----------------|-----------------|-----------------|
|-----------------|-----------------|---------557-----|-----------------|
|-330-0-0-770-0-0-|-330-7-0-330-5-0-|-330-0-0-----0-0-|-330-7-0-330-5-0-|

|-----------------|-----------------|-----------------|-----------------|
|-----------------|-----------------|-----------------|-----------------|
|-----------------|-----------------|---------557-----|-----------R-----|
|-330-0-0-770-0-0-|-330-7-0-330-5-0-|-330-0-0-----0-0-|-330-7-0-0-----53|

|-----------------|-----------------|-----------------|-----------------||
|-----------------|-----------------|-----------------|-----------------||
|-----------------|-----------------|-----------------|-----------------||
|-200-0-0-100-0-0-|-100-3-0-100-0-0-|-100-0-0-100-0-0-|-100-3-0-100-0-0-||

Riff 1
|-----------------|-----------------|-----------------|-----------------|
|-----------------|-----------------|-----------------|-----------------|
|-----------------|-----------------|-----------------|-----------------|
|-100-0-0-100-0-0-|-100-3-0-100-0-0-|-100-0-0-100-0-0-|-100-3-0-011-1-1-|

|-----------------|-----------------|-----------------|-----------------|
|-----------------|-----------------|-----------------|-----------------|
|-----------------|-----------------|-----------------|-----------------|
|-101-1-1-101-1-1-|-101-303-011-1-1-|-101-1-1-101-1-1-|-101-303-30000000|

|-----------------|-----------------|
|-----------------|-----------------|
|-----------------|-----------------|
|-330-0-0-770-0-0-|-330-7-0-330-5-0-|

|-----------------|---------|-----------------|---------|
|-----------------|---------|-----------------|---------|
|-----------------|---------|-----------------|---------|
|-30-000-000-000-0|-0-003333|-77-777-777-777-7|-7-775555|

|-----------------|---------|-----------------|-----------------|-----------------||
|-----------------|---------|-----------------|-----------------|-----------------||
|-----------------|---------|-----------------|-----------------|-----------------||
|-30-000-000-000-0|-0-003333|-7777777777777777|-77777777777757\-|-3---------------||

Lead In
|-----------------|-----------------|-----------------|-----------------||
|-----------------|-----------------|-----------------|-----------------||
|-----------------|-----------------|---------557-----|-----------R-----||
|-330-0-0-770-0-0-|-330-7-0-330-5-0-|-330-0-0-----0-0-|-330-7-0-0-----53||

Play Riff 1

Solo
|-----------------|-----------------|-----------------|-----------------|
|-----------------|-----------------|-----------------|-----------------|
|-----------------|-----------------|-----------------|-----------------|
|-00-000-0000-005-|-7-7777-7787-775-|-330-0-0-770-0-0-|-330-7-0-330-5-0-|

|-----------------|-----------------|-----------------|-----------------|
|---------------5-|-----------------|-----------------|-----------------|
|-----------5577--|-----------------|-----------------|-----------------|
|-3300335577------|-7700777875323320|-330-12\-770-12\-|-330-7-0-330-5-0-|

|-----------------|-----------------|-----------------|-----------------|
|-----------------|-----------------|-----------------|-----------------|
|-----------------|-----5-----------|-----------------|-----------------|
|-33357-533-577-5-|-7-78-87-7-7-7-7-|-330-12\-770-12\-|-330-7-0-330-5-0-|

|-----------------|-----------------|-------------------||
|-----------------|-----------------|-454------454------||
|-----------------|-----------------|----7542-----7542--||
|-33303---303-303-|-7-77787-7-7-7-7-|--------53-------53||

Riff 1a
|-----------------|-----------------|-----------------|-----------------|
|-----------------|-----------------|-----------------|-----------------|
|-----------------|---------------7\|-----------------|-----------------|
|-200-0-0-100-0-0-|-100-3-0-100-0---|-100-0-0-100-0-0-|-100-3-0-0-------|

|-----------------|
|-----------------|
|-----------------|
|(0)------30003000|

|-----------------|---------|-----------------|-----------------|-----------------||
|-----------------|---------|-----------------|-----------------|-----------------||
|-----------------|---------|-----------------|-----------------|-----------------||
|-30-000-000-000-0|-0-003333|-7777777777777777|-77777777777757\-|-3---------------||

Lead In
|-----------------|-----------------|-----------------|-----------------||
|-----------------|-----------------|-----------------|-----------------||
|-----------------|-----------------|---------557-----|-----------R-----||
|-330-0-0-770-0-0-|-330-7-0-330-5-0-|-330-0-0-----0-0-|-330-7-0-0-------||

Riff 1b
|-----------------|-----------------|-----------------|-----------------|
|-----------------|-----------------|-----------------|-----------------|
|-----------------|-----------------|-----------------|-----------------|
|-100-0-0-100-0-0-|-100-3-0-100-0-0-|-100-0-0-100-0-0-|-100-3-0-100-0-0-|

|-----------------|---------|-----------------|---------|
|-----------------|---------|-----------------|---------|
|-----------------|---------|-----------------|---------|
|-30-000-000-000-0|-0-003333|-77-777-777-777-7|-7-775555|

|-----------------|---------|-----------------|-----------------|-----------------|
|-----------------|---------|-----------------|-----------------|-----------------|
|-----------------|---------|-----------------|-----------------|-----------------|
|-30-000-000-000-0|-0-003333|-7777777777777777|-77777777777757\-|-3---------------|

|-----------------|-----------------|-----------------|-----------------|
|-----------------|-----------------|-----------------|-----------------|
|-----------------|-----------------|-----------------|-----------------|
|-330-000000000-00|-0000000000000-00|-7777777777777-77|-30-000-000-000-0|

|-----------------|-----------------|-----------------|-----------------||
|-----------------|-----------------|-----------------|-454-------------||
|-----------------|-----------------|---R-------R-----|----7542---R-----||
|-00-000-070-000-0|-3000700030007000|-0-------0-------|--------32-------||





Metallica-My Friend Of Misery

Riff 1
|---10----10----10|-14----12----10--|---9-----9-----9-|-12----10----9---||8x
|-----12----12----|---12----12----12|-----10----10----|---10----10----10||
|-0-----0-----0---|-----0-----0-----|-0-----0-----0---|-----0-----0-----||
|-----------------|-----------------|-----------------|-----------------||

Riff 2
|-----------------|-----------------|-----------------|-----------------|4x this row
|-----------------|-----------------|-----------------|-----------------|
|-----------------|-------------3---|-----------------|-----------------|
|-5-5-5-5-5-5-5-5-|-5-5-5-5-5-5---3-|-5-5-5-5-5-5-5-5-|-5-5-5-5-5-5-3-5-|

|-----------------|-----------------|
|-----------------|-----------------|
|---R-------------|---R-------------|
|-5-----------5---|-5---------------|

|-----------------|-----------------|-----------------|-----------------|2x this row
|-----------------|-----------------|-----------------|-----------------|
|-----0-2-3-4-----|---0-0---0-2--20-|-----0-2-3-4-----|---0-0-1-2-------|
|-2-2---------2-2-|-0---------------|-2-2---------0-0-|-0---------0-0-0-|

|-----------------|-----------------||
|-----------------|-----------------||
|-----------------|-----------------||
|-0-0-0-0-0-0-0-0-|-0-0-0-0-0-0-0-5-||

Play Riff 1 - 2x
Play Riff 2
Play Riff 1 - 8x
Play Riff 2 (third row 4x)

Riff 2a (let last note ring)
|-----------------|-----------------|-----------------|-----------------|4x this row
|-----------------|-----------------|-----------------|-----------------|
|-----0-2-3-4-----|---0-0---0-2--20-|-----0-2-3-4-----|---0-0-1-2-------|
|-2-2---------2-2-|-0---------------|-2-2---------0-0-|-0---------0-0-0-|

|-----------------|-----------------|-----------------|-----------------|
|-----------------|-----------------|-----------------|-----------------|
|-----R-----------|-----R-----------|-----R-----------|-----R-----------|
|-2-2---------0-1-|-2-2-------0-3---|-222---------0-1-|-2-2-------0-3---|

|-----------------|-----------------|-----------------|-----------------|
|-----------------|-----------------|-----------------|-------------4---|
|-----R-----------|-----------------|-----------------|-----------------|
|-2-2-----2-2-0-1-|-2-2-2-2-2-0-3-3-|-2-2-2-2-2-2-0-1-|-2-2-2-2-2-0-----|

|-----------------|-----------------|-----------------|-----------------|
|-----------------|-----------------|-----------------|-----------------|
|-----0-2-3-4-----|---0-0---0-2--20-|-----0-2-3-4-----|---0-0-1-2-------|
|-2-2---------2-2-|-0---------------|-2-2---------0-0-|-0---------0-0-0-|

|-----------------|-----------------|-----------------|-----------------||
|-----------------|-----------------|-----------------|-----------------||
|-----------------|-----------------|-----------4---R-|---0-0-1-2-------||
|-2-2-2-2-2-2-2-2-|-2-2-2-2-2-2-2-2-|-2-2-2-1-0---0---|-----------0-----||





Metallica-The Struggle Within

Drums

Intro
|-----------------|-----------------|-----------------|-----------------|3x this row
|-----------------|-----------------|-----------------|-----------------|
|-7---------------|(7)--------------|(7)--------------|-5---------------|
|-0---------------|(0)--------------|(0)--------------|-------------7---|

|-----------------|-----------------||
|-----------------|-----------------||
|-----R-----------|-----R---7-R-----||
|-0-0---0-0-0-0-0-|-0-0---0-0-------|| rest 5 bars

Lead In
|-----------------|---------||
|-----------------|---------||
|-----------------|-R-------||
|-------------3---|---------||

Riff 1
|-----------------|----|-----------------|2x |-------------|
|-----------------|-4x-|-----------------|---|-------------|
|-----R-----------|----|-----R-----------|---|-------------|
|-0-0---0-0-0-2/3-|----|-0-0---0-0-0-1---|   |-0-1---0-1---|

|-----------------|----|-----------------|-------------||2x this row
|-----------------|-2x-|-----------------|-------------||
|-----R-----------|----|-----R-----------|-------------||
|-0-0---0-0-0-2/3-|----|-0-0---0-0-0-3---|-0-3---0-3---||

Rest

Riff 2
|-----------------|-----------------||2x
|-----------------|-----------------||
|-----------------|-----------------||
|-3-3-----3-5-----|-1-1-----3-5-----||

Riff 3
|-----------------|-----------------|-----------------|-----------------|
|-----------------|-----------------|-----------------|-----------------|
|-----------------|-----------------|-----------------|-----------------|
|-2-------2-------|-0-0---0-0---0---|-2-------2-------|-0-0---0-0---0---|

|-----------------|-----------------|-----------------|-----------------||
|-----------------|-----------------|-----------------|-----------------||
|-----------------|-------------7-9-|-----------------|-----------------||
|-2-------2-------|-0---5---7-9-----|-2-------2-------|-0-0---0-0---0---||

Play Riff - 2x

Lead In
|-----------------|-----------------|-----------------|-----------------|
|-----------------|-----------------|-----------------|-----------------|
|---R-------------|-----------------|-----------------|-----------------|
|-0-----0---------|(0)--------------|(0)--------------|(0)--------------|

|-----------------|-----------------|-----------------||
|-----------------|-----------------|-----------------||
|-----------------|-----------------|-----------------||
|(0)--------------|(0)--------------|(0)------0-0-2-3-||

Riff 1a
|-----------------|----|-----------------|
|-----------------|-3x-|-----------------|
|-----R-----------|----|-----R-----------|
|-0-0---0-0-0-2/3-|----|-0-0---0-0-0-1---|

|-----------------|----|-----------------|-------------|
|-----------------|-4x-|-----------------|-------------|
|-----R-----------|----|-----R-----------|-------------|
|-0-0---0-0-0-2/3-|----|-0-0---0-0-0-1---|-0-1---0-1---|

|-----------------|----|-----------------|-------------||2x this row
|-----------------|-2x-|-----------------|-------------||
|-----R-----------|----|-----R-----------|-------------||
|-0-0---0-0-0-2/3-|----|-0-0---0-0-0-3---|-0-3---0-3---||

Rest
Play Riff 2 - 2x
Play Riff 3
Play Riff 2 - 2x

Lead In
|-----------------|-----------------|-----------------|-----------------||
|-----------------|-----------------|-----------------|-----------------||
|---R-------------|-----------------|-----------------|-----------------||
|-0-----0---------|(0)--------------|(0)--------------|(0)--------------||

Solo
|-----------------|----|-----------------|2x |-----------------|----|-----------------|2x
|-----------------|-3x-|-----------------|---|-----------------|-3x-|-----------------|
|-----R-----------|----|-----R-----------|---|-----R-----------|----|-----R-----------|
|-0-0---0-0-0-2-3-|----|-0-0---0-0-0-3---|   |-3-3---3-3-3-5-6-|----|-3-3---3-3-3-6---|

|-----------------|-----------------|-----------------|-----------------|
|-----------------|-----------------|-----------------|-----------------|
|-----------------|-----------------|-----------------|-----------------|
|-2-------2-------|-0-0---0-0---0---|-2-------2-------|-0-0---0-0---0---|

|-----------------|-----------------|-----------------|-----------------|
|-----------------|-----------------|-----------------|-----------------|
|-----------------|-------------7-9-|-----------------|-----------------|
|-2-------2-------|-0---5---7-9-----|-2-------2-------|-0-------0-------|

|-----------------|----|-----------------|-------------|
|-----------------|-3x-|-----------------|-------------|
|-----R-----------|----|-----R-----------|-------------|
|-3-3---3-3-3-5-6-|----|-3-3---3-3-3-4---|-0-4---0-4---|

|-------------|-------------|-----------------||
|-------------|-------------|-----------------||
|-------------|-------------|---------R-------||
|-3-3-3-3-4---|-0-4---0-4---|-3-3-3-----------||

Riff 4
|-----------------|----|-----------------|2x |-----------------||
|-----------------|-3x-|-----------------|---|-----------------||
|-----------------|----|-----------------|---|-------R---------||
|-0-3-0---0-0-0-0-|----|-5-4-3---3-2-1---|   |-1-2-1-----------||

Riff 1b
|---------|-----------------|----|-----------------|-------------|
|---------|-----------------|-3x-|-----------------|-------------|
|---------|-----R-----------|----|-----R-----------|-------------|
|-0-0-2/3-|-0-0---0-0-0-2/3-|----|-0-0---0-0-0-1---|-0-1---0-1---|

|-----------------|----|-----------------|-------------||2x this row
|-----------------|-2x-|-----------------|-------------||
|-----R-----------|----|-----R-----------|-------------||
|-0-0---0-0-0-2/3-|----|-0-0---0-0-0-3---|-0-3---0-3---||

Rest
Play Riff 2 - 2x
Play Riff 3
Play Riff 2 - 2x

Outro
|-----------------|-----------------|-----------------|-----------------|---------|
|-----------------|-----------------|-----------------|-----------------|---------|
|---R-------------|-----------------|-----------------|-----------------|---------|
|-0-----0---------|(0)--------------|(0)--------------|(0)--------------|(0)------|

|-----------------|-----------------|-----------------|-----------------||
|-----------------|-----------------|-----------------|-----------------||
|-----------------|-----------------|-----R-----------|-----R-----R-----||
|(0)--------------|(0)--------------|-0-0---0-0-0-0-0-|-0-0---0-0-------||



Lets do it again!!!!
comments
We did not receive enough feedback on this tab! Please rate:
print report bad tab
1 2 3 4 5
I want to post or [tab]
guest
You may want to rate the tab now too:
select rating
Please do not post tabs as comments. Select "correction" instead!