Oops, an error
Loading. Please wait.

Bleeding Me Live Bass Tab

786 views 1 this week
1 commentread comment
1 2 3 4 5
worth learning
x 1
Autoscroll
+/-
esc
set tempo
stop
Contributor
Difficulty
intermediate
Hey! There's an official Ultimate Guitar app which is ideal
for learning songs when you're away from computer. Get the app
WARNING: You are trying to view
                                    content from Ultimate-Guitar.com
                                    in an unauthorized application,
                                    which is prohibited.

                                    Please use an official Ultimate
                                    Guitar Tabs application for iPhone,
                                    iPad or Android to access legitimate
                                    chords, guitar, bass, and drum tabs
                                    from Ultimate-Guitar.com database.

                                    Type "ultimate guitar tabs" in Apple
                                    App Store's or Android Market's
                                    search to find the application.
Band: Metallica
Album: S&M
Bassist: Jason Newsted
TUNING: 5 String Standard (BEADG) 



  Moderate Rock Q=116
 4/4
  Gtr I
    Wx6    H    Q  Q     Q.    E E  E Q     H    H   H   E   E E  E
|--------|------------|-------------------|--------|----------------|
|--------|------------|-------------------|--------|-----------9----|
|--------|---------5S=|=10----10-9h10-9\--|------7-|--------10---10-|
|--------|------------|-------------------|-0------|-0--(0)---------|
|--------|------------|-------------------|--------|----------------|


    Q    Q  H   Q.   E E E Q      Q  E E H
|-------------|-----------------|----------|
|-------------|-----------------|----------|
|-(10)\-----7-|----------2------|----7-5-7-|
|--------0----|-0----2s3---3b4--|-0--------|
|-------------|-----------------|----------|


  Q.   E  Q  E  E     Q   E E E E E E   Q E E E E Q
|-----------------|-------------------|-------------|
|------------9----|-------------------|-------------|
|------7s10----10-|-(10)\-----7-5-----|-------------|
|-0---------------|-------0-0-----7-6-|-3-3-3-2-3-2-|
|-----------------|-------------------|-------------|


  Q  E E Q  E E   Q  E E E E E E      Q   E E Q  E E   Q  E E E E Q
|---------------|------------------|-----------------|---------------|
|---------------|------------------|-----------------|---------------|
|---------------|------------------|-----------------|---------------|
|---------------|--------------3b4-|-(3)-------------|------------5--|
|-5--5-3-5--5-3-|-5--5-3-5-3-5-----|------5-3-5--5-3-|-5--5-3-5-3----|


  Q  E E Q  E E   Q  E E E E E E      Q   Q  E E E E   Q.   E E E E E
|---------------|------------------|-----------------|----------------||
|---------------|------------------|-----------------|----------------||
|---------------|------------------|-----------------|----------------||
|---------------|--------------3b4-|-(3)-------------|-3----3-2h3-2s3-||
|-5--5-3-5--5-3-|-5--5-3-5-3-5-----|------5--5-3-3-0-|----------------||


    Q  E E H      q  E E E E E E      Q   E E Q  E E   Q  E E E E E E
||--------------|------------------|-----------------|-----------------|
||o-------------|------------------|-----------------|-----------------|
||--------------|------------------|-----------------|-----------------|
||o-------------|--------------3b4-|-(3)-------------|----------5------|
||--5--5-3-5----|-5--5-0-5-3-5-----|------5-3-5--5-3-|-5--5-3-5---3-3--|


  q  E E Q.   E   Q  E E E E E E   q  Q  E E E E   Q.   E E E Q
|---------------|----------------|---------------|---------------|
|---------------|----------------|---------------|---------------|
|---------------|----------------|---------------|---------------|
|---------------|--------------3-|---------------|-3----3-2h3-2--|
|-5--5-3-5----3-|-5--5-3-5-3-5---|-5--5--5-3-5-0-|---------------|


  q  E E Q.   E   Q  E E E E E E      Q   E E Q.   E   Q  E E E E E E
|---------------|------------------|-----------------|----------------|
|---------------|------------------|-----------------|----------------|
|---------------|------------------|-----------------|----------------|
|---------------|--------------3b4-|-(3)-------------|----------5-----|
|-5--5-3-5----3-|-5--5-0-5-3-5-----|------5-3-5----3-|-5--5-3-5---3-3-|


  q  E E Q.   E   Q  E E E E a E E   Q  a E E  E  E E E   Q  E E E E E E
|---------------|------------------|--------------------|------------------|
|---------------|------------------|--------------------|------------------|
|---------------|------------------|--------------------|------------------|
|---------------|----------------3-|--------------------|-3--3-2-2-3-2-0---|
|-5--5-3-5----3-|-5--5-3-5-0-3s5---|-5--3h5-5-(5)-3-3-0-|------------------|


  E E E E Q  E E   E E E E  Q   Q      Q  E E Q  E S S   Q  E E  E  E E E
|----------------|------------------|------------------|------------------|
|----------------|------------------|---------7--------|----------------5-|
|-5h7-----7--7-7-|-7-5--------------|-/5----5----5-----|-7--7-7-(7)-------|
|-----0-0--------|-----5s7-10--10\--|-----5--------5h7-|------------5h7---|
|----------------|------------------|------------------|------------------|


                                         1.
                                                                        ~
               |-3-|
  E E Q  E E E S S S   E E E E E E  Q    q  E E Q S S S S   Q E E E S S Q
|--------------------|-----------------|------------------|----------------|
|--------------------|---7----------7--|------------------|---------9s7-5--|
|-7-7----7-7-7-------|-5---5---5-------|-5--5-5-5---------|----------------|
|-----0--------5h6h7-|-------5---5-----|----------------3-|-5-5-5----------|
|--------------------|-----------------|----------3h5-5---|----------------|


  q  E E Q.   E   Q  E E E E E E      Q   E E Q  E E   Q  E E E E Q
|---------------|------------------|-----------------|---------------|
|---------------|------------------|-----------------|---------------|
|-7-------------|------------------|-----------------|---------------|
|---------------|--------------3b4-|-(3)-------------|------------5--|
|----5-3-5----3-|-5--5-0-5-3-5-----|------5-3-5----3-|-5--5-3-5-3----|


  q  E E Q  E E   Q  E E E E E E      Q   Q  E E a E E   Q  E E E E E E
|---------------|------------------|-------------------|-----------------||
|---------------|------------------|-------------------|----------------o||
|---------------|------------------|-------------5s7---|-----------------||
|---------------|--------------3b4-|-(3)-----3-5-----0-|-3--3-3-2-3-2-3-o||
|-5--5-3-5--5-3-|-5--5-0-5-3-5-----|------5------------|-----------------||


  2.
                                                  $
                                                  $$
   Q  E E Q  S S S S   E.  S S S S S E S S E E    Q  E E Q.   E
|--------------------|-------------------------||------------------|
|-------5------------|---------------7-7-7-7---||------------------|
|-/5--5---5----------|-----------------------7-||--------7---------|
|----------------2-3-|-5---5-5-5-5-5-----------||-0--0-0------5----|
|------------3-5-----|-------------------------||------------------|


         |3-| |-3-|
  Q  E E Q  E E E E   E E E E Q  E E   E E E E  E E Q   Q E E Q  E E
|-------------------|----------------|----------------|---------------|
|----7-7-7----------|---7------------|---7------7---5-|---------------|
|-5---------5-5-5-5-|-5---5---5----5-|------------5---|-7-----7\------|
|-------------------|-------5----5---|-5---5-5--------|---0-0------2/-|
|-------------------|----------------|----------------|---------------|


  E E Q  E E E E   Q  E E E. S S S S S   E.  S S S S S E S S Q   Q Q E E E E
|----------------|---------------------|-----------------------|--------------|
|----------------|---------------------|-----7-7-7-7-7-7-----5-|--------------|
|-5-5-5--5-5-5-5-|-5--5-5-5--5---------|-----------------5-5---|---7-7-7---5--|
|----------------|-----------------2-3-|-5---------------------|-0-------5----|
|----------------|-------------3-5-----|-----------------------|--------------|


                                                  To Dbl. Coda
   E  E E E Q  E E   q  E E Q   E S S   E E E E E E E  E      Q  E E Q E S S
|------------------|------------------|---------------------|------------------|
|-----7-7----------|------------------|-------------5-(5)/--|------------------|
|-(5)-----5-5----5-|-5--5-5-5\--------|-----------5---------|--------7---5-5---|
|------------------|--------------2-3-|-5-5-5-5-5-----------|-0--0-0-----------|
|------------------|------------------|---------------------|------------------|


                                                To Coda
  E E S S S S E.  S S S S S   q  S S S S Q   S S S S   E E E E E E E E
|---------------------------|------------------------|-----------------|
|---7---------7-------------|------------------------|-----------------|
|-5-5-5-5-5-5-5---5-5-5-5-5-|-5--5-5-5-5-5\----------|-----------------|
|---------------------------|--------------------3-2-|-5-5-5-5-5S7-5-7-|
|---------------------------|----------------3-5-----|-----------------|


  E E E E Q.   E    E E E E E E E E   E E E S S Q  S S S S   E E E E e  E E E
|-----------------|-----------------|----------------------|-------------------|
|-----------------|-----------------|----------------------|----------------5--|
|-5-7-----7----7\-|---5-------5-----|--------------5-3-----|-------------------|
|-----0-0---------|-----------------|------------------5-3-|-5-5---5-5/-5-7----|
|-----------------|-----0-3-3---3-3-|-3-3---3-3-3----------|-------------------|


  E E E E E. S S S S S   E E S S E Q  S S E   Q Q E. S S S S S   Q  Q  E E E E
|----------------------|--------------------|------------------|---------------|
|----------------------|--------------------|------------------|---------------|
|-7-7-----7--7-7-7-7-7-|-5------------5-----|-----5--5-5-3-----|---------------|
|-----0-0--------------|----------------5---|--------------5-3-|-5--5--7s5-3-2-|
|----------------------|---3S0-2-3-3------3-|-3-3--------------|---------------|


  Q  E E H      Q  E E H      Q  E E H      Q  E E  Q  E  E
|-------------|-------------|-------------|-----------------|
|-------------|-------------|-------------|------------9----|
|----7-5-7----|----7-5-7----|----7-5-7----|----7-5-10----10-|
|-0-----------|-0-----------|-0-----------|-0---------------|
|-------------|-------------|-------------|-----------------|


    Q    Q  Q  E E   Q  E E H      Q  E E E E Q     H    E E Q
|------------------|-------------|----------------|-------------|
|------------------|-------------|----------------|-------------|
|-(10)\-----7--7-5-|----7-5-7----|----7-5-7-5-----|-------------|
|--------0---------|-0-----------|-0----------7\--|-3----2h3-2--|
|------------------|-------------|----------------|-------------|


  Q  E E Q  Q     Q   E E Q  Q     Q   E E Q  Q     Q   Q E E Q
|--------------|----------------|----------------|----------------|
|--------------|----------------|----------------|----------------|
|----7-5-7-----|------7-5-7-----|------7-5-7-----|------7-5-------|
|-0---------0--|-(0)---------0--|-(0)---------0--|-(0)------7S3---|
|--------------|----------------|----------------|----------------|


                                                    D.S. al Coda
  Q  E E Q  Q    Q  E E Q  E E   Q  E E E E E E   E E E E E E E E
|--------------|---------------|----------------|-----------------||
|--------------|---------------|----------------|-----------------||
|----7-5-7-----|----7-5-7------|----7-5-7-5-----|-----------------||
|-0---------0--|-0---------0-0-|-0----------7-0-|-3-3-3-3-2-3-2-3-||
|--------------|---------------|----------------|-----------------||


  &
  E E E E E E E E    W          W          W
|-----------------||----------|----------|------|
|-----------------||-9--------|-9--------|-9----|
|-----------------||-7--------|-7--------|-7----|
|-5-5-5-5S7-5-3-0-||-0--------|-0--------|-0----|
|-----------------||----------|----------|------|


  W          W          W          W
|----------|----------|----------|------|
|-9--------|-9--------|-9--------|-9----|
|-7--------|-7--------|-7--------|-7----|
|-0--------|-0--------|-0--------|-0----|
|----------|----------|----------|------|


  Wx16
|---------|
|---------|
|---------|
|---------|
|---------|


   Q.   E Q  E a E   E E E E E E E E     Q  E E Q  E E
|------------------|-----------------||----------------|
|------------------|-----------------||o---------------|
|--------------5h7-|-7-7-7-5-7-5-----||--7--7-5-7--7-5-|
|-12\---0-0--------|-------------7S3-||o-0--0-0-0--0-0-|
|------------------|-----------------||----------------|


  1.,2.,3.           4.
  Q  E E E E E E  3x E E Q  E E E E
|-----------------||------------------|
|----------5-----o||------------------|
|-7--7-5-7---7-7--||-7-7-7------2-----|
|-0--0-0-0---0-0-o||-0-0-0--0-3---3---|
|-----------------||------------------|


  Q  E E Q  E E   Q  E E E E E E   Q  E E Q  E E   Q  E E E E E E
|---------------|----------------|---------------|----------------|
|---------------|----------5-----|---------------|----------5-----|
|-7--7-5-7--7-5-|-7--7-5-7---7-7-|-7--7-5-7--7-5-|-7--7-5-7---7-7-|
|-0--0-0-0--0-0-|-0--0-0-0---0-0-|-0--0-0-0--0-0-|-0--0-0-0---0-0-|
|---------------|----------------|---------------|----------------|


                                                D.S.S. al Dbl. Coda
  Q  E E Q  E E   Q  E E E E E E   Q  E E E E E  E   E E E E E E E E
|---------------|----------------|-----------------|-----------------|
|---------------|----------5-----|-----------------|-----------------|
|-7--7-5-7--7-5-|-7--7-5-7---7-7-|-7--7-5-7-7-5/---|-7-7-7-7-5---5---|
|-0--0-0-0--0-0-|-0--0-0-0---0-0-|-0--0-0-0-0-0--0-|-0-0-0-0---7---7-|
|---------------|----------------|-----------------|-----------------|


  &&
  Q  E E Q.   E   Q  E E Q.   E   Q.   E Q.   E   Q.    E E E E E
|---------------|---------------|---------------|-----------------||
|---------------|----7-7-7------|------7-7------|-----------------||
|--------7------|-5--5-5-5------|-5----5-5------|-----------------||
|-0--0-0-0----5-|-------------5-|-------------5-|-5----/7-5-3-----||
|---------------|---------------|---------------|-------------5-0-||


  Q  E E Q  E E   E E E E E E E E   Q  E E Q  E E   E E E E E E E E
|---------------|-----------------|---------------|-----------------|
|---------------|-----------------|---------------|-----------------|
|---------------|-----------------|---------------|-----------------|
|---------------|-------------7---|---------------|-------------7---|
|-5--5-3-5--3-5-|-5-5-5-0-5-8---8-|-5--5-3-5--3-5-|-5-3-5-5-5-8---8-|


  Q  E E Q  E E   E E E E E E E E   Q  E E Q  E E   E E Q  E E E E
|---------------|-----------------|---------------|----------------|
|---------------|-----------------|---------------|----------------|
|---------------|-----------------|---------------|----------------|
|---------------|-------------7---|---------------|------------7---|
|-5--5-3-5--3-5-|-5-3-5-5-5-8---8-|-5--5-3-5--3-5-|-5-5-5--5-8---8-|


  Q  Q  Q  E E   E E Q  E E E E   Q  Q  Q.   E   E E E E E E E E
|--------------|----------------|--------------|-----------------|
|--------------|----------------|--------------|-----------------|
|--------------|----------------|--------------|-----------5-6-7-|
|-7--7--7--7-8-|-8-5-5--5-8-8-5-|-7--7--7----8-|-8-5-5-5-5-------|
|--------------|----------------|--------------|-----------------|


  E E E E E E E E   E E E E E E E E   E E E E E E E E   E E E E E E E E
|-----------------|-----------------|-----------------|-----------------|
|-----------------|-----------------|-----------------|-----------------|
|-----7p5-7-----7-|-----7-----------|-----7p5-7-----7-|-----7-----------|
|-----------------|-------------7---|-----------------|-------------7---|
|-5-5-------5-5---|-5-5---5-5S8---8-|-5-5-------5-5---|-5-5---5-5S8---8-|


  E E E E E E E E   E E E E E E E E   E E S S E  E  E E  E
|-----------------|-----------------|----------------------|
|-----------------|-----------------|----------------------|
|-----7p5-7-------|-----7-----------|---7-5---5S10-10S5S12-|
|-----------------|-------------7---|-------7--------------|
|-5-5-------5-5-5-|-5-5---5-5S8---8-|-5--------------------|


   E  S  S  E  E  a  E  S  S  E  S  S
|--------------------------------------|
|----14-14-12----12h14-12h14-12--------|
|-12----------14----------------14-14--|
|--------------------------------------|
|--------------------------------------|


                                                  |3-| |-3-| |--3--|
  Q  Q  Q.   E   E E E E Q  E E   Q  E E Q  E E   Q  E E E E Q  Q  Q
|--------------|----------------|---------------|---------------------|
|--------------|----------------|---------------|---------------------|
|------------5-|-5-5-5-5-5--5---|-5--5-5-5------|---------------------|
|-0--0--0------|--------------5-|-----------0-5-|-5--5-5-5-5-7--5--3--|
|--------------|----------------|---------------|---------------------|


     |-3-|
  Q  E E E Q  E S S   E S S E S S E S S S S S S   Q  E E Q  E E
|-------------------|---------------------------|-----------------|
|-------------------|---------------------------|-----------------|
|----7-7-7-7----5-5-|---------5-5-5-5-5-5-5-5-5-|-5--5-5-5--------|
|-0-----------0-----|-5-------------------------|-----------7-5---|
|-------------------|---3-3-3-------------------|-----------------|


  E S S E S S S S S S S S S S   W          W          W
|-----------------------------|----------|----------|----|
|-----------------------------|----------|----------|----|
|-----------------7p5h7p5h7p5-|-7--------|-7--------|-7--|
|-7-5h7p5-7p5h7p5-------------|-0--------|-0--------|-0--|
|-----------------------------|----------|----------|----|


  W          W          W          W
|----------|----------|----------|------|
|----------|----------|----------|------|
|-7--------|-7--------|-7--------|-7----|
|-0--------|-0--------|-0--------|-0----|
|----------|----------|----------|------|


  W          Q  E E E E Q     Q  Q  H      Wx5
|----------|----------------|------------|--------|
|----------|----------------|------------|--------|
|-7--------|----------------|------------|--------|
|-0--------|-3--3-3-2h3-2/--|-0----------|--------|
|----------|----------------|------------|--------|


  H    Q  Q     Q.    E E  E Q     H    H      Q.   E  Q  E  E
|------------|-------------------|-----------|-----------------|
|------------|-------------------|-----------|------------9----|
|---------5S=|=10----10-9h10-9\--|------7----|------7s10----10-|
|------------|-------------------|-0---------|-0---------------|
|------------|-------------------|-----------|-----------------|


    E   Q  H      Q.   E E E Q      Q  E E Q  Q    Q.   E  Q  E  E
|---------------|-----------------|--------------|------------------|
|---------------|-----------------|--------------|------------9-----|
|-(10)\----7----|----------2------|----7-5-7-----|------7s10----10--|
|-------0-------|-0----2s3---3b4--|-0---------0--|-0----------------|
|---------------|-----------------|--------------|------------------|


    Q    E E E E E E   Q.   E E E E E   q  E E H      Q  E E E E E E
|--------------------|----------------|-------------|------------------|
|--------------------|----------------|-------------|------------------|
|-(10)\------7-5-----|----------------|-------------|------------------|
|--------0-0-----7-6-|-3----2-2h3-2h3-|-------------|--------------3b4-|
|--------------------|----------------|-5--5-3-5----|-5--5-3-5-3-5-----|


                                                   H.=H
  Q  E E E E E E     Q  E E H      Q.   E E E Q    q  q  H
|------------------|-------------|---------------|------------|
|------------------|-------------|---------------|------------|
|------------------|-------------|---------------|------------|
|-3------------3b4-|-3-----------|---------------|------------|
|----5-3-5-3-5-----|----5-3-3----|-5----5-5-0-3--|-5--5--5----|


  H    E E Q    q  Q  E E E E   H    E E E  E     W
|-------------|---------------|-----------------|------|
|-------------|---------------|-----------------|------|
|-------------|---------------|-----------------|-7----|
|-------------|---------3-----|-3---------------|-0----|
|-5----5-0-3--|-5--5--5---5-3-|------2-3-2-(3)/-|------|


  Q  E E Q  E E   Q  E E Q  E E   Q  E E H      W       H
|---------------|---------------|-------------|------|-----|
|-9-----------9-|-9-----------9-|-9-----------|------|-----|
|----7------7---|----7------7---|----7--------|------|-----|
|------0-0------|------0-0------|------0-0----|-0----|-----|
|---------------|---------------|-------------|------|-----|




--------------------------------------------------------------------------------


Duration Legend
---------------
W - whole; H - half; Q - quarter; E - 8th; S - 16th; T - 32nd; X - 64th; a - acciaccatura
+ - note tied to previous; . - note dotted; .. - note double dotted
Uncapitalized letters represent notes that are staccato (1/2 duration)
Irregular groupings are notated above the duration line
Duration letters will always appear directly above the note/fret number it represents the
duration for.  Duration letters with no fret number below them represent rests.  Multi-
bar rests are notated in the form Wxn, where n is the number of bars to rest for.  Low
melody durations appear below the staff

Tablature Legend
----------------
 h   - hammer-on
 p   - pull-off
 b   - bend
 pb  - pre-bend
 r   - bend release (if no number after the r, then release immediately)
 /\  - slide into or out of (from/to "nowhere")
 s   - legato slide
 S   - shift slide
 - natural harmonic
[n]  - artificial harmonic
n(n) - tapped harmonic
 ~   - vibrato
 tr  - trill
 T   - tap
 TP  - trem. picking
 PM  - palm muting
\n/  - tremolo bar dip; n = amount to dip
 \n  - tremolo bar down
 n/  - tremolo bar up
/n\  - tremolo bar inverted dip
 =   - hold bend; also acts as connecting device for hammers/pulls
 <> - volume swell (louder/softer)
 x   - on rhythm slash represents muted slash
 o   - on rhythm slash represents single note slash

Misc Legend
-----------
 |  - bar
||  - double bar
||o - repeat start
o|| - repeat end
*|  - double bar (ending)
 :  - bar (freetime)
 $  - Segno
 &  - Coda
Tempo markers -  = BPM(8/16=s8/s16), where s8 = swing 8ths, s16 = swing 16ths



--------------------------------------------------------------------------------

** Generated using Power Tab Editor by Brad Larsen: The Official Power Tab Web Site
comments
We did not receive enough feedback on this tab! Please rate:
print report bad tab
1 2 3 4 5
1 comment total.
0 reply
saturns_bassman wrote on March 2 2008, 03:58 pm

I'm pretty sure this is tuned down a half-step dude, but nice tab man.

I want to post or [tab]
guest
You may want to rate the tab now too:
select rating
Please do not post tabs as comments. Select "correction" instead!