Oops, an error
Loading. Please wait.

Bleeding Me Tab

ver3
ver3

Whole song

Interactive

More versions @911Tabs.com
13,844 views 24 this week
1 commentread comment
1 2 3 4 5
excellent!
x 7
Autoscroll
+/-
esc
set tempo
stop
Contributor
Hey! There's an official Ultimate Guitar app which is ideal
for learning songs when you're away from computer. Get the app
WARNING: You are trying to view
                                    content from Ultimate-Guitar.com
                                    in an unauthorized application,
                                    which is prohibited.

                                    Please use an official Ultimate
                                    Guitar Tabs application for iPhone,
                                    iPad or Android to access legitimate
                                    chords, guitar, bass, and drum tabs
                                    from Ultimate-Guitar.com database.

                                    Type "ultimate guitar tabs" in Apple
                                    App Store's or Android Market's
                                    search to find the application.
Band- Metallica
Song- Bleeding Me

Esus4
x 7 7 9 x x

E5
x 7 9 9 x x

Dsus4
x 5 5 7 x x

D5
x 5 7 7 x x

B5
7 9 9 x x x

C5
8 10 10 x x x

A5
5 7 7 x x x

Em
0 2 2 0 0 0

Gtr I (Eb Ab Db Gb Bb Eb) - 'James Hetfield - Rhythm clean w/phaser'
Gtr II (Eb Ab Db Gb Bb Eb) - 'Kirk Hammett - Rhythm clean elec'
Gtr III (Eb Ab Db Gb Bb Eb) - 'Kirk Hammett - Lead w/dist'
Gtr IV (Eb Ab Db Gb Bb Eb) - 'James Hetfield - Gtr I w/dist'
Gtr V (Eb Ab Db Gb Bb Eb) - 'Kirk Hammett - Gtr II w/dist'
Gtr VI (Eb Ab Db Gb Bb Eb) - 'Kirk Hammett - Lead clean w/slide'

Intro
    Q=116
   4/4
    Gtr I
               ~                                  ~                    ~
    Q   Q  E E Q     Q   E E E E E E   Q   Q  E E Q     Q   E  E E E a Q
||----------------|------------------|---------------|--------------------|
||o---------------|------------------|---------------|--------------------|
||----------------|------------------|---------------|--------------------|
||---------5p0----|--------------5---|--------5p0----|--------------------|
||o----/7------7--|-(7)--7-----5---7-|----/7------7--|-(7)--7\-----4-4s2--|
||--0-------------|--0-----0-5-------|-0-------------|--0------0h5---5s3--|
 |-Riff A

             ~                                  ~               ~
  Q   Q  E E Q     Q   E E E E E E   Q   Q  E E Q    Q  E E E E Q
|---------------|------------------|---------------|----------------||
|---------------|------------------|---------------|---------------o||
|---------------|------------------|---------------|----------------||
|--------5p0----|--------------5---|--------5p0----|----------------||
|----/7------7--|-(7)--7-----5---7-|----/7------5--|----5-----5----o||
|-0-------------|--0-----0-5-------|-0-------------|-3----3s2---2---||
                                                         end Riff A-|

w/Riff A (1st 4 bars)
  Gtr III (on repeat only) 
    E
    W               +W                 +W               +W
    |                |                  |                |
    o                /                  /                /

    Gtr II
    Q   Q  Q   Q     Q   Q   Q   Q      Q   Q  Q   Q     Q   Q    Q     Q
||--0------0------|--0-------0-------|--0------0------|--0--------0--------|
||o-8------8------|--8-------8---7---|--8------8------|--8--------8-----7--|
||--9------9------|--9-------9-------|--9------9------|--9--------9--------|
||------9------9--|------9-----------|------9------9--|------9-------------|
||o---------------|------------------|----------------|--------------------|
||----------------|------------------|----------------|--------------------|
 |-Rhy Fig 1

  Q   Q  Q   Q     Q   Q   Q   Q     Q   Q  Q         Q        Q  Q   Q   Q
|-0------0------|--0-------0-------|-0------0----------------|-0------0------||
|-8------8------|--8-------8---7---|-8------8----------------|-8------8------||
|-9------9------|--9-------9-------|-9------9----------------|-9------9---7--||
|-----9------9--|------9-----------|-----9------------9------|----9-------7--||
|---------------|------------------|-------------------------|---------------||
|---------------|------------------|-------------------------|---------------||
|                                                              end Rhy Fig 1-|
|            ~                                                            ~
| Q   Q  E E Q     Q   E E E E E E   Q   Q  E E a    +S  +E.   Q  E E E E Q
|---------------|------------------|-------------------------|---------------||
|---------------|------------------|-------------------------|---------------||
|---------------|------------------|-------------------------|---------------||
|--------5p0----|--------------5---|--------5-7-7b9==(7)r(7)-|---------------||
|----/7------7--|-(7)--7-----5---7-|----/7-------------------|----5-----5----||
|-0-------------|--0-----0-5-------|-0-----------------------|-3----3s2---2--||


 Verses
w/Riff A (1st 6 bars)
  $$
  Q   H.            Q   Q   Q     Q
|-0--------------|--------------<12>---|
|-8--------------|----------8---<12>---|
|-9--------------|------9--------------|
|-----9----------|---------------------|
|----------------|---------------------|
|----------------|---------------------|
                 |-Rhy FIg 2

    +W                   +H         Q     Q
|-(<12>)-------------|-(<12>)----------------|
|-(<12>)-------------|-(<12>)-------------8--|
|--------------------|--------------9--------|
|--------------------|-----------------------|
|--------------------|-----------------------|
|--------------------|-----------------------|


  W               +Q   Q   Q     Q
|-7-------------|-(7)----------<12>---|
|-7-------------|-(7)------8---<12>---|
|-9-------------|-(9)--9--------------|
|---------------|---------------------|
|---------------|---------------------|
|---------------|---------------------|

    +W                   +W
|-(<12>)-------------|-(<12>)-----------------|
|-(<12>)-------------|-(<12>)-----------------|
|--------------------|------------------------|
|--------------------|------------------------|
|--------------------|------------------------|
|--------------------|------------------------|
|                               end Rhy Fig 2-|
|                 ~
|    Q     Q  E E Q       E   E E E E  E a Q
|--------------------|------------------------|
|--------------------|------------------------|
|--------------------|----x---7-7s9-9s12-7s9--|
|-------------5p0----|------------------------|
|---------/7------5--|----x---5-5s7-7s10-5s7--|
|----0---------------|------------------------|


w/Riff A
  W                Q   Q   Q     Q
|---------------|--------------<12>---|
|---------------|----------8---<12>---|
|---------------|------9--------------|
|---------------|---------------------|
|---------------|---------------------|
|---------------|---------------------|


    +W                   +Q    Q    Q     Q
|-(<12>)-------------|-(<12>)----------------|
|-(<12>)-------------|-(<12>)-------------8--|
|--------------------|--------------9--------|
|--------------------|---------9-------------|
|--------------------|-----------------------|
|--------------------|-----------------------|


  W               +Q   Q   Q     Q
|-7-------------|-(7)----------<12>---|
|-7-------------|-(7)------8---<12>---|
|-9-------------|-(9)--9--------------|
|---------------|---------------------|
|---------------|---------------------|
|---------------|---------------------|


         To Dbl. Coda
                                 Gtr III
    +W                   +H         E   E  E  a      +E
|-(<12>)-------------|-(<12>)-----------------------------||
|-(<12>)-------------|-(<12>)-----------------------------||
|--------------------|-----------------------12b14==(12)r=||
|--------------------|-------------/x\----12--------------||
|--------------------|-----------------14-----------------||
|--------------------|------------------------------------||


 Pre-Chorus
  Gtr IV
|-Rhy Fig 3
  Esus4E5                         DsusD5
    E  E E E   Q     E       E     E  E E E Q     E E
    |  | | |   |     |       |     |  | | | |     | |
    /  / x /   /     /       x     /  / x / /     / x

  Gtr III
    ~~~~~~~~~~~~~~~
   +H         +E   E E a    +E    +H        E   E E E
|-------------------------------|---------------------|
|-------------------------------|---------------------|
|-(12)-------(12)\--------------|-------------------7-|
|--------------------5-7b9==(7)r|=(7)-------------5---|
|------------------7------------|-----------7\-/7-----|
|-------------------------------|---------------------|


       DsusD5                            EsE54           B         D
        E   E  E E Q           E   E     E E E E  Q       E          E
        |   |  | | |           |   |     | | | |  |       |          |
        /   /  x / /           x   x     / / x /  /       o          o

        ~~~~~~~                          ~~~~~~~~~~~~
  a    +E  +Q.     E a    +E   S S E   a H       +E    E  E  a      +E
|------------------------------------|-----------------------------------|
|------------------------------------|-----------------------------------|
|------------------------------------|----------------------12b14==(12)r=|
|-7b9==(7)r(7)-----5-7b9==(7)r-7-5---|-------------------12--------------|
|----------------------------------7-|-5h7-------(7)-/14-----------------|
|------------------------------------|-----------------------------------|


  Esus4E5            E            DsusD5
    E  E E E   Q     Q             E  E E E Q     E E
    |  | | |   |     |             |  | | | |     | |
    /  / x /   /     o             /  / x / /     / x

    ~~~~~~~~~~~~~~~
   +H         +E   E E a    +E    +H        E   E E E
|-------------------------------|---------------------|
|-------------------------------|---------------------|
|-(12)-------(12)\--------------|-------------------7-|
|--------------------5-7b9==(7)r|=(7)-------------5---|
|------------------7------------|-----------7\-/7-----|
|-------------------------------|---------------------|

                                           end Rhy Fig 3-|
       DsusD5                            A5        E G
        E   E  E E Q           E   E     E E E E E E Q
        |   |  | | |           |   |     | | | | | | |
        /   /  x / /           x   x     / / x / / o o

        ~~~~~~~                          ~
  a    +E  +Q.     E a    +E   S S E   a W
|------------------------------------|--------------------||
|------------------------------------|-------------------o||
|------------------------------------|--------------------||
|-7b9==(7)r(7)-----5-7b9==(7)r-7-5---|--------------------||
|----------------------------------7-|-5h7---------------o||
|------------------------------------|--------------------||


 Chorus
  $
  Gtrs IV, V
   Q  Q  Q   E E   a Q  Q  Q   E E   a Q  Q  Q   E E   a Q  Q  Q   E E
|----------------|-----------------|-----------------|------------------|
|----------------|-----------------|-----------------|------------------|
|----------------|-----------------|-----------------|------------------|
|-/9--9--9\--x-5-|-5h7--7--7\--x-5-|-5h7--7--7\--x-5-|-------------x-x--|
|-/7--7--7\--x-5-|---5--5--5\--x-5-|---5--5--5\--x-5-|-5h7--7--7\--x-x--|
|------------x---|-------------x---|-------------x---|---5--5--5\--x-x--|
|-Rhy Fig 4                                               end Rhy Fig 4-|

                                                                    ~
   Q  Q  Q   E E   a Q  Q  Q   E E   a Q  Q  Q   E E   a Q  Q  E  E Q
|----------------|-----------------|-----------------|------------------|
|----------------|-----------------|-----------------|------------------|
|----------------|-----------------|-----------------|------------------|
|-/9--9--9\--x-5-|-5h7--7--7\--x-5-|-5h7--7--7\--x-5-|------------------|
|-/7--7--7\--x-5-|---5--5--5\--x-5-|---5--5--5\--x-5-|-5h7--7--7\-------|
|------------x---|-------------x---|-------------x---|---5--5--5\-0-3---|
|-Rhy Fig 4A                                             end Rhy Fig 4A-|

w/Rhy Fig 4A
  Gtr IV
   Q  Q  E  a     +E  +E  E   a Q  Q  Q   E E
|---------------------------|-----------------|
|---------------------------|-----------------|
|---------------------------|-----------------|
|-/9--9--9--9b10==(9)r(9)p7-|-5h7--7--7\--x-5-|
|-/7--7--7------------------|---5--5--5\--x-5-|
|---------------------------|-------------x---|
|-Rhy Fig 4B


                                 ~
  a Q  Q  Q   E E   a Q  Q  E  E Q
|-----------------|-------------------|
|-----------------|-------------------|
|-----------------|-------------------|
|-5h7--7--7\--x-5-|-------------------|
|---5--5--5\--x-5-|-5h7--7--7\--------|
|-------------x---|---5--5--5\-0-3----|
                       end Rhy Fig 4B-|


w/Rhy Fig 4A (1st 2 bars)
                                       ~~
   Q  Q  E  a     +E  +E  E     Q  E E Q   E E
|---------------------------|------------------|
|---------------------------|------------------|
|---------------------------|------------------|
|-/9--9--9--9b10==(9)r(9)s7-|---7--7s9s7---x-5-|
|-/7--7--7------------------|---5----------x-5-|
|---------------------------|--------------x---|


           To Coda
                  Gtr III
  a Q  Q  Q   E E     H     E   E  E  E
|-----------------|---------------------|
|-----------------|------------------12-|
|-----------------|---------------12-12-|
|-5h7--7--7\--x-5-|------------14-------|
|---5--5--5\--x-5-|---------7-----------|
|-------------x---|---------------------|
|
|                 Gtrs IV, V
|                                  ~~
| a Q  Q  Q   E E   a Q  Q  E   E  Q
|-----------------|---------------------|
|-----------------|---------------------|
|-----------------|---------------------|
|-5h7--7--7\--x-5-|---------------------|
|---5--5--5\--x-5-|-5h7--7--7\----------|
|-------------x---|---5--5--5\--0--3----|


w/Rhy Fig 3
  Gtr III
                               ~~~~~~~~
   +Q     +E       +E   E  E E E   +H        E   E E E
|--------------------------------|---------------------|
|-(12)---------------------------|---------------------|
|-(12)---(12)b14==(12)r------7---|-------------------7-|
|-------------------------/9---7-|-(7)-------------5---|
|--------------------------------|-----------7\-/7-----|
|--------------------------------|---------------------|


            ~~~                            ~
  a    +E  +Q.      E  a    +E   S S E   a H       E   E  E  E
|--------------------------------------|-----------------------|
|--------------------------------------|-----------------12-12-|
|--------------------------------------|-----------------12-12-|
|-7b9==(7)r(7)-----[5]-7b9==(7)r-7p5---|-----------------------|
|------------------------------------7-|-5h7---------/14-------|
|--------------------------------------|-----------0-----------|


                               ~~~~~~~~
   +Q     +E       +E   E  E E E   +H        E   E E E
|--------------------------------|---------------------|
|-(12)---------------------------|---------------------|
|-(12)---(12)b14==(12)r------7---|-------------------7-|
|-------------------------/9---7-|-(7)-------------5---|
|--------------------------------|-----------7\-/7-----|
|--------------------------------|---------------------|


                                                  Gtr VI
            ~~~                            ~~      ~~~
  a    +E  +Q.      E  a    +E   S S E   H         H
|--------------------------------------|--------------------||
|--------------------------------------|--------------------||
|--------------------------------------|-----------4s=======||
|-7b9==(7)r(7)-----[5]-7b9==(7)r-7p5---|--------------------||
|------------------------------------7-|-5h7------(7)-------||
|--------------------------------------|--------------------||
                                         E Q.     +H


 Interlude
w/Riff A x2            |-w/Rhy Fig 2
  Gtr VI
  Q  a  Q   +E   E  Q     H        E  E   Q
|----------------------|-----------------------|
|----------------------|-----------------------|
|-9--9s12--(12)s11s12s=|==9-------12s11s=12s===|
|----------------------|-----------------------|
|----------------------|-----------------------|
|----------------------|-----------------------|


     H         E  E  Q       H          Q      Q
|-----------------------|----------------------------|
|-----------------------|----------------------------|
|----9--------12s11s12s=|===14---------11s====12s====|
|-----------------------|----------------------------|
|-----------------------|----------------------------|
|-----------------------|----------------------------|


  H       E  E  Q     H        E  E   Q
|------------------|-----------------------|
|------------------|-----------------------|
|-9------12s11s12s=|==9-------12s11s=12s===|
|------------------|-----------------------|
|------------------|-----------------------|
|------------------|-----------------------|


     H         E  E  Q       Q     +Q     H
|-----------------------|-----------------7s=====|
|-----------------------|------------------------|
|----9--------12s11s12s=|===14----(14)\----------|
|-----------------------|------------------------|
|-----------------------|------------------------|
|-----------------------|------------------------|


w/Rhy FIg 1
   H       E  E  Q     H        E  E  Q
|-12------15s14s15s=|=12-------15s14s15s==|
|-------------------|---------------------|
|-------------------|---------------------|
|-------------------|---------------------|
|-------------------|---------------------|
|-------------------|---------------------|


   H       E  E  Q     H         Q      Q
|-12------15s14s15s=|=17--------14s====15s==|
|-------------------|-----------------------|
|-------------------|-----------------------|
|-------------------|-----------------------|
|-------------------|-----------------------|
|-------------------|-----------------------|


   H       E  E  Q     H        E  E  Q
|-12------15s14s15s=|=12-------15s14s15s==|
|-------------------|---------------------|
|-------------------|---------------------|
|-------------------|---------------------|
|-------------------|---------------------|
|-------------------|---------------------|

                         D.S. al Coda
   H       E  E  Q     H       H
|-12------15s14s15s=|=17------19------||
|-------------------|-----------------||
|-------------------|-----------------||
|-------------------|-----------------||
|-------------------|-----------------||
|-------------------|-----------------||


  &
  Gtrs IV, V
              ~
  a Q  Q  E E Q    W          +W
|----------------|----------|--------|
|----------------|----------|--------|
|----------------|----------|--------|
|----------------|----------|--------|
|-5h7--7--7------|----------|--------|
|---5--5--5-0-3--|-0--------|-(0)----|


                          Gtr IV
                                 PM|   PM|     PM|   PM
  +W           +W            E E E E E E E E   E E E E E  E  E E
|------------|------------||-----------------|-------------------||
|------------|------------||-----------------|-------------------||
|------------|------------||-----------------|-------------------||
|------------|------------||-7h9-----9-----9-|-----9--------10p9-||
|------------|------------||-7-------7-----7-|-----7---7h10------||
|-(0)--------|-(0)--------||-0---0-0-0-0-0-0-|-0-0-0-0-----------||
                           |-Rhy Fig 5             end Rhy Fig 5-|

    Gtrs IV, V
      ~~       PM|     PM|   PM
    a Q.   E E E E E   E E E E E  E  E E  7x
||-------------------|--------------------||
||o------------------|-------------------o||
||-------------------|--------------------||
||-----------9-----9-|-----9--------10p9--||
||o-5h7------7-----7-|-----7---7h10------o||
||----5----0-0-0-0-0-|-0-0-0-0------------||
 |-Rhy Fig 5A              end Rhy Fig 5A-|

     Bridge
     Rhy Fig 5A x4

w/Rhy Fig 4A
  Gtr V
   Q  Q  Q   E E   a Q  Q  Q   E E
|----------------|-----------------|
|----------------|-----------------|
|----------------|-----------------|
|-/9--9--9\--x-5-|-5h7--7--7\--x-5-|
|-/7--7--7\--x-5-|---5--5--5\--x-5-|
|------------x---|-------------x---|


  a Q  Q  Q   E E     E E E E    +E  +E  S E.
|-----------------|-----------------------------|
|-----------------|---------7b8==(7)r(7)--------|
|-----------------|---5---5-7b9==(7)r(7)-5------|
|-5h7--7--7\--x-5-|-----7------------------7----|
|---5--5--5\--x-5-|-----------------------------|
|-------------x---|-----------------------------|


                     |-3-| |-3-| |--3---|
   Q  Q  Q   E E   a E E E E E E Q  Q   Q
|----------------|--------------------------|
|----------------|--------------------------|
|----------------|--------------------------|
|-/9--9--9\--x-5-|-5h7-7-7-7-7-7-7--x---x---|
|-/7--7--7\--x-5-|---5-5-5-5-5-5-5--x---x---|
|------------x---|------------------x---x---|

                                                     ~
  a Q  Q  Q   E a     E      +Q    a     Q    S  S E Q
|------------------------|------------------------------|
|---------------------8--|---(8)---------8--------------|
|-------------5-7b9==(7)-|---(7)r--7b9==(7)r--7p=5------|
|-5h7--7--7--------------|-------------------------7-7--|
|---5--5-----------------|------------------------------|
|------------------------|------------------------------|

w/Rhy Fig 4B
   Q  Q  E  a     +E  +E  E   a Q  Q  Q   E E
|---------------------------|-----------------|
|---------------------------|-----------------|
|---------------------------|-----------------|
|-/9--9--9--9b10==(9)r(9)p7-|-5h7--7--7\--x-5-|
|-/7--7--7------------------|---5--5--5\--x-5-|
|---------------------------|-------------x---|

                                 ~
  a Q  Q  Q   E E   a Q  Q  E  E Q
|-----------------|-------------------|
|-----------------|-------------------|
|-----------------|-------------------|
|-5h7--7--7\--x-5-|-------------------|
|---5--5--5\--x-5-|-5h7--7--7\--------|
|-------------x---|---5--5--5\-0-3----|

w/Rhy Fig 4A
        ~~~~                                  ~~~~~                      ~~~~~
  a     H.           a       Q        a       H.          Q      a       H.          Q
|----------------------------------|--------------------------|--------------------------|
|-------5--------------------8-----|---------10---------------|---------12---------------|
|-7b9==(7)r---------10b12==(10)r---|-12b14==(12)r-------------|-14b16==(14)r-------------|
|----------------------------------|--------------------------|--------------------------|
|----------------------------------|--------------------------|--------------------------|
|----------------------------------|--------------------------|--------------------------|


                                                        ~~~~~
   a       E.   a        S   +E    a       E    a       H
|---------12------------12--(12)----------12-----------12---------||
|-15b17==(15)r(15)b17==(15)-(15)r-15b17==(15)r-15b17==(15)r-------||
|-----------------------------------------------------------------||
|-----------------------------------------------------------------||
|-----------------------------------------------------------------||
|-----------------------------------------------------------------||


 Guitar Solo
w/Rhy Fig 5
  Gtr III
   PM------|            ~~                   ~~
   S  S  S  S  S  E.    Q    E  E    +E   E  Q   a  E  E  E  E
|---------------------------------|----------------------------|
|---------------------------------|----------------------------|
|-------------12-12---------12----|----------------14-12-------|
|-------------12-12----14------12-|-(12)h14-14---x-------14-12-|
|-12-12-14-14---------------------|----------------------------|
|---------------------------------|----------------------------|

w/Rhy FIg 5A x3
                                                          ~~
    E  S S  Q    Q    E  E    +E   E  E  E Q         +S   E.
|--------------------------|-------------------------------------|
|--------------------------|-------------------------------------|
|---x--x-x-----------------|-------------------------------------|
|---x--x-x-12---14---14-12-|-(12)-14-14-14----------------2------|
|--------------------------|-------------------------------------|
|--------------------------|---------------3b3.5=====(3)r--------|


                               ~~~~~~~~~    ~~
    E  E  E      +E    Q    E  E    +E   E  Q    E      +E    E      +E
|--------------------------------|----------------------------------------|
|--------------------------------|--------------14b15==(14)r--------------|
|---x--x-------------------12----|--------------14b15==(14)r--------------|
|---x--x-12b13==(12)r-14---14-12-|-(12)-14-14-----------------------------|
|--------------------------------|---------------------------12b13==(12)r-|
|--------------------------------|----------------------------------------|


         ~~~                   ~~~                                   ~~~
     S   E. E  a      +E    S  E.   E  a      +E      E  E  E  E  S  E.     E  E
|--------------------------------------------------|-----------------------------|
|-----------x-14b15==(14)r----------x-14b15==(14)r-|-12--------------------------|
|---12------x-14b15==(14)r-12-------x-14b15==(14)r-|-12--------------------------|
|-------14--------------------14-------------------|----14-12----12h14-----12----|
|--------------------------------------------------|----------14--------------14-|
|--------------------------------------------------|-----------------------------|


  B5                                              C5
  Gtrs IV, V
   Q           Q           E     E             E  E
   |           |           |     |             |  |
   /           /           /     /             /  /

  Gtr III
                                               ~~~~~~
   S  S  S  S  S  S  S  S  S  S  S  S  a      +Q
|-15p12----12---------------------------------------|
|-------15----15p12----12---------------------------|
|-------------------14----14-12----12-14b16==(14)---|
|-------------------------------14------------------|
|---------------------------------------------------|
|---------------------------------------------------|


               A5                   C5    A5
    E           E     Q           E  E  E E
                |     |           |  |  | |
                /     /           /  /  / /

 ~~~~~~~                             ~~~
    |---3----|
   +S   +S   S  S  S  S  S  S  S  E  Q.
|-------------------------------------------|
|-------------------------------------------|
|-(14)r(14)p12----12-14-12-------12---------|
|--------------14----------14-12----14------|
|-------------------------------------------|
|-------------------------------------------|


  B5                                                    C5
   Q                      Q     E     E          E       E
   |                      |     |     |          |       |
   /                      /     /     /          /       /

                          ~~~~~
   |--3--|
   S  S  S  S  S  a      +Q     S  S  S  S      +S    S  S  S
|-12h15p12----12---------------12--------------------12-------|
|----------15----15b17==(15)r-----15-12-15b17==(15)r----15p12-|
|-------------------------------------------------------------|
|-------------------------------------------------------------|
|-------------------------------------------------------------|
|-------------------------------------------------------------|


                  A5                                          D5                    E5
           E       E             Q                     E       E             E       E
                   |             |                     |       |             |       |
                   /             /                     x       /             /       /

   a      +S    S  S  S  a      +S    S  S  S  a      +S    S  S  S  a      +S    S  S  S
|--------------12---------------------------------------------------------------------------|
|-15b17==(15)r----15p12--------------12-15p12--------------12-15p12--------------12-15p12---|
|-----------------------14b16==(14)r----------14b16==(14)r----------14b16==(14)r------------|
|-------------------------------------------------------------------------------------------|
|-------------------------------------------------------------------------------------------|
|-------------------------------------------------------------------------------------------|

w/Rhy Fig 5
  Gtr III
         |--3--|  |---------7---------|        |--3--|  |--3--|
   S  S  S  S  S  S  S  S  S    S  S  S  S  S  S  S  S  S  S  S  S  S
|---------------------------------------------------------------------|
|----12-15p12----12h15p12------12h15p12-15p12----12h15p12----12h15p12-|
|-14----------14----------14------------------14----------14----------|
|---------------------------------------------------------------------|
|---------------------------------------------------------------------|
|---------------------------------------------------------------------|


                                                            ~~~~~
   |------6-------|  |--3--|
   S  S  S  S  S  S  S  S  S  S  S  a      +Q       a      +Q
|-----------------------------------------------------------------|
|----12h15p12-12-12h15p12----15p12-15b17==(15)r----15b17==(15)r---|
|-14----------------------14--------------------------------------|
|-----------------------------------------------------------------|
|-----------------------------------------------------------------|
|-----------------------------------------------------------------|


w/Rhy Fig 5A x3
   TP   TP   TP   TP
   Q    Q    Q    Q      Q    E  E  E  E  Q
|-----------15--------|-----------------------|
|-12---14---15---14---|-12---14-14-15-14-12---|
|-12---14---15---14---|-12---14-14-15-14-12---|
|---------------------|-----------------------|
|---------------------|-----------------------|
|---------------------|-----------------------|


             ~~~~~                 ~~~
  E  E      +Q      S  S  S  S  S  E.
|---------------------------------------|
|---15b17==(15)r---15-12----------------|
|------------------------14-12----------|
|------------------------------14-12----|
|---------------------------------------|
|---------------------------------------|


             ~~~~~                 ~~~
  E  E      +Q      S  S  S  S  S  E.     E  E      +Q      E      +E   E  a      +E
|---------------------------------------|---------------------------------------------|
|---15b17==(15)r---15-12----------------|---15b17==(15)r---15b17==(15)r---15b17==(15)-|
|------------------------14-12----------|---------------------------------------------|
|------------------------------14-12----|---------------------------------------------|
|---------------------------------------|---------------------------------------------|
|---------------------------------------|---------------------------------------------|


   +E   E  a      +E   E  E  E  E      +E
|--------------------------------------------|
|-(15)r-0-15b17==(15)r-0-12----15b17==(15)r\-|
|-------0--------------0-12------------------|
|---------------------------14---------------|
|--------------------------------------------|
|--------------------------------------------|

w/Rhy Fig 4
  a  Q  Q  Q    E  a  E      +E   E  E  a  E  +E   E  Q
|-----------------------|---------------------------------|
|-----------------------|---------------------------------|
|--------------12-12s14-|---(14)-12-12-12s14-(14)-12-11---|
|-7h=9--9--9------------|---------------------------------|
|----7--7--7---10-10s12-|---(12)-10-10-10s12-(12)-10--9---|
|-----------------------|---------------------------------|

                                                                                          ~~
                                                                               |---3----|
     +E   E  E  E  a      +E   +E   S  S  E      E  a      +E    E  E  a      +E   +E   E  Q
|-------------------------------------------|------------------------------------------------|
|--------------14-14b15==(14)r(14)----------|-------------------15-12------------------------|
|---(11)----12-14-14b15==(14)r(14)-14p12----|---12-14b16==(14)r-------14b16==(14)r(14)p12----|
|--------14------------------------------14-|---------------------------------------------14-|
|----(9)------------------------------------|------------------------------------------------|
|-------------------------------------------|------------------------------------------------|

w/Rhy Fig 4A
    ~~~~~                                             ~~~~~
   +Q    Q  Q    E  a  E      +E   Q    a  E  +E   E  Q
|------------------------|--------------------------------|
|------------------------|--------------------------------|
|--------9--9---12-12s14-|---(14)-12---12s14-(14)-12-11---|
|-(14)\------------------|--------------------------------|
|--------7--7---10-10s12-|---(12)-10---10s12-(12)-10--9---|
|------------------------|--------------------------------|

 ~~~~~~~~~
     +E     E  E  E  E   E  E  E      E  E  a      +Q    a  +S   S  E  E      +E
|--------------------------------|--------------------------------------------------||
|--------------------------------|---12-14-14b15==(14)--14r(14)p12------------------||
|---(11)\-/12-12s14-14s=16-------|---12-14-14b16==(14)--14r(14)p12----14b16==(14)r--||
|--------------------------12-14-|---------------------------------14---------------||
|----(9)\-/10-10s12-12s=14-------|--------------------------------------------------||
|--------------------------------|--------------------------------------------------||


   Q   +Q    H         W                 W                W
|-------------------|------------------|---------------|--------------------|
|-12----------------|------------------|---------------|--------------------|
|-12--(12)\---------|------------------|---------------|--------------------|
|-------------------|------------------|---------------|--------------------|
|-------------------|------------------|---------------|--------------------|
|-------------------|------------------|---------------|--------------------|
|
| Gtrs I, II
|                ~                                  ~                    ~
|  Q    Q    E E Q     Q   E E E E E E   Q   Q  E E Q     Q   E  E E E a Q
|-------------------|------------------|---------------|--------------------|
|-------------------|------------------|---------------|--------------------|
|-------------------|------------------|---------------|--------------------|
|------------5p0----|--------------5---|--------5p0----|--------------------|
|------/7--------7--|-(7)--7-----5---7-|----/7------7--|-(7)--7\-----4-4s2--|
|--0----------------|--0-----0-5-------|-0-------------|--0------0h5---5s3--|


  Gtrs I, II
             ~                                  ~               ~
  Q   Q  E E Q     Q   E E E E E E   Q   Q  E E Q    Q  E E E E Q
|---------------|------------------|---------------|---------------|
|---------------|------------------|---------------|---------------|
|---------------|------------------|---------------|---------------|
|--------5p0----|--------------5---|--------5p0----|---------------|
|----/7------7--|-(7)--7-----5---7-|----/7------5--|----5-----5----|
|-0-------------|--0-----0-5-------|-0-------------|-3----3s2---2--|


  Gtr I
             ~                                  ~                    ~
  Q   Q  E E Q     Q   E E E E E E   Q   Q  E E Q     Q   E  E E E a Q
|---------------|------------------|---------------|--------------------|
|---------------|------------------|---------------|--------------------|
|---------------|------------------|---------------|--------------------|
|--------5p0----|--------------5---|--------5p0----|--------------------|
|----/7------7--|-(7)--7-----5---7-|----/7------7--|-(7)--7\-----4-4s2--|
|-0-------------|--0-----0-5-------|-0-------------|--0------0h5---5s3--|


                                                         D.S.S. al Dbl. Coda
             ~                                        ~~~~~~~             ~
  Q   Q  E E Q     Q   E E E E E E   Q   Q  E E a    +S  +E.   Q  E E E E Q
|---------------|------------------|-------------------------|---------------||
|---------------|------------------|-------------------------|---------------||
|---------------|------------------|-------------------------|---------------||
|--------5p0----|--------------5---|--------5h7-7b8==(7)r(7)-|---------------||
|----/7------7--|-(7)--7-----5---7-|----/7-------------------|----5-----5----||
|-0-------------|--0-----0-5-------|-0-----------------------|-3----3s2---2--||


  &&
                  Em
                Gtr I
  W                W           +W
                   |            |
                   /            /

  Gtr I         Gtr II
             ~
  Q  E E E E Q     W           +W
|---------------|-12--------|-(12)----*|
|---------------|-12--------|-(12)----*|
|---------------|-12--------|-(12)----*|
|---------------|-14--------|-(14)----*|
|----5-----5----|-----------|---------*|
|-3----3s2---2--|-----------|---------*|
comments
print report bad tab
1 comment total.
0 reply
royturner23 wrote on September 11 2007, 01:40 am

damn this is ****en too awesome

I want to post or [tab]
guest
You may want to rate the tab now too:
select rating
Please do not post tabs as comments. Select "correction" instead!