Oops, an error
Loading. Please wait.

Breadfan Tab

ver2
ver2

Whole song

Interactive

More versions @911Tabs.com
47,267 views 68 this week
9 commentsread comments
1 2 3 4 5
excellent!
x 19
Autoscroll
+/-
esc
set tempo
stop
Contributor
Hey! There's an official Ultimate Guitar app which is ideal
for learning songs when you're away from computer. Get the app
WARNING: You are trying to view
                                    content from Ultimate-Guitar.com
                                    in an unauthorized application,
                                    which is prohibited.

                                    Please use an official Ultimate
                                    Guitar Tabs application for iPhone,
                                    iPad or Android to access legitimate
                                    chords, guitar, bass, and drum tabs
                                    from Ultimate-Guitar.com database.

                                    Type "ultimate guitar tabs" in Apple
                                    App Store's or Android Market's
                                    search to find the application.
                                    BREADFAN
                            As recorded by Metallica
                        (From the 1998 Album GARAGE INC)

Words and Music by Anthony Bourge, John Burke Shelley and Raymond Phillips

          E5                   G5                   G#5                  F5
      0 2 2 x x x          3 5 x x x x          4 6 x x x x          1 3 x x x x

          F#5                  D5                   D#5              E5(type 2)
      2 4 x x x x          x 0 0 x x x          x 1 1 x x x          0 2 x x x x

          A5                   E7
      5 7 x x x x          0 2 0 x x x

Gtr I (E A D G B E) - 'Dist'
Gtr II (E A D G B E) - 'Dist'
Gtr III (E A D G B E) - 'Dist'
Gtr IV (E A D G B E) - 'Clean'
Gtr V (E A D G B E) - 'Clean'
Gtr VI (E A D G B E) - 'Clean'

 Intro
  Fast Rock Q=208
  N.C.
 4/4
  Gtr I
  E E E E E E E E   E E E E E E E E   E E E E E E a E E
|-----------------|-----------------|-------------------|
|-----------------|-----------------|-------------------|
|-----------------|-----------------|-------------------|
|-----------------|-----------------|-------------------|
|-5h7-7-5h7-7-5h7-|-7-5h7-7-5h7-7-7-|-5h7-7-5h7-7-5h7-7-|
|-----------------|-----------------|-------------------|


                      E5
                      Gtr II
  W                   W                 +W
                      |                  |
                      /                  /

  E E E E Q    Q      E E E E E E E E    E E E E E E E E
|-----------------||------------------|------------------|
|-----------------||o-----------------|------------------|
|-----------------||------------------|------------------|
|-----------------||------------------|------------------|
|-7-5-------------||o-5h7-7-5h7-7-5h7-|--7-5h7-7-5h7-7-7-|
|-----7-5-3b4--0--||------------------|------------------|


                                                N.C.
  +W                   +W                       W
   |                    |
   /                    /

                                                Gtrs I, II
   E E E E E E a E E    E E E E Q    Q   3x     E E E E E E E E
|--------------------|-------------------||-||-------------------|
|--------------------|------------------o||-||o------------------|
|--------------------|-------------------||-||-------------------|
|--------------------|-------------------||-||-------------------|
|--5h7-7-5h7-7-5h7-7-|--7-5-------------o||-||o-5h7-7-5h7-7-5h7--|
|--------------------|------7-5-3b4--0---||-||-------------------|


                                        1.,2.,3.            4.
                                                                    G5 F#F5
                                                                       PM|
  E E E E E E E E   E E E E E E a E E   E E E E Q    Q      E E E E Q  E E
|-----------------|-------------------|------------------||----------------||
|-----------------|-------------------|-----------------o||----------------||
|-----------------|-------------------|------------------||----------------||
|-----------------|-------------------|------------------||----------------||
|-7-5h7-7-5h7-7-7-|-5h7-7-5h7-7-5h7-7-|-7-5-------------o||-7-5-----5--4-3-||
|-----------------|-------------------|-----7-5-3b4--0---||-----7-5-3--2-1-||


   1st, 2nd, 3rd Verses
    $
    N.C.
    Gtrs I, II
    PM    PM----|         PM----|         PM----|
    Q  Q  E E E E   Q  Q  E E E E   Q  Q  E E E E
||----------------|---------------|---------------|
||o---------------|---------------|---------------|
||----------------|---------------|---------------|
||----------------|---------------|---------------|
||o----7--5-7-7-5-|-7--7--5-7-7-5-|-7--7--5-7-7-5-|
||--0--0--0-0-0-0-|-0--0--0-0-0-0-|-0--0--0-0-0-0-|


                      D5                           D#5
  PM
  Q  E E +E   E  q    Q.   E +Q   Q    +E  Q.   Q  Q
|-------------------|----------------|----------------|
|-------------------|----------------|----------------|
|-------------------|----------------|----------------|
|-------------------|-7----7-(7)--7--|-(7)-7----7--8--|
|-7----5-(5)h=7--5--|-5----5-(5)--5--|-(5)-5----5--6--|
|-0--0-0-(0)-(0)-0--|----------------|----------------|


  N.C.
  PM    PM----|         PM----|         PM----|
  Q  Q  E E E E   Q  Q  E E E E   Q  Q  E E E E
|---------------|---------------|---------------|
|---------------|---------------|---------------|
|---------------|---------------|---------------|
|---------------|---------------|---------------|
|----7--5-7-7-5-|-7--7--5-7-7-5-|-7--7--5-7-7-5-|
|-0--0--0-0-0-0-|-0--0--0-0-0-0-|-0--0--0-0-0-0-|


                      D5                           D#5
  PM
  Q  E E +E   E  q    Q.   E +Q   Q    +E  Q.   Q  Q
|-------------------|----------------|----------------|
|-------------------|----------------|----------------|
|-------------------|----------------|----------------|
|-------------------|-7----7-(7)--7--|-(7)-7----7--8--|
|-7----5-(5)h=7--5--|-5----5-(5)--5--|-(5)-5----5--6--|
|-0--0-0-(0)-(0)-0--|----------------|----------------|


  N.C.
  PM    PM----|      PM      PM--|      PM      PM--|
  Q  Q  E E E E   Q  E E +E  E E E   Q  E E +E  E E E
|---------------|------------------|------------------|
|---------------|------------------|------------------|
|---------------|------------------|------------------|
|---------------|------------------|------------------|
|----7--5-7-7-5-|-7----5-(5)-7-7-5-|-7----5-(5)-7-7-5-|
|-0--0--0-0-0-0-|-0--0-0-(0)-0-0-0-|-0--0-0-(0)-0-0-0-|


                  D5                           D#5
     PM
  Q  E E E E Q    Q.   E +Q   Q    +E  Q.   Q  Q
|---------------|----------------|----------------|
|---------------|----------------|----------------|
|---------------|----------------|----------------|
|----------5----|-7----7-(7)--7--|-(7)-7----7--8--|
|-7----5h7---7--|-5----5-(5)--5--|-(5)-5----5--6--|
|-0--0----------|----------------|----------------|


  N.C.
  PM    PM----|      PM      PM--|      PM      PM--|
  Q  Q  E E E E   Q  E E +E  E E E   Q  E E +E  E E E
|---------------|------------------|------------------|
|---------------|------------------|------------------|
|---------------|------------------|------------------|
|---------------|------------------|------------------|
|----7--5-7-7-5-|-7----5-(5)-7-7-5-|-7----5-(5)-7-7-5-|
|-0--0--0-0-0-0-|-0--0-0-(0)-0-0-0-|-0--0-0-(0)-0-0-0-|


                                   1.
                         To Coda
                  D5                           D#5
     PM
  Q  E E E E Q    Q.   E +Q   Q    +E  Q.   Q  Q
|---------------|----------------|----------------||
|---------------|----------------|----------------||
|---------------|----------------|----------------||
|----------5----|-7----7-(7)--7--|-(7)-7----7--8--||
|-7----5h7---7--|-5----5-(5)--5--|-(5)-5----5--6--||
|-0--0----------|----------------|----------------||


  E5                N.C.
  Gtr I
  E E E E E E E E   E E E E E E E E   E E E E E E a E E   E E E E Q    Q
|-----------------|-----------------|-------------------|-----------------|
|-----------------|-----------------|-------------------|-----------------|
|-----------------|-----------------|-------------------|-----------------|
|-----------------|-----------------|-------------------|-----------------|
|-5h7-7-5h7-7-5h7-|-7-5h7-7-5h7-7-7-|-5h7-7-5h7-7-5h7-7-|-7-5-------------|
|-----------------|-----------------|-------------------|-----7-5-3b4--0--|
|
| Gtr II
| Q   Q   H         W                 W                   W
|-----------------|-----------------|-------------------|-----------------|
|-----------------|-----------------|-------------------|-----------------|
|-----------------|-----------------|-------------------|-----------------|
|-2---------------|-----------------|-------------------|-----------------|
|-2---------------|-----------------|-------------------|-----------------|
|-0---------------|-----------------|-------------------|-----------------|


  E5                                                    N.C.
  E E E E E E E E    E  E E E E E E E    E  E E E E E a E E   E E E E Q    Q
|-----------------|-------------------|---------------------|-----------------|
|-----------------|-------------------|---------------------|-----------------|
|-----------------|-------------------|---------------------|-----------------|
|-----------------|-------------------|---------------------|-----------------|
|-5h7-7-5h7-7-5h7-|--7--5h7-7-5h7-7-7-|--5h=7-7-5h7-7-5h7-7-|-7-5-------------|
|-----------------|-------------------|---------------------|-----7-5-3b4--0--|
|
| W                 +W                  +H.             E E   E E E E Q    Q
|-----------------|-------------------|---------------------|-----------------|
|-----------------|-------------------|---------------------|-----------------|
|-----------------|-------------------|---------------------|-----------------|
|-2---------------|-(2)---------------|-(2)-------------5-5-|-5-4-------------|
|-2---------------|-(2)---------------|-(2)-----------------|-----7-5---------|
|-0---------------|-(0)---------------|-(0)-----------------|---------3b4--0--|


  Gtrs I, II
  E E E E E E E E   E E E E E E E E   E E E E E E a E E   E E E E Q    Q
|-----------------|-----------------|-------------------|-----------------|
|-----------------|-----------------|-------------------|-----------------|
|-----------------|-----------------|-------------------|-----------------|
|-----------------|-----------------|-------------------|-----------------|
|-5h7-7-5h7-7-5h7-|-7-5h7-7-5h7-7-7-|-5h7-7-5h7-7-5h7-7-|-7-5-------------|
|-----------------|-----------------|-------------------|-----7-5-3b4--0--|


  E E E E E E E E   E E E E E E E E   E E E E E E a E E
|-----------------|-----------------|-------------------|
|-----------------|-----------------|-------------------|
|-----------------|-----------------|-------------------|
|-----------------|-----------------|-------------------|
|-5h7-7-5h7-7-5h7-|-7-5h7-7-5h7-7-7-|-5h7-7-5h7-7-5h7-7-|
|-----------------|-----------------|-------------------|


                     2.
             PM|
  E E E E Q  E E     E Q.   Q  Q
|-----------------||----------------||
|----------------o||----------------||
|-----------------||----------------||
|-----------------||-7-7----7--8----||
|-7-5-----5--4-3-o||-5-5----5--6----||
|-----7-5-3--2-1--||----------------||


 Guitar Solo
  E5
  Gtrs I, II
  Q   Q   H         W
  |
  /

  Gtr III
  E E E E E E E E   S S E E E +E  E E E
|-----------------|---------------------|
|-----------------|---------------------|
|-----------------|-9p7---7-------7-9-7-|
|-2-2---0-2-2-9-9-|-9p7-9-7-9-(9)-7-9-7-|
|-2-2-2-0-2-2-----|-----9---9-(9)-------|
|-----2-----------|---------------------|


  W                                  W
                                           ~~~~~~~
  E    +E  E    +E  E    +E  S S E   E Q  +E  +Q   Q
|----------------------------------|------------------|
|-9b10r(9)-9b10r(9)-9b10r(9)-------|------------------|
|-9b10r(9)-9b10r(9)-9b10r(9)-9-7---|-7----------------|
|----------------------------9-7-9-|-7-9--(9)-(9)-----|
|--------------------------------9-|------------------|
|----------------------------------|------------------|


  E5                                                                  D#5
   Q        Q        H                   H                 Q        E  E
   |                                                                   |
   /                                                                   /

   |--3--|  |--3--|  |--3--|  |--3--|    |--3--|  |--3--|  |--3--|
   E  E  E  E  E  E  E  E  E  E  E  E    E  E  E  E  E  E  E  E  E  E  E
|-15-12-------------------------------|----------------------------------|
|-------15-12----12-15-12----------12-|-15-12----------------------------|
|-------------15----------14-12-------|-------14-12-12-12-14-12----------|
|-------------------------------14----|-------------------------14-12----|
|-------------------------------------|-------------------------------14-|
|-------------------------------------|----------------------------------|


  E5                                D5 D#5
   E  E  Q     H              H     Q  Q
   |                                |  |
   /                                /  /

   E  E  E  E  E  E  E  E    +H.       Q
|-------------------------|---------------|
|-------------------------|---------------|
|-------------------------|---------------|
|-12-14-13-12-------------|---------------|
|-------------14-13-12-10-|-(10)----------|
|-------------------------|---------------|


  E5                               D#5
   Q        Q        Q        E    E
   |                               |
   /                               /

   |--3--|  |--3--|  |--3--|  |----3-----|
   E  E  E  E  E  E  E  E  E  E  E    S  S
|-15-12----------12-15-12------------12s13-|
|-------13-12-13----------13-12-13---------|
|------------------------------------------|
|------------------------------------------|
|------------------------------------------|
|------------------------------------------|


  E5                                       D#5
   E    E     Q           Q        E       E
   |                                       |
   /                                       /

   |---3---|  |---3----|  |--3--|  |----3-----|
   E  E    E  S  S  E  E  E  E  E  S  S  E    E
|-16-13---------------14-17-14---------------15-|
|---------14-13s14-15----------15-14s15-16------|
|-----------------------------------------------|
|-----------------------------------------------|
|-----------------------------------------------|
|-----------------------------------------------|


  E5                  D#5  E5               E5(type 2)F#5
   E    E     E       E     E    E     E    E
   |                  |     |               |
   /                  /     /               /

   |---3---|  |----3-----|  |---3---|  |----3-----|
   E  E    E  S  S  E    E  E  E    E  E  E    S  S
|-18-15-----------------16-19-16--------------------|
|---------16-15s16-17--------------17-16-17s==20-20-|
|---------------------------------------------------|
|---------------------------------------------------|
|---------------------------------------------------|
|---------------------------------------------------|


        E5(type 2)
   E    E     E    E     E    E     E    E
   |    |          |          |          |
   /    /          /          /          /

   |---3---|  |---3---|  |---3---|  |---3---|
   E  E    E  E  E    E  E  E    E  E  E    E
|-22-19------22-19------22-19------22-19------|
|---------20---------20---------20---------20-|
|---------------------------------------------|
|---------------------------------------------|
|---------------------------------------------|
|---------------------------------------------|


  F#5   G5                          F#5   G5
   E    E E  E       E  E  E    E    E    E   E       E    E  E  E      E
   |    | |  |          |       |    |    |   |       |       |         |
   /    / /  /          /       /    /    /   /       /       /         /

                                                      ~~~~~~~~
   Q.        E      +Q     Q         Q       +E      +E   +Q     E      S   S
|-22b24-----22b24==(22)---22b24---|-22b24r==(22)b24-(22)-(22)---22b24r(22)p19-|
|---------------------------------|-------------------------------------------|
|---------------------------------|-------------------------------------------|
|---------------------------------|-------------------------------------------|
|---------------------------------|-------------------------------------------|
|---------------------------------|-------------------------------------------|


  F#5   G5
   E     E  E  E      E   E     E     E
   |     |  |  |          |           |
   /     /  /  /          /           /

   S  S  E  E  E     +E   S  S  S  S  E
|-22p19----19------------19----------------|
|-------22----22b24-(22)----22-19-22-22b24-|
|------------------------------------------|
|------------------------------------------|
|------------------------------------------|
|------------------------------------------|


  F#5  G5
    E   E        E     E   E   E    E  E
    |   |        |     |       |       |
    /   /        /     /       /       /

   +E   S  T  T  E     E  +E   Q       E
|------19-----------------------------19-|
|-(22)----22p19-22b24-22-(22)-22b24------|
|----------------------------------------|
|----------------------------------------|
|----------------------------------------|
|----------------------------------------|


  G#5   A5
   E     E     E    E     E    E     E    E
   |     |     |    |          |          |
   /     /     /    /          /          /

   PM-------------------------------------------
               |---3---|  |---3---|  |---3---|
   S  S  S  S  E  E    E  E  E    E  E  E    E
|-19p17s14-------------------------------------|
|----------17-14------14-17-14-----------------|
|----------------17--------------16-14-14---14-|
|----------------------------------------------|
|----------------------------------------------|
|----------------------------------------------|


  G#5   A5
   E    E     E    E     E    E     E  E
   |    |     |    |          |        |
   /    /     /    /          /        /

 -------------------------------------|
   |---3---|  |---3---|  |---3---|
   E  E    E  E  E    E  E  E    E  E  E
|----------------------------------------|
|----------------------------------------|
|-16-14----------------------------------|
|---------16-14------14-16-14------------|
|---------------16--------------16-15-14-|
|----------------------------------------|


  G#5A5                                 G#5A5
   E  E  E  E        E  E        E  E    E  E  E  E   E   E  E  E
   |  |  |  |           |           |    |  |  |  |       |     |
   /  /  /  /           /           /    /  /  /  /       /     /

   PM----------------------------------------------------------|
            |--3--|     |--3--|
   E  E  E  S  S  S  E  S  S  S  E  E    E  E  E  E  +E   E  E  E
|-------------------------------------|---------------------------|
|-------------------------------------|-14-------14-(14)----14-17-|
|----------------------------------14-|-14-14-14-14-(14)-14-14----|
|-------------------14-14h15h16-14----|----14-14---------14-------|
|----------14h15h16-------------------|---------------------------|
|-17-14-17----------------------------|---------------------------|


  A5      G5          A5            G5      A5     G5
   Q.      E     +Q    Q        +E   Q.      Q      Q
   |       |      |    |         |   |       |      |
   /       /      /    /         /   /       /      /

   Q.      E     +Q    Q        +E   Q.      Q      Q
|-14------14----(14)--14-----|-(14)-14------14-----14-----||
|-17b19---17b19-(17)--17b19--|-(17)-17b19---17b19--17b19--||
|----------------------------|----------------------------||
|----------------------------|----------------------------||
|----------------------------|----------------------------||
|----------------------------|----------------------------||


  Gtrs I, II
   E     E E E +Q    E E   E E E E +Q    E E
|------------------------|-------------------|
|------------------------|-------------------|
|------------------------|-------------------|
|----------5-------------|-----3-------------|
|--5h====7---7-(7)\--x-x-|-3h5---5-(5)\--x-x-|
|--------------------x-x-|---------------x-x-|
|
| Gtr III
|  Q       Q    H          W
|-14\--------------------|-------------------|
|-17b19\-----------------|-------------------|
|------------------------|-------------------|
|------------------------|-------------------|
|------------------------|-------------------|
|------------------------|-------------------|


  E E E E +Q.    E   E E E E +Q   Q
|------------------|-----------------|
|------------------|-----------------|
|------------------|-----------------|
|------------------|-----------------|
|-----5------------|---2-------------|
|-5h7---7-(7)\---0-|-2---2-3-(3)--4--|
|
| W                  W
|------------------|-----------------|
|------------------|-----------------|
|------------------|-----------------|
|------------------|-----------------|
|------------------|-----------------|
|------------------|-----------------|


  Gtrs I, II
  E E E E +Q    E E   E E E E +Q    E E   E E E E +Q.    E   E E E E +Q    Q
|-------------------|-------------------|------------------|-------------------|
|-------------------|-------------------|------------------|-------------------|
|-------------------|-------------------|------------------|-------------------|
|-----5-------------|-----3-------------|------------------|-------------------|
|-5h7---7-(7)\--x-x-|-3h5---5-(5)\--x-x-|-----5------------|---2---------------|
|---------------x-x-|---------------x-x-|-5h7---7-(7)\---0-|-2---2-3-(3)---4---|
|
| Gtr III
| W                   W                   W                  E E E E  E  E E E
|-------------------|-------------------|------------------|-------------------|
|-------------------|-------------------|------------------|-------------------|
|-------------------|-------------------|------------------|-------------------|
|-------------------|-------------------|------------------|-------------------|
|-------------------|-------------------|------------------|---2---------------|
|-------------------|-------------------|------------------|-2---2-3--3--3-4-4-|


    Gtrs I, II
    E E E E +Q    E E   E E E E +Q    E E
||--------------------|-------------------|
||o-------------------|-------------------|
||--------------------|-------------------|
||------5-------------|-----3-------------|
||o-5h7---7-(7)\--x-x-|-3h5---5-(5)\--x-x-|
||----------------x-x-|---------------x-x-|


  E E E E +Q.    E   E E E E +Q   Q
|------------------|-------------------||
|------------------|------------------o||
|------------------|-------------------||
|------------------|-------------------||
|-----5------------|---2--------------o||
|-5h7---7-(7)\---0-|-2---2-3-(3)--4----||


                                                          Slower Q=124
  A5   G5     A5       G5   A5 G5   E5                        Em
                                                              Gtr IV
  Q.   E +Q   Q    +E  Q.   Q  Q    W          +W             Q  E E E Q  E
|----------------|----------------|----------|------------||--------------0-|
|----------------|----------------|----------|------------||o----------8----|
|----------------|----------------|----------|------------||---------9------|
|----------------|----------------|----------|------------||-------9--------|
|-7----5-(5)--7--|-(7)-5----7--5--|-2--------|-(2)--------||o----7----------|
|-5----3-(3)--5--|-(5)-3----5--3--|-0--------|-(0)--------||--0-------------|


                                   1.                   2.
                   Dmadd9
  +E  E E E H      Q  E E E Q  E   +E  E E E +H          E E E E +Q   Q
|-(0)------------|----------0----|-------------------||------------------||
|-----8----------|--------6----6-|-(6)--------------o||-(6)--------------||
|-------9p0-0----|------7--------|-----7p0-0-(0)-----||----7p0-0-(0)-----||
|----------------|----7----------|-------------------||------------------||
|----------------|-5-------------|------------------o||---------------6--||
|----------------|---------------|-------------------||------------------||


  Em
  Gtr V
   \1.5/
   W                    +Q     E  E  Q.     E
|--------------------|------------------------|
|--------------------|--------------10-----12-|
|-12-----------------|-(12)---11h12-----------|
|--------------------|------------------------|
|--------------------|------------------------|
|--------------------|------------------------|
|
| Gtr VI
|  Q      E E E Q  E     E  E  E  E  Q   Q
|------------------0-|---0--------------------|
|---------------8----|------8-----------------|
|-------------9------|---------9p=0--0--------|
|-----------9--------|------------------------|
|---------7----------|-------------------6----|
|--0-----------------|------------------------|


  Dmadd9
   ~~~~~~~~~~~~~~~~~~~~~
   W                +Q     E  E  Q.     E
|----------------|------------------------|
|-10-------------|-(10)---------12-----15-|
|----------------|--------12h14-----------|
|----------------|------------------------|
|----------------|------------------------|
|----------------|------------------------|
|
|  Q  E E E Q  E    +E  E  E  E +Q   Q
|-----------0----|------------------------|
|---------6----6-|--(6)-------------------|
|-------7--------|------7p=0--0-(0)-------|
|-----7----------|------------------------|
|--5-------------|-------------------6----|
|----------------|------------------------|


     Em                                              Dmadd9
      ~~~~~~~~~~~~~~~~~~~~~                           ~~
   a  W                +Q     E  E  a  Q.     S  S    W
|-------------------|-----------14-15h17-----15h17-|-15-------------|
|-15s17-------------|-(17)---17--------------------|----------------|
|-------------------|------------------------------|----------------|
|-------------------|------------------------------|----------------|
|-------------------|------------------------------|----------------|
|-------------------|------------------------------|----------------|
|
|     Q  E E E Q  E     E  E  E  E     Q   Q          Q  E E E Q  E
|-----------------0-|---0--------------------------|-----------0----|
|--------------8----|------8-----------------------|---------6----6-|
|------------9------|---------9p=0-----0-----------|-------7--------|
|----------9--------|------------------------------|-----7----------|
|--------7----------|----------------------6-------|--5-------------|
|-----0-------------|------------------------------|----------------|


                          Cadd9                                         N.C.
    ~~~~
                           |--3--|
   +Q     E  E  Q    Q     S  S  S  Q.      +H          +H         Q    Q
|-(15)---14-15-17---15--|-17p15p14-------------------|----------------------||
|-----------------------|----------15------(15)------|-(15)------(15)\------||
|-----------------------|----------------------------|----------------------||
|-----------------------|----------------------------|----------------------||
|-----------------------|----------------------------|----------------------||
|-----------------------|----------------------------|----------------------||
|
|   E  E  E  E +Q    Q     Q           E E   E  Q  E    +E  Q  E  +Q    Q
|-----------------------|-----------------------0----|----------------------||
|---6-------------------|--------------------3-----3-|--(3)-----------------||
|------7p=0--0-(0)------|----------------0-----------|------0---------------||
|-----------------------|--------------5-------------|---------5--(5)-------||
|--------------------4--|--3-------------------------|----------------------||
|-----------------------|----------------------------|------------------1---||


    Em7                            N.C.
    Q  E E E Q  E   +E  E E E +Q   Q
||--------------0-|-(0)----------------||
||o----------3----|-----3p0-0-(0)-----o||
||---------0------|--------------------||
||-------2--------|--------------------||
||o----2----------|-------------------o||
||--0-------------|----------------1---||


  Em
  Gtr IV
   E      E  E  E  E  +E   E  E       +Q     +H.
|----------------------------------|--------------------|
|----------------------------12b14-|-(12)---(12)--------|
|-14b16==14-14-14-14r(14)-12-------|--------------------|
|----------------------------------|--------------------|
|----------------------------------|--------------------|
|----------------------------------|--------------------|
|
| Gtr V
|  Q         E  E  E   Q      E        E  E   E E Q  Q
|-----------------------------0----|---0----------------|
|----------------------8-----------|------8-------------|
|------------------9---------------|----------9p0-0-----|
|---------------9------------------|--------------------|
|------------7---------------------|-----------------6--|
|--0-------------------------------|--------------------|


  Dmadd9
   E      E  E  E  E  +E   E  E        H.            Q
|----------------------------------|--------------------|
|----------------------------18b20-|-(18)---------------|
|-17b19==17-17-17-17r(17)-15-------|--------------------|
|----------------------------------|--------------------|
|----------------------------------|--------------------|
|----------------------------------|--------------------|
|
|  Q         E  E  E   Q      E       +E  E E E +Q   Q
|----------------------0-----------|--------------------|
|------------------6----------6----|--(6)---------------|
|---------------7------------------|------7p0-0-(0)-----|
|------------7---------------------|--------------------|
|--5-------------------------------|-----------------6--|
|----------------------------------|--------------------|


  Em
   E     E  E     E  E       S   S  S  S  E
|----------------------------------------------|
|-------20-------20----------------------20b22-|
|-19b21----19b21----19pb21r(19)p17----17-------|
|----------------------------------19----------|
|----------------------------------------------|
|----------------------------------------------|
|
|  Q        E     E  E       Q            E
|-----------------------------------------0----|
|----------------------------8-----------------|
|--------------------9-------------------------|
|-----------------9----------------------------|
|-----------7----------------------------------|
|--0-------------------------------------------|


                     Dmadd9
   +H.          Q     E       E  E  E  E   S  S  E   E
|------------------|-------------------------------/22-|
|-(20)-------------|-20pb22==20-20-20-20r-20p19--------|
|------------------|----------------------------19-----|
|------------------|-----------------------------------|
|------------------|-----------------------------------|
|------------------|-----------------------------------|
|
|   E  E E E Q  Q     Q          E  E  E   Q         E
|---0--------------|-----------------------0-----------|
|------8-----------|-------------------6-------------6-|
|--------9p0-0-----|----------------7------------------|
|------------------|-------------7---------------------|
|---------------6--|--5--------------------------------|
|------------------|-----------------------------------|


   +H         E   E  E  E
|-(22)-------22--20-19----|
|----------------------20-|
|-------------------------|
|-------------------------|
|-------------------------|
|-------------------------|
|
|   E  E E E +Q      Q
|-------------------------|
|---6---------------------|
|------7p0-0-(0)----------|
|-------------------------|
|--------------------4----|
|-------------------------|


  Cadd9                                                               Cadd9
      |--3--|     |--3--|     |--3--|     |--3--|
   E  S  S  S  E  S  S  S  E  S  S  S  E  S  S  S    E.    S H        Q
|-------------------------------------------------|----------------------|
|-22p20p19s17-20p19p17s15-19p17p15s13-17p15p13s12-|-15p===12s8-----------|
|-------------------------------------------------|----------------------|
|-------------------------------------------------|----------------------|
|-------------------------------------------------|----------------------|
|-------------------------------------------------|----------------------|
|
|  Q           E  E        E  Q           E         +E  Q      E +Q   Q
|-----------------------------0-------------------|----------------------|
|--------------------------3--------------3-------|-(3)------------------|
|-----------------0-------------------------------|-----0----------------|
|--------------5----------------------------------|------------5-(5)-----|
|--3----------------------------------------------|----------------------|
|-------------------------------------------------|-------------------1--|


    Em7                            N.C.
    Gtr IV
    Q  E E E Q  E   +E  E E E +Q   Q
||--------------0-|-(0)----------------||
||o----------3----|-----3p0-0-(0)-----o||
||---------0------|--------------------||
||-------2--------|--------------------||
||o----2----------|-------------------o||
||--0-------------|----------------1---||


  Em7                                   N.C.
  Gtr IV
  Q  E E   E  Q     E    +E  E E E +Q    Q
|-------------------0-|--(0)------------------|
|-------------3-------|------3p0-0-(0)--------|
|----------0----------|-----------------------|
|------2--------------|-----------------------|
|----2----------------|-----------------------|
|-0-------------------|------------------1----|
|
| Gtr V
| H        E  E  E  E    +E  Q   E +Q   +Q
|---------------------|-----------------------|
|---------------------|-----------------------|
|---------------------|-----------------------|
|---------------------|-----------------------|
|--------/10-10-10-10-|-(10)-9---7-(7)--(7)\--|
|---------------------|-----------------------|
|
| Gtr VI
| H        E  E  E  E    +E  Q   E +Q   +Q
|---------------------|-----------------------|
|---------------------|-----------------------|
|---------------------|-----------------------|
|---------------------|-----------------------|
|---------/7--7--7--7-|--(7)-5----------------|
|---------------------|----------7-(7)--(7)\--|


  Em7                                     N.C.
  Q  E E   E  Q     E    +E  E E  E  +Q     Q
|-------------------0-|--(0)---------------------|
|-------------3-------|------3p0--0--(0)---------|
|----------0----------|--------------------------|
|------2--------------|--------------------------|
|----2----------------|--------------------------|
|-0-------------------|---------------------1----|
|
| H        E  E  E  E    +E  Q    E  +Q    +Q
|---------------------|--------------------------|
|---------------------|--------------------------|
|---------------------|--------------------------|
|---------------------|--------------------------|
|--------/10-10-10-10-|-(10)-9---10-(10)--(10)\--|
|---------------------|--------------------------|
|
| H        E  E  E  E    +E  Q    E  +Q    +Q
|---------------------|--------------------------|
|---------------------|--------------------------|
|---------------------|--------------------------|
|---------------------|--------------------------|
|---------/7--7--7--7-|--(7)-5----7--(7)---(7)\--|
|---------------------|--------------------------|


  Em7                                   N.C.
  Q  E E  E Q   E   +E     E E  E  +Q     Q
|---------------0-|-(0)------------------------|
|-----------3-----|--------3p0--0--(0)---------|
|---------0-------|----------------------------|
|------2----------|----------------------------|
|----2------------|----------------------------|
|-0---------------|-----------------------1----|
|
| H       E E E E   +E     Q    E  +Q    +Q
|-----------------|----------------------------|
|-----------------|----------------------------|
|-----------------|----------------------------|
|--------/9-9-9-9-|-(9)---10-------------------|
|-----------------|------------10-(10)--(10)\--|
|-----------------|----------------------------|
|
| H       E E E E   +E  a  Q    E  +Q    +Q
|-----------------|----------------------------|
|-----------------|----------------------------|
|-----------------|----------------------------|
|-----------------|----------------------------|
|--------/7-7-7-7-|-(7)-5h=7----7--(7)---(7)\--|
|-----------------|----------------------------|


  Em7                                      N.C.
  Q  E E   E  Q     E    +E   E E  E  +Q   Q
|-------------------0-|--(0)------------------|
|-------------3-------|-------3p0--0--(0)-----|
|----------0----------|-----------------------|
|------2--------------|-----------------------|
|----2----------------|-----------------------|
|-0-------------------|--------------------1--|
|
| H        E  E  E  E    +E   Q    E  +H
|---------------------|-----------------------|
|---------------------|-----------------------|
|---------------------|-----------------------|
|---------/9--9--9--9-|--(9)-12---14-(14)-----|
|---------------------|-----------------------|
|---------------------|-----------------------|
|
| H        E  E  E  E    +E   Q    E  +H
|---------------------|-----------------------|
|---------------------|-----------------------|
|---------------------|-----------------------|
|---------------------|-------9---------------|
|--------/10-10-10-10-|-(10)------10-(10)-----|
|---------------------|-----------------------|


                    E5
  Gtr IV
  W                 W
  |
  o

  Gtrs I, II
  >
  PM------------------------------|
  E E E E E E E E   E E E E E E E E
|-----------------|-----------------|
|-----------------|-----------------|
|-----------------|-----------------|
|-----------------|-----------------|
|-2-2-2-2-2-2-2-2-|-2-2-2-2-2-2-2-2-|
|-0-0-0-0-0-0-0-0-|-0-0-0-0-0-0-0-0-|


  Tempo I Q=208
  A5   G5     A5       G5   A5 G5
  Q.   E +Q   Q    +E  Q.   Q  Q
|----------------|----------------|
|----------------|----------------|
|----------------|----------------|
|----------------|----------------|
|-7----5-(5)--7--|-(7)-5----7--5--|
|-5----3-(3)--5--|-(5)-3----5--3--|


  E5
  Gtr II
  Q   Q   H         W                 W                   W
  |
  /

  Gtr I
  E E E E E E E E   E E E E E E E E   E E E E E E a E E   E E E E Q    Q
|-----------------|-----------------|-------------------|-----------------||
|-----------------|-----------------|-------------------|-----------------||
|-----------------|-----------------|-------------------|-----------------||
|-----------------|-----------------|-------------------|-----------------||
|-5h7-7-5h7-7-5h7-|-7-5h7-7-5h7-7-7-|-5h7-7-5h7-7-5h7-7-|-7-5-------------||
|-----------------|-----------------|-------------------|-----7-5-3b4--0--||


    E5
    W                 +W
    |                  |
    /                  /

    E E E E E E E E    E E E E E E E E
||------------------|------------------|
||o-----------------|------------------|
||------------------|------------------|
||------------------|------------------|
||o-5h7-7-5h7-7-5h7-|--7-5h7-7-5h7-7-7-|
||------------------|------------------|


  +W                   +W
   |                    |
   /                    /

   E E E E E E a E E    E E E E Q    Q
|--------------------|-------------------||
|--------------------|------------------o||
|--------------------|-------------------||
|--------------------|-------------------||
|--5h7-7-5h7-7-5h7-7-|--7-5-------------o||
|--------------------|------7-5-3b4--0---||


                                                          D.S. al Coda
  E5                                                            E7
                                      Gtrs I, II
  Q   Q   Q   Q     Q   Q   Q   Q     E E E E E E E E   E E E E E E E E
  |       |         |       |         | |   | |   | |     | |   |   |
  /       /         /       /         / /   / /   / /     / /   /   /

  E E E E E E E E   E E E E E E E E   W                 W
|-----------------|-----------------|-----------------|-----------------||
|-----------------|-----------------|-----------------|-----------------||
|-----------------|-----------------|-----------------|-----------------||
|-----------------|-----------------|-----------------|-----------------||
|-5h7-7-5h7-7-5h7-|-7-5h7-7-5h7-7-7-|-----------------|-----------------||
|-----------------|-----------------|-----------------|-----------------||


  &
  E Q.   Q  Q      E E E E E E E E   E E E E E E E E
|--------------||------------------|-----------------|
|--------------||o-----------------|-----------------|
|--------------||------------------|-----------------|
|-7-7----7--8--||------------------|-----------------|
|-5-5----5--6--||o-5h7-7-5h7-7-5h7-|-7-5h7-7-5h7-7-7-|
|--------------||------------------|-----------------|


  E E E E E E a E E   E E E E Q    Q     4x
|-------------------|--------------------||
|-------------------|-------------------o||
|-------------------|--------------------||
|-------------------|--------------------||
|-5h7-7-5h7-7-5h7-7-|-7-5---------------o||
|-------------------|-----7-5-3b4--0-----||


  E5
 6/4              4/4
  Gtrs I, II
  W.               +W          +W
  |                 |           |
  /                 /           /

  W         H       W           W
|----------------|-----------|-------|
|----------------|-----------|-------|
|----------------|-----------|-------|
|----------------|-----------|-------|
|----------------|-----------|-------|
|----------------|-----------|-------|


  Gtrs I, II
  PM----------------------------|
  E E E E E E E E   E E E E E E E E
|-----------------|-----------------|
|-----------------|-----------------|
|-----------------|-----------------|
|-----------------|-----------------|
|-2-2---2-2---2-2-|---2-2---2---2---|
|-0-0---0-0---0-0-|---0-0---0---0---|


  Gtrs I, II        Gtrs I, II
  E E E E E E E E   H    H      W
|-----------------|-----------|------*|
|-----------------|-----------|------*|
|-----------------|-----------|------*|
|-4h5-5-4h5-5-4h5-|-----------|------*|
|-5h7-7-5h7-7-5h7-|-2---------|------*|
|-----------------|-0---------|------*|
comments
print report bad tab
9 comments total. Showing first comments.
0 reply
Vassago36 wrote on June 28 2004, 12:00 am

straight out of the book,huh?

0 reply
nolife'tilmetal wrote on April 22 2008, 04:31 pm

most likely...

0 reply
nolife'tilmetal wrote on April 22 2008, 04:33 pm

i think it's from whiteend.com. Anyway im glad it's on here because whiteend.com is blocked on my computer now...

I want to post or [tab]
guest
You may want to rate the tab now too:
select rating
Please do not post tabs as comments. Select "correction" instead!