Oops, an error
Loading. Please wait.

Broken Beat And Scarred Tab

ver2
ver2

Intro

Solo

Whole song

More versions @911Tabs.com
21,701 views 24 this week
3 commentsread comments
1 2 3 4 5
accurate
x 10
Autoscroll
+/-
esc
set tempo
stop
Contributor
Hey! There's an official Ultimate Guitar app which is ideal
for learning songs when you're away from computer. Get the app
WARNING: You are trying to view
                                    content from Ultimate-Guitar.com
                                    in an unauthorized application,
                                    which is prohibited.

                                    Please use an official Ultimate
                                    Guitar Tabs application for iPhone,
                                    iPad or Android to access legitimate
                                    chords, guitar, bass, and drum tabs
                                    from Ultimate-Guitar.com database.

                                    Type "ultimate guitar tabs" in Apple
                                    App Store's or Android Market's
                                    search to find the application.
#----------------------------------PLEASE NOTE---------------------------------#
#This file is the author's own work and represents their interpretation of the #
#song. You may only use this file for private study, scholarship, or research. #
#------------------------------------------------------------------------------#


          E5
      0 2 2 x x x

Gtr I (E A D G B E) - 'Guitar 1'
Gtr II (E A D G B E) - 'Guitar 2'
Gtr III (E A D G B E) - 'Guitar 3'

 Intro
  Moderate Q=120
  N.C.                   E5  N.C.                E5  N.C.
 4/4
  Gtr I
                         PM                      PM
  H    E    E S E  S     E E Q.       E S E  S   E E Q.       E S E  S
|--------------------||------------------------|------------------------||
|--------------------||o-----------------------|-----------------------o||
|--------------------||------------------------|------------------------||
|--------------------||--2-2-------------------|-2-2--------------------||
|-------------7------||o-2-2------------7------|-2-2------------7------o||
|----------/6---6\-x-||--0-0---------/6---6\-x-|-0-0---------/6---6\-x--||
|
| Gtr II
|                        PM                      PM
| H    Q..         S     E E Q   Q..         S   E E Q   Q..         S
|--------------------||------------------------|------------------------||
|--------------------||o-----------------------|-----------------------o||
|--------------------||------------------------|------------------------||
|--------------------||--2-2-------------------|-2-2--------------------||
|--------------------||o-2-2-------------------|-2-2-------------------o||
|------------------x-||--0-0-----------------x-|-0-0-----------------x--||


    E5
    Gtr III
    E E E  E E    E E    E     E E E  E E    E E    E
    | | |  |      | |    |     | | |  |      | |    |
    / / /  /      / /    /     / / /  /      / /    /

    Gtr I
                               PM
    E E Q.        E S E    S   E E Q.        E S E    S
||---------------------------|---------------------------||
||o--------------------------|--------------------------o||
||---------------------------|---------------------------||
||--2-2----------------------|-2-2-----------------------||
||o-2-2-------------7--------|-2-2-------------7--------o||
||--0-0----------/6---6\---x-|-0-0----------/6---6\---x--||
|
|   Gtr II
|   PM                         PM
|   E E Q    Q..           S   E E Q    Q..           S
||---------------------------|---------------------------||
||o--------------------------|--------------------------o||
||---------------------------|---------------------------||
||--2-2----------------------|-2-2-----------------------||
||o-2-2----------------------|-2-2----------------------o||
||--0-0--------------------x-|-0-0--------------------x--||


  E E  E E  E  E E E   E E E E  E  E E E
  | |  | |     | | |   | | | |     | | |
  / /  / /     / / /   / / / /     / / /

                             ~~~~~~~~~~
  E E  E E +E  E E E   E E E E +Q.     S S
|--------------------|---------------------|
|--------------------|---------------------|
|--------------------|---------------------|
|--------7-(7)-------|---------------------|
|-----/8-------8-7s5-|-7s8-7-7-(7)---------|
|-0-0----------------|-----------------0-0-|


  E E  E E  E  E E E   E E E E  E  E E E
  | |  | |     | | |   | | | |     | | |
  / /  / /     / / /   / / / /     / / /

                             ~~~~~~~~~~
  E E  E E +E  E E E   E E E E +Q.     S S
|--------------------|-----------------------|
|--------------------|-----------------------|
|--------------------|-----------------------|
|--------7-(7)-------|-----------------------|
|-----/8-------8-7s5-|-7s8-7-7-(7)-----------|
|-0-0----------------|-----------------0-0---|


  E E   E  E   E   E  E  E    E  E  E  E   E  E E E
  | |   |  |       |  |  |    |  |  |  |      | | |
  / /   /  /       /  /  /    /  /  /  /      / / /

  Gtr I
                                       ~~~~~~~~~~~
  E E   E  E  +E   E  E  E    E  E  E  E  +Q.     S S
|--------------------------|--------------------------|
|--------------------------|--------------------------|
|--------------------------|--------------------------|
|----------7--(7)----------|--------------------------|
|------/8----------8--7s=5-|--7s=8--7--7--(7)---------|
|-0-0----------------------|----------------------0-0-|
|
| Gtr II
|                                      ~~~~~~~~~~~~~~~
| Q     E  E  +E   E  E  E    E  E  E  E  +H
|--------------------------|--------------------------|
|--------------------------|--------------------------|
|---------14-(14)----------|--------------------------|
|-----/15---------15-14s12-|-14s15-14-14-(14)---------|
|--------------------------|--------------------------|
|--------------------------|--------------------------|


                         E
  E E   E  E   E   E  E  S S
  | |   |  |       |  |  | |
  / /   /  /       /  /  o /

                         ~~~~~
  E E   E  E  +E   E  E  E
|-----------------------------|
|-----------------------------|
|-----------------------------|
|----------7--(7)-------------|
|------/8----------8--7s=5----|
|-0-0-------------------------|
|
|                        ~~~~~
| Q     E  E  +E   E  E  E
|-----------------------------|
|-----------------------------|
|---------14-(14)-------------|
|-----/15---------15-14s12----|
|-----------------------------|
|-----------------------------|


  G5         N.C.        G5       A5     Bb5             A5    D7
    ~~~~~~~~~~~~~~~~~~~~~~                ~~~~~~~~~~~~~~~~~~~
   +H.                    Q        Q      H.                    E  E  H.
|-------------------------------|----------------------------|--------------|
|-------------------------------|----------------------------|--------------|
|-------------------------------|----------------------------|--------5-----|
|-------------------------------|----------------------------|-----7--------|
|--(5)--------------------5-----|--7------8------------------|-/5-----------|
|-------------------------------|----------------------------|--------------|
|
|   ~~~~~~~~~~~~~~~~~~~~~~                ~~~~~~~~~~~~~~~~~~~
|  +H.                    Q        Q      H.                    E  E  H.
|-------------------------------|----------------------------|--------------|
|-------------------------------|----------------------------|-------13-----|
|-------------------------------|----------------------------|----14--------|
|-(12)-------------------12-----|-14-----15------------------|-12-----------|
|-------------------------------|----------------------------|--------------|
|-------------------------------|----------------------------|--------------|
|
| Gtr III
|      PM|   PM--------|    PM|      PM|     PM--------|
|   E  S S E S S S S S S  E S S    E S S  E  S S S S S S Q      E  E  H.
|-------------------------------|----------------------------|--------------|
|-------------------------------|----------------------------|--------------|
|-------------------------------|----------------------------|--------5-----|
|---5------5--------------5-----|--7------8--------------7\--|-----7--------|
|---5------5--------------5-----|--7------8--------------7\--|-/5-----------|
|---3--0-0-3-0-0-0-0-0-0--3-0-0-|--5-0-0--6--6-6-6-6-6-6-5\--|--------------|


             F5            E5  N.C.
   +Q.   E   H             E E  E E +E   E E E
|------------------------|-----------------------|
|------------------------|-----------------------|
|--(5)-------------------|-----------------------|
|------------------------|-2-2----7-(7)----------|
|------------------------|-2-2-/8--------8-7s5---|
|------------------------|-0-0-------------------|
|
|  +Q.   E   H             E E  E E +E   E E E
|------------------------|-----------------------|
|-(13)-------------------|-----------------------|
|------------------------|-----------------------|
|------------------------|-2-2----7-(7)----------|
|------------------------|-2-2-/8--------8-7s5---|
|------------------------|-0-0-------------------|
|
|        PM|   PM|   PM|
|  +Q.   S S E S S E S S   E E  Q    Q..       S
|------------------------|-----------------------|
|------------------------|-----------------------|
|--(5)-------------------|-----------------------|
|------------3-----3-----|-2-2-------------------|
|------------3-----3-----|-2-2-------------------|
|--------0-0-1-0-0-1-0-0-|-0-0-----------------x-|


  E5  N.C.                E5  N.C.
  PM|                     PM|
  E E  E E +E   E E E     E E  E E +E   E E E
|-----------------------|-----------------------|
|-----------------------|-----------------------|
|-----------------------|-----------------------|
|-2-2----7-(7)----------|-2-2----7-(7)----------|
|-2-2-/8--------8-7s5---|-2-2-/8--------8-7s5---|
|-0-0-------------------|-0-0-------------------|
|
| PM|                     PM|
| E E  E E +E   E E E     E E  E E +E   E E E
|-----------------------|-----------------------|
|-----------------------|-----------------------|
|-----------------------|-----------------------|
|-2-2----7-(7)----------|-2-2----7-(7)----------|
|-2-2-/8--------8-7s5---|-2-2-/8--------8-7s5---|
|-0-0-------------------|-0-0-------------------|
|
| PM|                     PM|
| E E  Q    Q..       S   E E  Q    Q..       S
|-----------------------|-----------------------|
|-----------------------|-----------------------|
|-----------------------|-----------------------|
|-2-2-------------------|-2-2-------------------|
|-2-2-------------------|-2-2-------------------|
|-0-0-----------------x-|-0-0-----------------x-|


  E5  N.C.                E5  N.C.
  Gtrs I, II
  PM|                     PM|
  E E  E E +E   E E E     E E  E E +E   E E E
|-----------------------|-----------------------|
|-----------------------|-----------------------|
|-----------------------|-----------------------|
|-2-2----7-(7)----------|-2-2----7-(7)----------|
|-2-2-/8--------8-7s5---|-2-2-/8--------8-7s5---|
|-0-0-------------------|-0-0-------------------|
|
| Gtr III
| PM|                     PM|
| E E  Q    Q..       S   E E  Q    Q..       S
|-----------------------|-----------------------|
|-----------------------|-----------------------|
|-----------------------|-----------------------|
|-2-2-------------------|-2-2-------------------|
|-2-2-------------------|-2-2-------------------|
|-0-0-----------------x-|-0-0-----------------x-|


  E5  N.C.                E5  N.C.
  PM|                     PM|
  E E  E E +E   E E E     E E  E E +E   E E E
|-----------------------|-----------------------|
|-----------------------|-----------------------|
|-----------------------|-----------------------|
|-2-2----7-(7)----------|-2-2----7-(7)----------|
|-2-2-/8--------8-7s5---|-2-2-/8--------8-7s5---|
|-0-0-------------------|-0-0-------------------|
|
| PM|                     PM|
| E E  Q    Q..       S   E E  Q    Q..       S
|-----------------------|-----------------------|
|-----------------------|-----------------------|
|-----------------------|-----------------------|
|-2-2-------------------|-2-2-------------------|
|-2-2-------------------|-2-2-------------------|
|-0-0-----------------x-|-0-0-----------------x-|


  E5  N.C.               F5            E5  N.C.               F5
                        2/4           4/4                    2/4
  PM|              PM|                 PM|              PM|
  E E  E E +E  E E S S   E S S E S S   E E  E E +E  E E S S   E S S E S S
|----------------------|-------------|----------------------|-------------|
|----------------------|-------------|----------------------|-------------|
|----------------------|-------------|----------------------|-------------|
|-2-2----7-(7)---------|-3-----3-----|-2-2----7-(7)---------|-3-----3-----|
|-2-2-/8-------8-7-----|-3-----3-----|-2-2-/8-------8-7-----|-3-----3-----|
|-0-0--------------0-0-|-1-0-0-1-0-0-|-0-0--------------0-0-|-1-0-0-1-0-0-|
|
| PM|              PM|                 PM|              PM|
| E E  Q    Q.     S S   E S S E S S   E E  Q    Q.     S S   E S S E S S
|----------------------|-------------|----------------------|-------------|
|----------------------|-------------|----------------------|-------------|
|----------------------|-------------|----------------------|-------------|
|-2-2------------------|-3-----3-----|-2-2------------------|-3-----3-----|
|-2-2------------------|-3-----3-----|-2-2------------------|-3-----3-----|
|-0-0--------------0-0-|-1-0-0-1-0-0-|-0-0--------------0-0-|-1-0-0-1-0-0-|


    $
    N.C.
   4/4
                   PM--|  ~~~~~PM--|      PM--|  ~~~~~PM--|
     |--3--|       |-3-|       |-3-|      |-3-|       |-3-|
     S  S  S  E  E S S S  E  E S S S  E   S S S  E  E S S S  E  E  S  S  S  S
||--------------------------------------|-------------------------------------|
||o-------------------------------------|-------------------------------------|
||--------------------------------------|-------------------------------------|
||--------------------------------------|-------------------------------------|
||o-------------------------------------|-------------------------------------|
||--15h17p15-14-12-0-0-0-12-12-0-0-0-12-|-0-0-0-12-12-0-0-0-12-12-15-15-15-15-|


                                       1.
                 PM--|  ~~~~~PM--|      PM--|  ~~~~~PM--|
   |--3--|       |-3-|       |-3-|      |-3-|       |-3-|
   S  S  S  E  E S S S  E  E S S S  E   S S S  E  E S S S  E  E  S  S  S  S
|-------------------------------------|--------------------------------------||
|-------------------------------------|-------------------------------------o||
|-------------------------------------|--------------------------------------||
|-------------------------------------|--------------------------------------||
|-------------------------------------|-------------------------------------o||
|-15h17p15-14-12-0-0-0-12-12-0-0-0-12-|-0-0-0-12-12-0-0-0-12-12-15-15-15-15--||


  2.,D.S.
  PM--|  ~~~~~PM--|
  |-3-|       |-3-|
  S S S  E  E S S S  Q   S S S S
|--------------------------------||
|--------------------------------||
|--------------------------------||
|--------------------------------||
|--------------------------------||
|-0-0-0-12-12-0-0-0-12\--3-3-3-3-||


   Verse
            E5                                  N.C.
              PM--|     PM|     PM|
    |-3-|     |-3-|
    S S S E E S S S E E S S E   S S E E E E S S S S S S  4x
||----------------------------|--------------------------||
||o---------------------------|-------------------------o||
||----------------------------|--------------------------||
||----------2-------2-2-----2-|-----2-2---2--------------||
||o---------2-------2-2-----2-|-----2-2---2-------------o||
||--3h5p3-2-0-0-0-0-0-0-0-0-0-|-0-0-0-0---0-0-0-3-3-3-3--||


 Pre-Chorus
  E5         C5/G       G5   Bb5 A5 G5
   H         H          H      E  E Q
|---------------------|----------------|
|---------------------|----------------|
|------------5--------|----------------|
|--2---------5--------|-5-----/8--7-5--|
|--2---------3--------|-5-----/8--7-5--|
|--0---------3--------|-3-----/6--5-3--|
|
| Gtr III
|  Q.    +E  Q.   +E    H      E  E Q
|---------------------|----------------|
|---------------------|----------------|
|-12----(12)S9----(9)S|=7----/12-11-7--|
|--x---------x--------|-x------x--x-x--|
|-10----(10)S7----(7)S|=5----/10--9-5--|
|---------------------|----------------|


  N.C.    E5                                  N.C.
            PM--|     PM|     PM|
  |-3-|     |-3-|
  S S S E E S S S E E S S E   S S E E E E S S S S S S
|---------------------------|-------------------------|
|---------------------------|-------------------------|
|---------------------------|-------------------------|
|---------2-------2-2-----2-|-----2-2---2-------------|
|---------2-------2-2-----2-|-----2-2---2-------------|
|-3h5p3-2-0-0-0-0-0-0-0-0-0-|-0-0-0-0---0-0-0-3-3-3-3-|
|
| W                           W
|---------------------------|-------------------------|
|---------------------------|-------------------------|
|---------------------------|-------------------------|
|---------------------------|-------------------------|
|---------------------------|-------------------------|
|---------------------------|-------------------------|


  E5         C5/G       G5   Bb5 A5G5
   H         H          H      E E Q
|---------------------|---------------|
|---------------------|---------------|
|------------5--------|---------------|
|--2---------5--------|-5-----/8-7-5--|
|--2---------3--------|-5-----/8-7-5--|
|--0---------3--------|-3-----/6-5-3--|
|
|  Q.    +E  Q.   +E    H      E E Q
|---------------------|---------------|
|---------------------|---------------|
|-12----(12)S9----(9)S|=7----/10-9-7--|
|--x---------x--------|-x------x-x-x--|
|-10----(10)S7----(7)S|=5-----/8-7-5--|
|---------------------|---------------|


  N.C.    E5                                  N.C.
            PM--|     PM|     PM|
  |-3-|     |-3-|
  S S S E E S S S E E S S E   S S E E E E S S S S S S
|---------------------------|-------------------------|
|---------------------------|-------------------------|
|---------------------------|-------------------------|
|---------2-------2-2-----2-|-----2-2---2-------------|
|---------2-------2-2-----2-|-----2-2---2-------------|
|-3h5p3-2-0-0-0-0-0-0-0-0-0-|-0-0-0-0---0-0-0-3-3-3-3-|
|
| W                           W
|---------------------------|-------------------------|
|---------------------------|-------------------------|
|---------------------------|-------------------------|
|---------------------------|-------------------------|
|---------------------------|-------------------------|
|---------------------------|-------------------------|


  G5      N.C.        G5      A5  Bb5 N.C.        A5
    PM|   PM--------|   PM|     PM|   PM--------|
  E S S E S S S S S S E S S   E S S E S S S S S S E S S
|---------------------------|---------------------------|
|---------------------------|---------------------------|
|---------------------------|---------------------------|
|-5-----5-------------5-----|-7-----8-------------7-----|
|-5-----5-------------5-----|-7-----8-------------7-----|
|-3-0-0-3-0-0-0-0-0-0-3-0-0-|-5-0-0-6-6-6-6-6-6-6-5-0-0-|


  F5            E5  N.C.             E5  N.C.
 2/4           4/4
                                                  |-3-|
  E S S E S S   E E  E E +E  E E E   E E  E E +E  S S S E E
|-------------|--------------------|-------------------------|
|-------------|--------------------|-------------------------|
|-------------|--------------------|-------------------------|
|-3-----3-----|-2-2----7-(7)-------|-2-2----8-(8)-7h8p7------|
|-3-----3-----|-2-2-/8-------8-7s5-|-2-2-/8-------------8-7s=|
|-1-0-0-1-0-0-|-0-0----------------|-0-0---------------------|


  Dsus2    N.C.
  E E H    E E
|--------------||
|--------------||
|-----9--------||
|---7------0---||
|-5--------0---||
|----------0---||


   Chorus
    $$
    G5/E
         PM------------|             PM----------------|
     Q   S S S S S S S S a  E  E   E S S S S S S S S S S a  E  E
||-------------------------------|-------------------------------|
||o------------------------------|-------------------------------|
||--12\--------------------------|-------------------------------|
||--12\--------------------------|-5-----------------------------|
||o-10\------------------5h=7--7-|-5---------------------5h=7--7-|
||-------0-0-0-0-0-0-0-0-0-(0)-0-|-3-0-0-0-0-0-0-0-0-0-0-0-(0)-0-|


                                                   To Dbl. Coda
  B5/E                            C5/E
    PM----------------|              PM----------------|
  E S S S S S S S S S S a  E  E    E S S S S S S S S S S a  E  E
|-------------------------------|---------------------------------||
|-------------------------------|--------------------------------o||
|-------------------------------|---------------------------------||
|-9-----------------------------|-10------------------------------||
|-9---------------------5h=7--7-|-10---------------------5h=7--7-o||
|-7-0-0-0-0-0-0-0-0-0-0-0-(0)-0-|--8-0-0-0-0-0-0-0-0-0-0-0-(0)-0--||


                                                            To Coda
  N.C.                                Dsus2              F5
                                                        2/4
                                                   PM|
  E E E E E E E E   E E E E E E E E   E E Q  +Q.   S S   E S S E S S
|-----------------|-----------------|------------------|-------------||
|-----------------|-----------------|------------------|-------------||
|-----------------|-----------------|-----9--(9)-------|-------------||
|-----------------|-----------------|---7--------------|-3-----3-----||
|-------7-------8-|-------7-------8-|-5----------------|-3-----3-----||
|-0-5-6---0-5-6---|-0-5-6---0-5-6---|--------------0-0-|-1-0-0-1-0-0-||


 Interlude
  E5  N.C.             E5  N.C.
 4/4
                       PM|
  E E  E E +E  E E E   E E  E E +E  E E E
|--------------------|--------------------|
|--------------------|--------------------|
|--------------------|--------------------|
|-2-2----7-(7)-------|-2-2----7-(7)-------|
|-2-2-/8-------8-7s5-|-2-2-/8-------8-7s5-|
|-0-0----------------|-0-0----------------|


  E5  N.C.             E5  N.C.
  PM|                  PM|              PM|
  E E  E E +E  E E E   E E  E E +E  E E S S
|--------------------|-----------------------|
|--------------------|-----------------------|
|--------------------|-----------------------|
|-2-2----7-(7)-------|-2-2----7-(7)----------|
|-2-2-/8-------8-7s5-|-2-2-/8-------8-7------|
|-0-0----------------|-0-0--------------0-0--|


                                      D.S. al Coda
  F5            E5  N.C.               F5
 2/4           4/4                    2/4
    PM|   PM------|              PM|
  E S S E S S   E E  E E +E  E E S S   E S S E S S
|-------------|----------------------|-------------||
|-------------|----------------------|-------------||
|-------------|----------------------|-------------||
|-3-----3-----|-2-2----7-(7)---------|-3-----3-----||
|-3-----3-----|-2-2-/8-------8-7-----|-3-----3-----||
|-1-0-0-1-0-0-|-0-0--------------0-0-|-1-0-0-1-0-0-||


 Pre-Solo
  Double Time Q=240
  &
  N.C.
 4/4
  Gtr II
  PM--|       PM--|                   PM--|       PM--|       ~~~~~
  E E E E +E  E E E   E E E E Q  Q    E E E E +E  E E E   E E H    Q
|-------------------|---------------|-------------------|-------------||
|-------------------|---------------|-------------------|-------------||
|-------------------|---------------|-------------------|-------------||
|-------------------|---------------|-------------------|-------------||
|-------------------|---------------|-------------------|-------------||
|-0-0-0-6-(6)-0-0-0-|-6---6---6--5--|-0-0-0-6-(6)-0-0-0-|-6---6----5--||
|
| Gtr I
| PM|                                                         ~~~~~
| E E Q    H          W               W                   Q   H    Q
|-------------------|---------------|-------------------|-------------||
|-------------------|---------------|-------------------|-------------||
|-------------------|---------------|-------------------|-------------||
|-------------------|---------------|-------------------|-------------||
|-------------------|---------------|-------------------|-------------||
|-0-0---------------|---------------|-------------------|-----6----5--||


                                                           1.,2.
    Gtrs I, II
    PM--|       PM--|                   PM--|       PM--|       ~~~~~
    E E E E +E  E E E   E E E E Q  Q    E E E E +E  E E E   E E H    Q    3x
||--------------------|---------------|-------------------|---------------||
||o-------------------|---------------|-------------------|--------------o||
||--------------------|---------------|-------------------|---------------||
||--------------------|---------------|-------------------|---------------||
||o-------------------|---------------|-------------------|--------------o||
||--0-0-0-6-(6)-0-0-0-|-6---6---6--5--|-0-0-0-6-(6)-0-0-0-|-6---6----5----||


    3.             1.
    F5              N.C.
       PM|    PM--------|       PM--|                   PM--|       PM--|
    Q  E E Q  E E   E E E E +E  E E E   E E E E Q  Q    E E E E +E  E E E
||----------------|-------------------|---------------|---------------------||
||o---------------|-------------------|---------------|--------------------o||
||----------------|-------------------|---------------|---------------------||
||--3------3------|-------------------|---------------|---------------------||
||o-3------3------|-------------------|---------------|--------------------o||
||--1--0-0-1--0-0-|-0-0-0-6-(6)-0-0-0-|-6---6---6--5--|-0-0-0-6-(6)-0-0-0---||


  2.
  F5
     PM|    PM|
  Q  E E Q  E E
|---------------||
|---------------||
|---------------||
|-3------3------||
|-3------3------||
|-1--0-0-1--0-0-||


 Solo
  N.C.
  Gtr I
   |------6-------|  |-------6-------|    |------6-------|  |----6-----|
   E E   E  E E   E  E  E   E  E E   E    E E   E  E E   E  E E E  E E E
|-10p8p==7----------10p=8p==7----------|-10p8p==7----------10p8p7--------|
|----------10p8p==7-----------10p8p==7-|----------10p8p==7--------10p8p7-|
|--------------------------------------|---------------------------------|
|--------------------------------------|---------------------------------|
|--------------------------------------|---------------------------------|
|--------------------------------------|---------------------------------|
|
| Gtrs II, III
|  PM------|              PM-------|
|  E   E    E   E   +E    E    E   E      E   E    E   E    Q      Q
|--------------------------------------|---------------------------------|
|--------------------------------------|---------------------------------|
|--------------------------------------|---------------------------------|
|--------------------------------------|---------------------------------|
|--------------------------------------|---------------------------------|
|--0---0----0---6---(6)---0----0---0---|--6--------6--------6------5-----|


   |------6-------|  |--------6--------|    |-----6------|  |-----6------|
   E E   E  E E   E  E   E   E  E  E   E    E E   E  E E E  E  E E  E  E E
|-10p8p==7----------12p=10p==8-----------|-10p8p==7--------12p10p8---------|
|----------10p8p==7------------12p10p==8-|----------10p8p7---------12p10p8-|
|----------------------------------------|---------------------------------|
|----------------------------------------|---------------------------------|
|----------------------------------------|---------------------------------|
|----------------------------------------|---------------------------------|
|
|  PM------|               PM--------|               ~~~~~~~~~~~~~~~
|  E   E    E   E   +E     E    E    E      E   E    H              Q
|----------------------------------------|---------------------------------|
|----------------------------------------|---------------------------------|
|----------------------------------------|---------------------------------|
|----------------------------------------|---------------------------------|
|----------------------------------------|---------------------------------|
|--0---0----0---6---(6)----0----0----0---|--6--------6--------------5------|


   |-------6-------|  |------6-------|    |------6-------|  |------6-------|
   E  E  E  E  E   E  E  E  E  E  E  E    E  E  E  E  E  E  E  E  E  E  E  E
|-14p12p10-----------14p12p10----------|-15p14p12----------15p14p12----------|
|----------14p12p=10----------14p12p10-|----------15p13p12----------15p13p12-|
|--------------------------------------|-------------------------------------|
|--------------------------------------|-------------------------------------|
|--------------------------------------|-------------------------------------|
|--------------------------------------|-------------------------------------|
|
|  PM---|          PM---|
|  E  E  E  E +E   E  E  E                E  E  E  E  Q     Q
|--------------------------------------|-------------------------------------|
|--------------------------------------|-------------------------------------|
|--------------------------------------|-------------------------------------|
|--------------------------------------|-------------------------------------|
|--------------------------------------|-------------------------------------|
|--0--0--0--6-(6)--0--0--0-------------|--6-----6-----6-----5----------------|


                                           F5
   |-------6-------|  |-------3--------|    |------6------|  |-----6------|
   E  E    E E E   E  E   E    E E E   E    E  E  E E E   E  E  E E E E   E
|-17-15---14-0-0---0-15--14---12-0-0---0-|-14-12-10-0-0---0-12-10-8-0-0---0-|
|----------------------------------------|----------------------------------|
|----------------------------------------|----------------------------------|
|----------------------------------------|----------------------------------|
|----------------------------------------|----------------------------------|
|----------------------------------------|----------------------------------|
|
|  PM--------|              PM-------|              PM--|           PM--|
|  E    E    E   E   +E     E    E   E      Q       E   E    Q      E   E
|----------------------------------------|----------------------------------|
|----------------------------------------|----------------------------------|
|----------------------------------------|----------------------------------|
|----------------------------------------|--3----------------3--------------|
|----------------------------------------|--3----------------3--------------|
|--0----0----0---6---(6)----0----0---0---|--1-------0---0----1------0---0---|


  N.C.
   ~~~~~~~~~~~~~~~~~~~~~~~~~~~~~~~~~~
   W                    H.           +Q
|--------------------|---------------------|
|--------------------|---------------------|
|-12-----------------|-14-----------(14)\--|
|-12-----------------|-14-----------(14)\--|
|--------------------|---------------------|
|--------------------|---------------------|
|
|  PM--|       PM--|
|  E E E E +E  E E E    E  E E E Q    Q
|--------------------|---------------------|
|--------------------|---------------------|
|--------------------|---------------------|
|--------------------|---------------------|
|--------------------|---------------------|
|--0-0-0-6-(6)-0-0-0-|--6----6---6----5----|


   |----3-----|        |----3-----|
   E     E    E  E  E  E     E    E  E  E
|-----------------------------------------|
|-----------------------------------------|
|-14b16r14p==12----12-14b16r14p==12----12-|
|---------------14------------------14----|
|-----------------------------------------|
|-----------------------------------------|
|
|  PM-----------|              PM------|
|  E       E     E  E +E       E     E  E
|-----------------------------------------|
|-----------------------------------------|
|-----------------------------------------|
|-----------------------------------------|
|-----------------------------------------|
|--0-------0-----0--6-(6)------0-----0--0-|


   |----3-----|        |---3----|
   E     E    E  E  E  E     E  E  Q
|-------------------------------------|
|-------------------------------------|
|-14b16r14p==12----12-14b16r14p12-----|
|---------------14----------------14--|
|-------------------------------------|
|-------------------------------------|
|
|                ~~~~~~~~~~~~~~~~~~
|  E       E     H                 Q
|-------------------------------------|
|-------------------------------------|
|-------------------------------------|
|-------------------------------------|
|-------------------------------------|
|--6-------------6-----------------5--|


   E     E  E  E     E   E  E     E    E     E  E  E     E  E  E     E
|-----------------------------------|----------------------------------|
|-------12-12-------12--12-------12-|-------12-12-------12-12-------12-|
|-14b16-------14b16--------14b16----|-14b16-------14b16-------14b16----|
|-----------------------------------|----------------------------------|
|-----------------------------------|----------------------------------|
|-----------------------------------|----------------------------------|
|
|  PM------|             PM------|
|  E     E  E  E    +E   E  E     E    E     E  E  E     Q     Q
|-----------------------------------|----------------------------------|
|-----------------------------------|----------------------------------|
|-----------------------------------|----------------------------------|
|-----------------------------------|----------------------------------|
|-----------------------------------|----------------------------------|
|--0-----0--0--6----(6)--0--0-----0-|--6--------6--------6-----5-------|


                                   F5
   S  S  S  S  E  E  E   E  E  E    E  E  E  E  E  E  E  E
|--------------------------------|-------------------------|
|----12h13p12----12--------------|-------------------------|
|-14----------14----14--12-12----|-12----14-12----12-14p12-|
|-----------------------------14-|----14-------14----------|
|--------------------------------|-------------------------|
|--------------------------------|-------------------------|
|
|  PM---------|          PM---|           PM|         PM|
|  E     E     E  E +E   E  E  E    Q     E  E  Q     E  E
|--------------------------------|-------------------------|
|--------------------------------|-------------------------|
|--------------------------------|-------------------------|
|--------------------------------|--3-----------3----------|
|--------------------------------|--3-----------3----------|
|--0-----0-----0--6-(6)--0--0--0-|--1-----0--0--1-----0--0-|


  N.C.
   \1_________________\2           |
   W                 +H.          +Q
|------------------|-------------------|
|--0---------------|-(0)----------(0)--|
|--0---------------|-(0)----------(0)--|
|------------------|-------------------|
|------------------|-------------------|
|------------------|-------------------|
|
|        ~~~~~~~           ~~~~~~~~
|  Q.    E +Q   Q     Q.   E +Q    Q
|------------------|-------------------|
|------------------|-------------------|
|------------------|-------------------|
|------------------|-------------------|
|--------5-(5)--4--|-------5-(5)---4---|
|-/4---------------|--4----------------|


   \1.5_________________\4_______/
   W                   +H       +Q   +Q
|--------------------|--------------------|
|--------------------|--------------------|
|-[5]----------------|-(5)------(5)--(5)--|
|--------------------|--------------------|
|--------------------|--------------------|
|--------------------|--------------------|
|
|          ~~~~~~~            ~~~~~~~~
|  Q.      E +Q   Q     Q.    E +Q    Q
|--------------------|--------------------|
|--------------------|--------------------|
|--------------------|--------------------|
|--------------------|--------------------|
|----------4-(4)--3--|--------3-(3)---2---|
|--4-----------------|--3-----------------|


  |------6------|  |------6-------|   |------6------| |----6----|
  E E   E E E   E  E  E   E E E   E   E E   E E E   E E E E E E E
|-----------------------------------|-----------------------------|
|-5p2p==0----------6p=3p==0---------|-7p4p==0---------8p5p0-------|
|---------4p2p==0-----------5p3p==0-|---------6p4p==0-------7p5p0-|
|-----------------------------------|-----------------------------|
|-----------------------------------|-----------------------------|
|-----------------------------------|-----------------------------|
|
| PM------|             PM------|
| E   E   E   E   +E    E   E   E     E   E   E   E   Q     Q
|-----------------------------------|-----------------------------|
|-----------------------------------|-----------------------------|
|-----------------------------------|-----------------------------|
|-----------------------------------|-----------------------------|
|-----------------------------------|-----------------------------|
|-0---0---0---6---(6)---0---0---0---|-6-------6-------6-----5-----|


                                  F5
  |------6------|       |--3--|       |--3--|     |--3--|
  E E   E E E   E  E  E E E   E   E E E E   E E E E E   E
|-------------------------------|-------------------------|
|-9p6p==0----------8--7---------|-7-8---------6s7---------|
|---------8p6p==0-------9p7p==0-|-----9p7p==0-----9p7p==0-|
|-------------------------------|-------------------------|
|-------------------------------|-------------------------|
|-------------------------------|-------------------------|
|
| PM------|           PM----|         PM--|       PM--|
| E   E   E   E   +E  E E   E     Q   E   E   Q   E   E
|-------------------------------|-------------------------|
|-------------------------------|-------------------------|
|-------------------------------|-------------------------|
|-------------------------------|-3-----------3-----------|
|-------------------------------|-3-----------3-----------|
|-0---0---0---6---(6)-0-0---0---|-1---0---0---1---0---0---|


  N.C.
   W                    +W
|--------------------|------------------|
|-15-----------------|-(15)-------------|
|-14b16==============|=(14)-------------|
|--------------------|------------------|
|--------------------|------------------|
|--------------------|------------------|
|
|          ~~~~~~~            ~~~~~~~
|  Q.      E +Q   Q      Q.   E +Q   Q
|--------------------|------------------|
|--------------------|------------------|
|--------------------|------------------|
|--------------------|------------------|
|----------5-(5)--4--|--------5-(5)--4--|
|-/4-----------------|---4--------------|


                        \2.5
   +H.           +Q     H.            +Q
|---------------------|--------------------|
|-(15)----------(15)--|--------------------|
|-(14)r=========(14)--|--------------------|
|---------------------|--------------------|
|---------------------|--------------------|
|---------------------|-0-------------(0)--|
|
|        ~~~~~~~~~             ~~~~~~~~   
|   Q.   E +Q     Q     Q.     E +Q    Q
|---------------------|--------------------|
|---------------------|--------------------|
|---------------------|--------------------|
|---------------------|--------------------|
|--------4-(4)----3---|--------3-(3)---2---|
|---4-----------------|-3------------------|


   W                   +H      +Q   +Q
|--------------------|-------------------|
|--9-----------------|-(9)-----(9)--(9)--|
|--8b10==============|=(8)-----(8)r=(8)--|
|--------------------|-------------------|
|--------------------|-------------------|
|--------------------|-------------------|
|
|          ~~~~~~~           ~~~~~~~~
|  Q.      E +Q   Q     Q.   E +Q    Q
|--------------------|-------------------|
|--------------------|-------------------|
|--------------------|-------------------|
|--------------------|-------------------|
|----------7-(7)--6--|-------7-(7)---6---|
|-/6-----------------|--6----------------|


  /1.5___\4.5_________________\7____________|
  a     +W                   +H.           +Q
|--------------------------|--------------------|
|--------------------------|--------------------|
|--------------------------|--------------------|
|-2-----(2)----------------|-(2)-----------(2)--|
|--------------------------|--------------------|
|--------------------------|--------------------|
|
|                ~~~~~~~            ~~~~~~~~
|        Q.      E +Q   Q     Q.    E +Q    Q
|--------------------------|--------------------|
|--------------------------|--------------------|
|--------------------------|--------------------|
|--------------------------|--------------------|
|----------------6-(6)--5--|--------5-(5)---4---|
|--------6-----------------|--5-----------------|


   \2.5_______________________|
   H.                        +Q
|------------------------------------|
|------------------------------------|
|------------------------------------|
|--0-------------------------(0)-----|
|--0-------------------------(0)-----|
|--0-------------------------(0)-----|
|
|  E      E   E   E   E   E   E   E
|------------------------------------|
|------------------------------------|
|------------------------------------|
|------------------------------------|
|------------------------------------|
|-[3]----[3]-[3]-[3]-[3]-[3]-[3]-[3]-|


   Interlude
                                                         1.,2.,3.
          Bb5    A5   N.C.  A5     Ab5  N.C.  Ab5    G5   N.C.
    Gtrs I, II
    PM--|             PM--|             PM--|
    E E E E +Q   Q    E E E E +Q   Q    E E E E +Q   Q    E E E E E E E E   4x
||------------------|-----------------|-----------------|-------------------||
||o-----------------|-----------------|-----------------|------------------o||
||------------------|-----------------|-----------------|-------------------||
||--------8-(8)--7--|-------7-(7)--6--|-------6-(6)--5--|-------------------||
||o-------8-(8)--7--|-------7-(7)--6--|-------6-(6)--5--|------------------o||
||--0-0-0-6-(6)--5--|-0-0-0-5-(5)--4--|-0-0-0-4-(4)--3--|-0-0-0-0-0-0-0-0---||


  4.                                               *Slide Right Palm Slowly Down the Neck to Sound
  N.C.                                                Random Harmonics (Approximate Pitches are
           |---------6---------|     |---------6---------|          Given)
  E E E E  E   E   E   E   E   E     E   E   E   E   E   E   H
|---------------------------------|--------------------------------|
|---------------------------------|--------------------------------|
|---------29p=24p=21h=23p=18p=13h=|=26p=11h=19h=29p==6h=21---------|
|---------------------------------|--------------------------------|
|---------------------------------|--------------------------------|
|-0-0-0-0h(4)p(2)p(0)h(4)p(2)p(0)h|=(4)p(2)p(0)h(4)p(2)p(0)-12\----|
          *-----------------------------------------------|

                                                           1.
    PM--|       PM--|                   PM--|       PM--|       ~~~~~
    E E E E +E  E E E   E E E E Q  Q    E E E E +E  E E E   E E H    Q
||--------------------|---------------|-------------------|---------------||
||o-------------------|---------------|-------------------|--------------o||
||--------------------|---------------|-------------------|---------------||
||--------------------|---------------|-------------------|---------------||
||o-------3-(3)-------|-3---3---3--2--|-------3-(3)-------|-3---3----2---o||
||--2-2-2-------2-2-2-|---------------|-2-2-2-------2-2-2-|---------------||


  2.
  G5                        N.C.          G5       A5     Bb5
     PM|    PM|      PM|    PM----------|    PM|      PM|    PM|
  Q  E E Q  E E   Q  E E Q  E E   E E E E Q  E E   Q  E E Q  E E
|---------------|---------------|----------------|---------------|
|---------------|---------------|----------------|---------------|
|---------------|---------------|----------------|---------------|
|-5------5------|-5------5------|---------5------|-7------8------|
|-5------5------|-5------5------|---------5------|-7------8------|
|-3--2-2-3--2-2-|-3--2-2-3--0-0-|-0-0-0-0-3--0-0-|-5--0-0-6--6-6-|


          A5       F5
  PM----|    PM|      PM|    PM|
  E E E E Q  E E   Q  E E Q  E E
|----------------|---------------|
|----------------|---------------|
|----------------|---------------|
|---------7------|-3------3------|
|---------7------|-3------3------|
|-6-6-6-6-5--0-0-|-1--0-0-1--0-0-|


                            1.
    E5             N.C.                      N.C.
                   2/4      4/4
    Gtrs I, II
    PM    PM----|            PM    PM----|
    Q  Q  E E E E    Q  Q    Q  Q  E E E E    Q  Q  Q  Q
||----------------|--------|---------------|----------------||
||o---------------|--------|---------------|---------------o||
||----------------|--------|---------------|----------------||
||--2--2----------|--------|-2--2----------|----------------||
||o-2--2----------|-----7--|-2--2----------|--------8------o||
||--0--0--0-0-0-0-|-/6-----|-0--0--0-0-0-0-|-/5--6-----6----||
|
|   Gtr III
|   PM                       PM
|   Q  Q  H          H       Q  Q  H          W
||----------------|--------|---------------|----------------||
||o---------------|--------|---------------|---------------o||
||----------------|--------|---------------|----------------||
||--2--2----------|--------|-2--2----------|----------------||
||o-2--2----------|--------|-2--2----------|---------------o||
||--0--0----------|--------|-0--0----------|----------------||


  2.
       D.S.S. al Dbl. Coda
  PM
  Q  Q  H      H    Q  Q
|------------|-------------||
|------------|-------------||
|------------|-------------||
|-2--2-------|---------x/--|| Slide Left Hand Up Strings
|-2--2-------|---------x/--||
|-0--0-------|---------x/--||
|
| PM
| Q  Q  H      W
|------------|-------------||
|------------|-------------||
|------------|-------------||
|-2--2-------|-------------||
|-2--2-------|-------------||
|-0--0-------|-------------||


    Tempo I Q=120
    &&
    G5/E
          PM------------|             PM----------------|
     Q    S S S S S S S S a  E  E   E S S S S S S S S S S a  E  E
||--------------------------------|-------------------------------|
||o-------------------------------|-------------------------------|
||--12\---------------------------|-------------------------------|
||--12\---------------------------|-5-----------------------------|
||o-10\-------------------5h=7--7-|-5---------------------5h=7--7-|
||--------0-0-0-0-0-0-0-0-0-(0)-0-|-3-0-0-0-0-0-0-0-0-0-0-0-(0)-0-|


  B5/E                            C5/E
    PM----------------|              PM----------------|
  E S S S S S S S S S S a  E  E    E S S S S S S S S S S a  E  E
|-------------------------------|---------------------------------||
|-------------------------------|--------------------------------o||
|-------------------------------|---------------------------------||
|-9-----------------------------|-10------------------------------||
|-9---------------------5h=7--7-|-10---------------------5h=7--7-o||
|-7-0-0-0-0-0-0-0-0-0-0-0-(0)-0-|--8-0-0-0-0-0-0-0-0-0-0-0-(0)-0--||


  N.C.                                  G5      N.C.        G5
                                  PM|     PM|   PM--------|   PM|
  E E E E E E E E   E E E E E E E S S   E S S E S S S S S S E S S
|-----------------|-------------------|----------------------------|
|-----------------|-------------------|----------------------------|
|-----------------|-------------------|----------------------------|
|-----------------|-------------------|-5-----5-------------5------|
|-------7-------8-|-------7-----------|-5-----5-------------5------|
|-0-5-6---0-5-6---|-0-5-6---0-5-6-0-0-|-3-0-0-3-0-0-0-0-0-0-3-0-0--|


  A5  Bb5 N.C.        A5      F5
                             2/4
    PM|   PM--------|   PM|
  E S S E S S S S S S E S S   E S S E S S
|---------------------------|-------------||
|---------------------------|-------------||
|---------------------------|-------------||
|-7-----8-------------7-----|-3-----3-----||
|-7-----8-------------7-----|-3-----3-----||
|-5-0-0-6-6-6-6-6-6-6-5-0-0-|-1-0-0-1-0-0-||


   Outro

    E5         N.C.    E5          N.C.
   3/4                4/4
    PM  PM----|        PM  PM----|
    E E S S S S  E E   E E S S S S  E E E E  4x
||-------------------|-----------------------||
||o------------------|----------------------o||
||-------------------|-----------------------||
||--2-2--------------|-2-2-------------------||
||o-2-2------------7-|-2-2--------------8---o||
||--0-0-0-0-0-0-/6---|-0-0-0-0-0-0-/5-6---6--||

  G5     N.C.         G5      A5  Bb5 N.C.        A5      F5
                                                          2/4
    PM|   PM--------|   PM|     PM|   PM--------|   PM|     PM|   PM|
  E S S E S S S S S S E S S   E S S E S S S S S S E S S   E S S E S S
|---------------------------|---------------------------|-------------|
|---------------------------|---------------------------|-------------|
|---------------------------|---------------------------|-------------|
|-5-----5-------------5-----|-7-----8-------------7-----|-3-----3-----|
|-5-----5-------------5-----|-7-----8-------------7-----|-3-----3-----|
|-3-0-0-3-0-0-0-0-0-0-3-0-0-|-5-0-0-6-6-6-6-6-6-6-5-0-0-|-1-0-0-1-0-0-|


                      1.                       2.
    E5          N.C.   E5           N.C.        E5
   3/4                4/4
    PM  PM----|        PM  PM----|              PM
    E E S S S S  E E   E E S S S S  E E E E     E E Q  H
||-------------------|-----------------------||------------*|
||o------------------|----------------------o||------------*|
||-------------------|-----------------------||------------*|
||--2-2--------------|-2-2-------------------||-2-2--------*|
||o-2-2------------7-|-2-2--------------8---o||-2-2--------*|
||--0-0-0-0-0-0-/6---|-0-0-0-0-0-0-/5-6---6--||-0-0--------*|


Duration Legend
---------------
W - whole; H - half; Q - quarter; E - 8th; S - 16th; T - 32nd; X - 64th; a - acciaccatura
+ - note tied to previous; . - note dotted; .. - note double dotted
Uncapitalized letters represent notes that are staccato (1/2 duration)
Irregular groupings are notated above the duration line
Duration letters will always appear directly above the note/fret number it represents the
duration for.  Duration letters with no fret number below them represent rests.  Multi-
bar rests are notated in the form Wxn, where n is the number of bars to rest for.  Low
melody durations appear below the staff

Tablature Legend
----------------
 h   - hammer-on
 p   - pull-off
 b   - bend
 pb  - pre-bend
 r   - bend release (if no number after the r, then release immediately)
 /\  - slide into or out of (from/to "nowhere")
 s   - legato slide
 S   - shift slide
  - natural harmonic
[n]  - artificial harmonic
n(n) - tapped harmonic
 ~   - vibrato
 tr  - trill
 T   - tap
 TP  - trem. picking
 PM  - palm muting
\n/  - tremolo bar dip; n = amount to dip
 \n  - tremolo bar down
 n/  - tremolo bar up
/n\  - tremolo bar inverted dip
 =   - hold bend; also acts as connecting device for hammers/pulls
 <>  - volume swell (louder/softer)
 x   - on rhythm slash represents muted slash
 o   - on rhythm slash represents single note slash

Misc Legend
-----------
 |  - bar
||  - double bar
||o - repeat start
o|| - repeat end
*|  - double bar (ending)
 :  - bar (freetime)
 $  - Segno
 &  - Coda
Tempo markers -  = BPM(8/16=s8/s16), where s8 = swing 8ths, s16 = swing 16ths
comments
print report bad tab
3 comments total.
0 reply
TheForestKid wrote on September 26 2009, 09:13 pm

i dont understand this tab
i mean its great and all but

+1 reply
*GeetarManiac* wrote on December 21 2009, 08:03 pm

this tab is kind of confusing...
but TheForestKid put it in notepad
remove all the little symbols except the PM
great tab 5*

0 reply
-STL- wrote on January 8 2010, 09:45 pm

i agree with what the other two guys said, all the extra bullshit is really not needed. does anyone even know what all that stuff means? this tab could be alot more printer-friendly. you could have saved yourself so much more time writing it all out and people would have actually been able to read your tab without having to sift through and delete all the extra uneeded bullshit. otherwise it looks like a correct and good tab. just wish i wouldnt have to spend the next hour making it printable without useing an entire stack of paper, almost makes learning the song not worth it.

I want to post or [tab]
guest
You may want to rate the tab now too:
select rating
Please do not post tabs as comments. Select "correction" instead!