Oops, an error
Loading. Please wait.

Carpe Diem Baby Tab

ver2
ver2

Whole song

Interactive

More versions @911Tabs.com
14,933 views 24 this week
no commentswrite comment
1 2 3 4 5
excellent!
x 6
add to favorites launch autoscroll
font size
0
reset
Autoscroll
+/-
esc
set tempo
stop
Contributor
WARNING: You are trying to view
                                    content from Ultimate-Guitar.com
                                    in an unauthorized application,
                                    which is prohibited.

                                    Please use an official Ultimate
                                    Guitar Tabs application for iPhone,
                                    iPad or Android to access legitimate
                                    chords, guitar, bass, and drum tabs
                                    from Ultimate-Guitar.com database.

                                    Type "ultimate guitar tabs" in Apple
                                    App Store's or Android Market's
                                    search to find the application.
CARPE DIEM BABY
As recorded by Metallica
(From the 1997 Album RE-LOAD)


Transcribed by www.mikesguitarsite.co.uk

Words and Music by James Hetfield, Lars Ulrich & Kirk Hammett

A5      x 0 2 2 x x
Cadd9   x 3 2 0 3 0
B5      x 2 4 4 x x
C5      x 3 5 5 x x
D5      x 5 7 7 x x
A5V     5 7 7 x x x
E5      0 2 x x x x
F5      1 3 3 x x x

Gtr I (Eb Ab Db Gb Bb Eb) - 'James Hetfield - Rhythm w/dist'
Gtr II (Eb Ab Db Gb Bb Eb) - 'Kirk Hammett - Rhythm w/dist'
Gtr III (Eb Ab Db Gb Bb Eb) - 'Kirk Hammett - Lead w/dist'
Gtr IV (Eb Ab Db Gb Bb Eb) - 'Kirk Hammett - Lead w/dist'

Intro
    Q=76
   4/4
    Gtrs I, II
        PM|     PM|     PM|     PM|
    S S S S S S S S S S S S S S S S  3x E E  E      +S    S  E S S +S  S S S
||-----------------------------------||--------------------------------------|
||o---------------------------------o||-----12b13==(12)r\--------------------|
||-----------------------------------||-----12b13==(12)r\--------------------|
||--5-5-----5-5-----5-5-----5-5------||--------------------------------------|
||o-7-7-----7-7-----7-7-----7-7-----o||------------------------5-------5---5-|
||------0-0-----0-0-----0-0-----0-0--||-0-0---------------0-/7---5-(5)---3---|


  E E  E      +S    S  E S S +S  S S S
|--------------------------------------|
|-----12b13==(12)r\--------------------|
|-----12b13==(12)r\--------------------|
|--------------------------------------|
|------------------------5-------5-----|
|-0-0---------------0-/7---5-(5)---3-0-|


  S   +E  s  E      +S    S  E S S +S  S S S
|--------------------------------------------|
|-----------12b13==(12)r\--------------------|
|-----------12b13==(12)r\--------------------|
|--------------------------------------------|
|------------------------------5-------5---5-|
|-3b5r(3)-0---------------0-/7---5-(5)---3---|


  E E  E      +S    S  E S S +S  S S S   S   +S  e E. S  E S S +S  S S S
|--------------------------------------|---------------------------------|
|-----12b13==(12)r\--------------------|---------------------------------|
|-----12b13==(12)r\--------------------|---------------------------------|
|--------------------------------------|---------------------------------|
|------------------------5-------5---5-|---------2-2-------5-------5---5-|
|-0-0---------------0-/7---5-(5)---3-0-|-3b5r(3)-0-0--0-/7---5-(5)---3---|


  Gtr I
  E  S  S  E  +S   S  E S S +S  S S S   S   +S  e E. S    +S  +S  e E. S
|-------------------------------------|-------------------------------------|
|---12s13-12-(12)\--------------------|-------------------------------------|
|---12s13-12-(12)\--------------------|-------------------------------------|
|---12s13-12-(12)\--------------------|-------------------------------------|
|-----------------------5-------5-----|-------------------------------------|
|-0----------------0-/7---5-(5)---3-0-|-3b5r(3)-0-0--3b5==(3)r(3)-0-0--3b5==|
|
| Gtr II
| E  S  S  E  +S   S  E S S +S  S S S   S   +S  e H.
|-------------------------------------|-------------------------------------|
|---12s13-12-(12)\--------------------|-------------------------------------|
|---12s13-12-(12)\--------------------|-------------------------------------|
|---12s13-12-(12)\--------------------|-------------------------------------|
|-----------------------5-------5-----|---------2-2-------------------------|
|-0----------------0-/7---5-(5)---3-0-|-3b5r(3)-0-0-------------------------|
                                      |-Rhy Fill 1

                  Verses 1 + 2
 2/4              4/4
                          PM|              PM----|
  +S  +S  e Q      S    S E  E  S S  S   S E      E  S  S
|--------------||------------------------------------------|
|--------------||o-----------------------------------------|
|--------------||--7s===9-------7s9-10s==9-----------7s=9--|
|--------------||--7s===9-------7-9-10s==9-----------7s=9--|
|--------------||o-5s===7-------5s7--8s==7-----------5s=7--|
|-(3)r(3)-0-0--||---------0--0-------------0------0--------|
|
|                         PM|              PM----|
| +H               S    S E  E  S S  S   S E      E  E
|--------------||------------------------------------------|
|--------------||o-----------------------------------------|
|--------------||--7s===9-------7s9-10s==9-----------------|
|--------------||--7s===9-------7-9-10s==9-----------------|
|-(2)----------||o-5s===7-------5s7--8s==7-----------------|
|-(0)----------||---------0--0-------------0------0--------|
| endRhy Fill -||-Rhy Fig 1
|
|              Gtr III
|  W               Q        +Q      +E     E     +E.   +S
|--------------||------------------------------------------|
|--------------||o-5--------(5)-----(5)----7-----(7)---(7)-|
|--------------||--7b9======(7)-----(7)r---9b12==(9)r==(9)-|
|--------------||------------------------------------------|
|--------------||o-----------------------------------------|
|--------------||------------------------------------------|
                |-Fill 2 play on repeat only

   Q    E. S  e E E E
|---------------------|
|---------------------|
|--7----7--9-10-5-5-5-|
|--7----7--9-10-5-5-5-|
|--5----5--7--8-3-3-3-|
|--5----5--7--8-3-3-3-|
|
|  Q..     S  e E Q
|-!0-------0--0-------|
|-!3-------3--3-3-3---|
|-!2-------2--2-0-0---|
|-!0-------0--0-------|
|-!0------------3-3---|
|---------------------|
|       end Rhy Fig 1-|
|
|  Q..     S  H
|---------------------|
|---------------------|
|--7-------9--5-------|
|---------------------|
|---------------------|
|---------------------|
           end Fill 2-|

w/Rhy Fig 1 x2 + Fill 2 x2 on repeat
         PM|              PM----|
  S    S E  E  S S  S   S E      E  E        Q    E S S  e E E E
|-----------------------------------------|----------------------|
|-----------------------------------------|----------------------|
|-7s===9-------7s9-10s==9-----------------|--7----7-7-9-10-5-5-5-|
|-7s===9-------7-9-10s==9-----------------|--7----7-7-9-10-5-5-5-|
|-5s===7-------5s7--8s==7-----------------|--5----5-5-7--8-3-3-3-|
|--------0--0-------------0------0--0-----|--5----5-5-7--8-3-3-3-|
|-Rhy Fig 1A                                      end Rhy Fig 1A-|


         PM|              PM----|
  S    S E  E  S S  S   S E      E  E        Q    E S S  e E E E
|-----------------------------------------|----------------------||
|-----------------------------------------|----------------------||
|-7s===9-------7s9-10s==9-----------------|--7----7-7-9-10-5-5-5-||
|-7s===9-------7-9-10s==9-----------------|--7----7-7-9-10-5-5-5-||
|-5s===7-------5s7--8s==7-----------------|--5----5-5-7--8-3-3-3-||
|--------0--0-------------0------0--0-----|--5----5-5-7--8-3-3-3-||



 Pre-Chorus
  $
  PM|   PM|   PM|   PM|     PM------|
  S S E S S E S S E S S E   E E E E E E E E
|-------------------------|-----------------|
|-------------------------|-----------------|
|-----0-----0-----0-----0-|-----------------|
|---2-----2-----2-----2---|-----------2-2-2-|
|-2-----1-----------------|-2-2-2-2-2-2-2-2-|
|-------------3-----2-----|-0-0-0-0-0-0-0-0-|
|-Rhy Fig 2A                 end Rhy Fig 2A-|
|
|                             PM  PM  PM  PM
| Q     Q     Q     Q       E E E E E E E E
|-------------------------|-----------------|
|-------------------------|-----------------|
|-4-----3-----------------|-9---9---9---9---|
|-4-----3-----5-----4-----|-----------------|
|-2-----1-----5-----4-----|-7---7---7---7---|
|-------------3-----2-----|---0---0---0---0-|
|-Rhy Fig 2                   end Rhy Fig 2-|


Rhy Fig 2 + 2A


  Gtrs I, II
                             PM|     PM|     PM|     PM|
  Q  E S S  e E E  E     S S S S S S S S S S S S S S S S
|----------------------|---------------------------------||
|----------------------|---------------------------------||
|-7--7-7-9-10-5-5------|---------------------------------||
|-7--7-7-9-10-5-5------|-5-5-----5-5-----5-5-----5-5-----||
|-5--5-5-7--8-3-3-(3)/-|-7-7-----7-7-----7-7-----7-7-----||
|-5--5-5-7--8-3-3------|-----0-0-----0-0-----0-0-----0-0-||


 Chorus
  Gtr I
                             PM|     PM|     PM|     PM|
  E E E E E E S  S  E    S S S S S S S S S S S S S S S S
|----------------------|---------------------------------|
|----------------------|---------------------------------|
|---4---2---2-2-(2)-2/-|---------------------------------|
|-5---4---3---2h=3--2/-|-5-5-----5-5-----5-5-----5-5-----|
|----------------------|-7-7-----7-7-----7-7-----7-7-----|
|----------------------|-----0-0-----0-0-----0-0-----0-0-|
|-Rhy Fig 3A                              end Rhy Fig 3A-|
| Gtr II
|                            PM|     PM|     PM|     PM|
| Q   Q   Q   Q          S S S S S S S S S S S S S S S S
|----------------------|---------------------------------|
|----------------------|---------------------------------|
|----------------------|---------------------------------|
|---------3---2--------|-5-5-----5-5-----5-5-----5-5-----|
|---------0---0--------|-7-7-----7-7-----7-7-----7-7-----|
|-0---2----------------|-----0-0-----0-0-----0-0-----0-0-|
|-Rhy Fig 3                                end Rhy Fig 3-|


Rhy Fig 3 + 3A both x1.5 -> To Coda on D.S.



  A5                    Cadd9
  Gtr II
  W                     W
  |                     |
  /                     /

  Gtr I
  Q  E. S e E +S  S E   Q  E S  S  +S  S Q  E
|---------------------|-0--0-0-(0)-(0)-0-------|
|---------------------|-3--3-3s=5--(5)-5-3-----|
|-2--2----2-2-(2)-2-2-|-0--0-------------------|
|-2--2----2-2-(2)-2-2-|-2--2-------------------|
|-0--0----0-0-(0)-0-0-|-3--3-------------------|
|-------0-------------|---------------------3/-|


  1.
  Gtrs I, II
  E E  E      +S   S  E S S +S  S S S   E E  E      +S   S  E S S +S  S S S
|-------------------------------------|-------------------------------------|
|-----12b13==(12)r--------------------|-----12b13==(12)r--------------------|
|-----12b13==(12)r--------------------|-----12b13==(12)r--------------------|
|-------------------------------------|-------------------------------------|
|-----------------------5-------5---5-|-----------------------5-------5---5-|
|-0-0--------------0-/7---5-(5)---3---|-0-0--------------0-/7---5-(5)---3-0-|
|-Rhy Fig 4

  S   +S  e E S S  E S S +S  S S S   E  S  S  E  +S   S  E S S +S  S S S
|----------------------------------|-------------------------------------|
|----------------------------------|---12s13-12-(12)\--------------------|
|----------------------------------|---12s13-12-(12)\--------------------|
|----------------------------------|---12s13-12-(12)\--------------------|
|---------2-2--------5-------5---5-|-----------------------5-------5---5-|
|-3b5r(3)-0-0-0-0-/7---5-(5)---3---|-0----------------0-/7---5-(5)---3-0-|
                                                           end Rhy Fig 4-|

w/Rhy Fill 1
  Gtr I
  S   +S  e E. S    +S  +S  e E. S
|-------------------------------------|
|-------------------------------------|
|-------------------------------------|
|-------------------------------------|
|-------------------------------------|
|-3b5r(3)-0-0--3b5==(3)r(3)-0-0--3b5==|



 2/4
  +S  +S     +S  +S     +S     +S     +S  +S
|----------------------------------------------||
|---------------------------------------------o||
|----------------------------------------------||
|----------------------------------------------||
|---------------------------------------------o||
|-(3)r(3)b5==(3)r(3)b5==(3)r===(3)b5==(3)r(3)--||
|
|Gtr III
|                        <
|  Q                     E            +S  +S
|----------------------------------------------||
|------------------------5------------(5)-(5)-o||
|------------------------7pb9=========(7)r(7)--||
|----------------------------------------------||
|---------------------------------------------o||
|----------------------------------------------||


  2.
 4/4
  Gtrs I, II
  E E  E.     +S   E E  E.     +S     E E  E.     +S   E E  E.     +S
|-----------------------------------|-----------------------------------|
|-----12b13==(12)r-----13b14==(13)r-|-----12b13==(12)r-----13b14==(13)r-|
|-----12b14==(12)r-----13b15==(13)r-|-----12b14==(12)r-----13b15==(13)r-|
|-----------------------------------|-----------------------------------|
|-----------------------------------|-----------------------------------|
|-0-0--------------0-0--------------|-0-0--------------0-0--------------|
|-Rhy Fig 5                                               end Rhy Fig 5-|

  E S S E S S E S S E S S   E S S E S S S E. E S S
|-------------------------|------------------------|
|-------------------------|------------------------|
|-------9-----------9-----|-------9-----7----5-----|
|-------------------------|-------------7-7--5-----|
|-------7-----------7-----|-------7-----5-7--3-----|
|-0-0-0---0-0---0-0---0-0-|---0-0---0-0---5----3-2-|


  S S E E S S E S S E S S   E S S E S S S E. E S S
|-------------------------|------------------------||
|-------------------------|------------------------||
|-------9-----------9-----|-------9-----7----5-----||
|-------------------------|-------------7-7--5-----||
|-------7-----------7-----|-------7-----5-7--3-----||
|-0h3-0---0-0---0-0---0-0-|---0-0---0-0---5----3-2-||
|-Rhy Fig 6                          end Rhy Fig 6-|

 Guitar Solo
w/Rhy Fig 6 x4
  Gtr III
                        ~~~~~~~                  ~~~
      |-3-|
  E   S S S  E       S  S  +E   S  S  E       S  S
|--------------------------------------------------|
|-----------12b12.5------------------12b12.5-------|
|-----------12b12.5------------------12b12.5-------|
|---------x---------14-14-(14)-12-14---------14-14-|
|-------x------------------------------------------|
|-----x--------------------------------------------|


 ~~~~~~                        ~~~          ~~
   +E   S  S  E       S  S  S  E   S  S  S  E
|------------------------------------------------|
|------------12b12.5-----------------------------|
|------12----12b12.5----12-14--------------------|
|-(14)-12-14---------14-12----12--12-12h14-14----|
|------------------------------------------------|
|------------------------------------------------|


                          ~~~~~~~                       ~~~
   S  S  S  S  E       S  S  +S   +S     S  S  E  S     S
|---------------------------------------------------------|
|-------------12b12.5-------------------------------------|
|-12----------12b12.5-------------------------12-14b16-12-|
|-12-14-14-14---------14-14-(14)-(14)\-/12-14-------------|
|---------------------------------------------------------|
|---------------------------------------------------------|


 ~~~~~~                                        PM
   +S   +S     S  S  E       S  S  e     e  S  S  S      +S
|-------------------------------------------------------------|
|-------------------12b12.5-------12--------------------------|
|-(12)-(12)\--------12b12.5-------12----12-14----14b16==(14)r-|
|------------/14-12---------14-12-------------14--------------|
|-------------------------------------------------------------|
|-------------------------------------------------------------|


  Gtr IV
                                           ~~~
   E     E E         E    E e   S     +S  +E
|-----------------------------------------------|
|-----------------------------------------------|
|----------9--------------------9b11==(9)r(9)---|
|--------9-----------9------9-------------------|
|-----------------------------------------------|
|-----------------------------------------------|
|
| Gtr III
|                                          ~~~
|  S  S  E S    +S  +E    E e   S     +S  +E
|-----------------------------------------------|
|-14-12-----------------------------------------|
|-14-12-----------------------------------------|
|----------6b7==(6)r(6)-----6---9b11==(9)r(9)---|
|-------\7----------------7---------------------|
|-----------------------------------------------|


                                      ~
  +E    e   S     +S  +S  S e    e    Q
|--------------------------------------------|
|--------------------------------------------|
|-(9)\---------------------------9b11-9------|
|------/6---9b11==(9)r(9)-6-9----------------|
|--------------------------------------------|
|--------------------------------------------|
|
|                                     ~
| +E    e   S     +S  +S  S e    e    Q
|--------------------------------------------|
|--------------------------------------------|
|--------------------------------------------|
|-(9)\------6b7===(6)r(6)---6----9b11-9------|
|------/7-----------------7------------------|
|--------------------------------------------|


  +E      e S     +S  +E    E S     +S  +E  E
|-----------------------------------------------|
|-----------------------------------------------|
|-(9)\------------------------------------------|
|--------/6-9b11==(9)r(9)-----9b11==(9)r(9)-----|
|-----------------------------------------------|
|-----------------------------------------------|
|
| +E      E S     +S  +E    E S     +S  +E  E
|-----------------------------------------------|
|-----------------------------------------------|
|-----------------------------------------------|
|-(9)\------6b7===(6)r(6)-----6b7===(6)r(6)-----|
|--------/7-----------------7---------------7---|
|-----------------------------------------------|


                         ~~~
  S     +S  +S      +S  +E  S     +S  +S   S  S  S S     +S  +E
|------------------------------------------------------------------|
|------------------------------------------------------------------|
|--------------------------------------------------9b11==(9)r(9)---|
|-9b11==(9)r(9)b11==(9)r(9)-9b11==(9)r(9)-11--9h11-----------------|
|------------------------------------------------------------------|
|------------------------------------------------------------------|
|
|                        ~~~
| S     +S  +S      +S  +E  S     +S  +S   S  S  S S     +S  +E
|------------------------------------------------------------------|
|------------------------------------------------------------------|
|------------------------------------------------------------------|
|-6b7===(6)r(6)b7===(6)r(6)-6b7===(6)r(6)--7--6s=7-9b10==(9)r(9)---|
|------------------------------------------------------------------|
|------------------------------------------------------------------|


  Gtr I
|-Rhy Fig 7                                   end Rhy Fig 7-|
  B5      C5B5           C5B5            C5B5  D5A5V  C5G F#
   E E    E S S  E   S S E S S    E  S S E S S S E.   E S S
   | |    | | |      | | | | |       | | | | | | |    | | |
   / /    / / /      / / / / /       / / / / / / /    / o o

   E Q.         +H               +Q      Q     H
|------------------------------|----------------------------|
|------------------------------|----------------------------|
|--9-8----------(8)------------|-(8)------------------------|
|------------------------------|----------------------------|
|------------------------------|----------------------------|
|------------------------------|----------------------------|
|
|                                    PM
|  E S  S E S S +E   S S E S S   +E  S S E S S E    E E E
|------------------------------|----------------------------|
|--0-0--0-0-0-0-(0)--0-0-0-0-0-|-(0)-0-0-0-0-0-0----0-0-0---|
|-/4-4--4-5-4-4-(4)-/4-4-5-4-4-|-(4)-4-4-5-4-4-4----4-4-4---|
|------------------------------|----------------------------|
|------------------------------|----------------------------|
|------------------------------|----------------------------|
|
| Gtr II
|  E E    E S S +E   S S E S S   +E  S S E S S S E.   E S S
|------------------------------|----------------------------|
|------------------------------|----------------------------|
|--4-4----5-4-4-(4)--4-4-5-4-4-|-(4)-4-4-5-4-4-7------5-----|
|--4-4----5-4-4-(4)--4-4-5-4-4-|-(4)-4-4-5-4-4-7-7----5-----|
|--2-2----3-2-2-(2)--2-2-3-2-2-|-(2)-2-2-3-2-2-5-7----3-----|
|------------------------------|-----------------5------3-2-|
|-Rhy Fig 7A                                 end Rhy Fig 7A-|

w/Rhy Fig 7 + 7A
  Gtr III
     PM--|         PM-|
   S S S S E  S S  S  S E     S  S  E
|----------------------------------------|
|--0-0-0-0-0--0-0--0--0-0-----0--0--0----|
|-/5-5-4-2-4-/8-9--8--8-6---/11-12-11\---|
|----------------------------------------|
|----------------------------------------|
|----------------------------------------|


    PM-|                              ~~
    S   S  S S  E  S  S  S  S   S  S  E  E
|---------------------------------------------|
|---0---0--0-0--0--0--0-----------------------|
|-/11--12-11-9-11-11-12-14-16--14-16-16-16\---|
|---------------------------------------------|
|---------------------------------------------|
|---------------------------------------------|

w/Rhy Fig 5
                                                ~~~~~
  E E  E      +E          E E  S      +S       +E
|-----12-----(12)\------------14-----(14)-----(14)--------|
|-----15b17==(15)r\-----------17b19r=(17)b19==(17)r-------|
|---------------------------------------------------------|
|---------------------------------------------------------|
|---------------------------------------------------------|
|-0-0---------------------0-0-----------------------------|



  E E  E      +E          E E  S      +S       +E
|-----12-----(12)\------------17-----(17)-----(17)--------|
|-----15b17==(15)r\-----------20b22r=(20)b22==(20)r-------|
|---------------------------------------------------------|
|---------------------------------------------------------|
|---------------------------------------------------------|
|-0-0---------------------0-0-----------------------------|



  E5
  Gtr I
   W
   |
   /

  Gtrs III, IV
   ~~~~~~
   Q       +Q     E     S     S     S     +E   T  T
|-22b24===(22)r--22b24-22b24-22b24-22b24r(22)-------|
|-22b24===(22)r--22b24-22b24-22b24-22b24r(22)-20h22-|
|---------------------------------------------------|
|---------------------------------------------------|
|---------------------------------------------------|
|---------------------------------------------------|
|  Q       +Q     E     S     S     S     +E   S
|
| Gtr II
|  H.                              +E.         S
|---------------------------------------------------|
|---------------------------------------------------|
|----------------------------------------------0----|
|---------------------------------------------------|
|--2-------------------------------(2)--------------|
|--0-------------------------------(0)--------------|


  +W
   |
   /

   ~~~~~~~~       ~~
                          |-----6-----|  |------6-------|
   E        +E    E  +E   S S S S  S  S  S  S  S  S  S  S
|----------------------------------------------------------|
|-20b20.5==(20)r----------------8s10-10-10s12-12-15s17-17--|
|----------------21-(21)\-7s9-9-7s=9--9--9s11-11-14s16-16--|
|-------------------------7s9-9----------------------------|
|----------------------------------------------------------|
|----------------------------------------------------------|
|  H                      S S S S  S  S  S  S  S  S  S  S
|                         |-----6-----|  |------6-------|
|
|                         |-----6-----|  |------6-------|
|  H                      S S S S  S  S  S  S  S  S  S  S
|--0-------------------------------------------------------|
|--0-------------------------------------------------------|
|--0-------------------------------------------------------|
|-------------------------------5s=7--7--7s=9--9-12s14-14--|
|-------------------------5s7-7----------------------------|
|----------------------------------------------------------|


   ~~~
   E  E  Q               H
|----------------------------------------|
|-17----12b13==(12)r\-0------------------|
|-16----12b13==(12)r\--------------------|
|----------------------------------------|
|----------------------------------------|
|----------------------------------------|
|  Q     E      +S    S  H
|
| Gtr I
|  Q     E      +S    S  E S S +S  S S S
|----------------------------------------|
|-------12b13==(12)r\--------------------|
|-------12b13==(12)r\--------------------|
|----------------------------------------|
|-(2)----------------------5-------5---5-|
|-(0)-----------------0-/7---5-(5)---3---|
|
| Gtr II                                 G
|  E  E  E      +S    S  E S S +S  S S S
|----------------------------------------|
|-------12b13==(12)r\--------------------|
|-------12b13==(12)r\--------------------|
|-14\------------------------------------|
|--------------------------5-------5---5-|
|-----0---------------0-/7---5-(5)---3---|



Gtrs I, II
| E E  E      +S    S  E S S +S  S S S   S   +S  e E. S  E S S +S  S S S
|--------------------------------------|----------------------------------|
|-----12b13==(12)r\--------------------|----------------------------------|
|-----12b13==(12)r\--------------------|----------------------------------|
|--------------------------------------|----------------------------------|
|------------------------5-------5---5-|---------2-2-------5-------5---5--|
|-0-0---------------0-/7---5-(5)---3-0-|-3b5r(3)-0-0--0-/7---5-(5)---3----|


  Gtr I
  E  S  S  E  +S   S  E S S +S  S S S   S   +S  e E. S    +S  +S  e E. S
|-------------------------------------|-------------------------------------|
|---12s13-12-(12)\--------------------|-------------------------------------|
|---12s13-12-(12)\--------------------|-------------------------------------|
|---12s13-12-(12)\--------------------|-------------------------------------|
|-----------------------5-------5---5-|-------------------------------------|
|-0----------------0-/7---5-(5)---3---|-3b5r(3)-0-0--3b5==(3)r(3)-0-0--3b5==|
|
| Gtr II
| E  S  S  E  +S   S  E S S +S  S S S
|-------------------------------------|
|---12s13-12-(12)\--------------------|
|---12s13-12-(12)\--------------------|w/Rhy Fill 1
|---12s13-12-(12)\--------------------|
|-----------------------5-------5-----|
|-0----------------0-/7---5-(5)---3-0-|


 2/4
  +S  +S     +S  +S     +S  +S     +S  +S
|-------------------------------------------||
|-------------------------------------------||
|-------------------------------------------||
|-------------------------------------------||
|-------------------------------------------||
|-(3)r(3)b5==(3)r(3)b5==(3)r(3)b5==(3)r(3)--||



 Verse 3
 4/4
  Gtrs I, II
  E E Q  H      Q  E S S  e E Q
|-------------|------------------|
|-------------|------------------|
|-------------|-7--7-7-9-10-5-5--|
|-------------|-7--7-7-9-10-5-5--|
|-2-----------|-5--5-5-7--8-3-3--|
|-0-----------|-5--5-5-7--8-3-3--|


Rhy Fig 1 + 1A x2 -> D.S. al Coda


  &
  A5               Cadd9
  Gtr I
  W                W
  |                |
  /                /

  Gtr II
  Q  E. S e Q  e   Q  a E S  S  +E  E +S  S E
|----------------|-0----0-0-(0)-(0)-0-(0)-----|
|----------------|-3--3s5-3s=5--(5)-3-(3)-3-0-|
|-2--2----2-2--2-|-0--------------------------|
|-2--2----2-2--2-|-2--------------------------|
|-0--0----0-0--0-|-3--------------------------|
|-------0--------|----------------------------|


  A5                  E   F5
  Q  Q    e S S +E    E   Q  Q  E   E   E E
  |  |    | | |  |    |   |  |  |   |   | |
  /  /    / / /  /    o   /  /  /   /   / /

                                  PM--|
  Q  E. S e S S +S  S E   Q  Q  S S S S E E
|-----------------------|--------------------||
|-----------------------|--------------------||
|-2--2----2-2-2-(2)-2---|--------------------||
|-2--2----2-2-2-(2)-2---|-3--3--3-------3----||
|-0--0----0-0-0-(0)-0---|-3--3--3-3-3-3-3----||
|-------0-------------0-|-1--1--1-1-1-1-1-1/-||


 Outro
w/Rhy Fig 4
|-------------------------------------|-------------------------------------|



                          ~~~~~~~                    ~~
  S    S    E  E       S  S  +E   S  S  E         S  S
|------------------------------------------------------|
|-------------12b12.5------------------12b12.5---------|
|---------/14-12b12.5------------------12b12.5---------|
|---------/14---------14-14-(14)-12-14-----------14-14-|
|------------------------------------------------------|
|------0-----------------------------------------------|


    ~~~~
   +E   S  S  E        S    S  S     +E     S  e     E
|-----------------------------------------------------------|
|------------12b12.5----------14b16r(14)---12-14----14b15---|
|------------12b12.5----------14b16r(14)---12-14----14b15---|
|-(14)-12-14----------12---14-------------------------------|
|-----------------------------------------------------------|
|-----------------------------------------------------------|



         ~~~~~
   S  S  E  E  S  S  E       E    E    E
|-------------------------------------------|
|---------------------------15---15---------|
|-14-12----12-14-12-14b16==(14)-(14)r-14b16-|
|-------14----------------------------------|
|-------------------------------------------|
|-------------------------------------------|
|
|  Q        Q        Q            Q
|-------------------------------------------|
|-------------------------------------------|
|--4--------3-------------------------------|
|--4--------3--------5------------4---------|
|--2--------1--------5------------4---------|
|--------------------3------------2---------|


   E      +E    E      +E    E      +E    E      +E
|-----------------------------------------------------|
|-14b15==(14)r-14b15==(14)r-14b15==(14)r-14b15==(14)r-|
|-14b15==(14)r-14b15==(14)r-14b15==(14)r-14b15==(14)r-|
|-----------------------------------------------------|
|-----------------------------------------------------|
|-----------------------------------------------------|
|
|  E       E    E       E    E       E    E       E
|-----------------------------------------------------|
|-----------------------------------------------------|
|--9------------9------------9------------9-----------|
|-----------------------------------------------------|
|--7------------7------------7------------7-----------|
|----------0------------0------------0------------0---|


   E     S  S  E     S  +S       +E   E Q
|------------------------------------------*|
|------------------------------------------*|
|-14b16-14-12-14b16-12-(12)b13==(12)rs0----*|
|------------------------------------------*|
|------------------------------------------*|
|------------------------------------------*|
|
|  E     S  S  E     S   S       +E   E Q
|------------------------------------------*|
|------------------------------------------*|
|--------------9---------------------------*|
|------------------------------------------*|
|--------------7---------------------------*|
|--0-----0--0--------0---0-------(0)-------*|
comments
print report bad tab
I want to post or [tab]
guest
You may want to rate the tab now too:
select rating
Please do not post tabs as comments. Select "correction" instead!