Oops, an error
Loading. Please wait.

Cliffem All Bass Tab

8,120 views 6 this week
5 commentsread comments
1 2 3 4 5
worth learning
x 8
Autoscroll
+/-
esc
set tempo
stop
Hey! There's an official Ultimate Guitar app which is ideal
for learning songs when you're away from computer. Get the app
WARNING: You are trying to view
                                    content from Ultimate-Guitar.com
                                    in an unauthorized application,
                                    which is prohibited.

                                    Please use an official Ultimate
                                    Guitar Tabs application for iPhone,
                                    iPad or Android to access legitimate
                                    chords, guitar, bass, and drum tabs
                                    from Ultimate-Guitar.com database.

                                    Type "ultimate guitar tabs" in Apple
                                    App Store's or Android Market's
                                    search to find the application.
Metallica
Cliff 'Em All

Creeping Death
Time 4/4
beat 184    

Intro:

|Fig.1
|--------------------------------|--------------------------------|
|*-------------------------------|--------------------------------|
|*------------------------7------|(7)-----------------------------|
|-0---0---0---0---0--------------|--------------------------------|

                                                         end Fig.1|
|--------------------------------|--------------------------------|
|--------------------------------|-------------------------------*|
|-------------------------7---5--|(5)----------------------------*|
|-0---0---0---0---0--------------|--------------------------------|

|Fig.1A
|--------------------------------|--------------------------------|
|*-------------------------------|--------------------------------|
|*------------------------7------|(7)--------------7--------------|
|-0---0---0---0---0--------------|--------------------------------|

                                                        end Fig.1A|
|--------------------------------|--------------------------------|
|--------------------------------|-------------------------------*|
|-------------------------7---5--|(5)--------------5-------------*|
|-0---0---0---0---0--------------|--------------------------------|

|--------------------------------|--------------------------------|
|--------------------------------|--------------------------------|
|--------------------------------|--------------------------------|
|---------5-------3-------2------|-0------------------------------|

|--------------------------------|--------------------16--17--16-|
|------------- x 6 --------------|--------------------------------|
|--------------------------------|--------------------------------|
|--------------------------------|--------------------------------|

|Fig.2                                                   end Fig.2|
|--------------------------------|--------------------------------|
|*-------------------------------|-------------------------------*|x 4
|*-------------------------------|-----------------2---3---2---0-*|
|-0---0---0---0---0---0---0---0--|-0---0---0---0------------------|

|Fig.3                                                   end Fig.3|
|--------------------------------|--------------------------------|
|*-------------------------------|-------------------------------*|x 4
|*-------------------------------|-------------------------------*|
|-0---0---3-------0---0---3------|-0---0---2---2---2---2---2---2--|

|--------------------------------|--------------------------------|
|*-------------------------------|-------------------------------*|
|*-------------------------------|-----------------2---3---2---0-*|
|-0---0---0---0---0---0---0---0--|-0---0---0---0------------------|

|Fig.4                                                   
|--------------------------------|--------------------------------|
|--------------------------------|--------------------------------|
|---------7---------------7------|-----7---5-----------7---5---7--|
|-0---------------0---0-------0--|(0)-----------------------------|

                                                         end Fig.4|
|--------------------------------|--------------------------------|
|--------------------------------|--------------------------------|
|-5---7---5-------4-------0------|-2-------2-------4--------------|
|--------------------------------|-------------------------2------|

Verse 1, 2, 3:

   Repeat Fig.2 x 8
   Repeat Fig.3 x 4

Chorus:

|Fig.5
|--------------------------------|--------------------------------|
|--------------------------------|--------------------------------|
|--------------------------------|---------------------3-------5--|
|-0-------0-------0---0---0---0--|(0)--0---0---0---0--------------|

|--------------------------------|--------------------------------|
|--------------------------------|--------------------------------|
|(5)------5-------5---5---5---5--|-5---5---5---5---8-------8------|
|--------------------------------|--------------------------------|

|--------------------------------|--------------------------------|
|--------------------------------|--------------------------------|
|-7-------7-------7---7---7---7--|(7)--7---7---7---7---3-------5--|
|--------------------------------|--------------------------------|

|--------------------------------|--------------------------------|
|--------------------------------|--------------------------------|
|(5)------5-------5---5---5---5--|--------------------------------|
|--------------------------------|-1---1---1---1---3---3---3-----|

|--------------------------------|--------------------------------|
|--------------------------------|--------------------------------|
|--------------------------------|---------------------3-------5--|
|-0-------0-------0---0---0---0--|(0)--0---0---0---0--------------|

|--------------------------------|--------------------------------|
|--------------------------------|--------------------------------|
|(5)------5-------5---5---5---5--|-5---5---5---5---8-------8------|
|--------------------------------|--------------------------------|

|--------------------------------|--------------------------------|
|--------------------------------|--------------------------------|
|-7-------7-------7---7---7---7--|(7)--7---7---7---7---3-------5--|
|--------------------------------|--------------------------------|

                                                         end Fig.5|
|--------------------------------|--------------------------------|3rd	
|--------------------------------|--------------------------------|Time
|(5)------5---5---5---5---5---5--|-5-------2-------4--------------|to 
|--------------------------------|-------------------------2------|Coda

Repeat Fig.2 x 2
Repeat Fig.4

Guitar Solo:
|--------------------------------|--------------------------------|
|*-------------------------------|--------------------------------|
|*-------------------------------|-----------------2---3---2---0--|
|-0---0---0---0---0---0---0---0--|-0---0---0---0------------------|

|--------------------------------|--------------------------------|
|--------------------------------|-------------------------------*|x 4
|-0---0---0---0---0---0---0---0--|-0---0---0---0---0-------3-----*|
|--------------------------------|--------------------------------|

Repeat Fig.3 x 4
Repeat Fig.5 

|--------------------------------|
|--------------------------------|
|--------------------------------|
|-0------------------------------|

Bridge:
 half-time
|Fig.6
|--------------------------------|--------------------------------|
|*-------------------------------|--------------------------------|
|*----------------7---7---7---7--|-8---8---8-------5--------------|
|-0------------------------------|--------------------------------|

                                                         end Fig.6|
|--------------------------------|--------------------------------|
|--------------------------------|-------------------------------*|x 6
|-7------------------------------|-------------------------------*|
|-----------------0---0---0---0--|-3-------3---3---1-------1------|

Repeat Fig.2 x 2

|--------------------------------|--------------------------------|
|--------------------------------|--------------------------------|
|--------------------------------|-----------------5----------(5)|
|-0------------------------------|-0-----1-----3------------------|

Coda:
|--------------------------------|--------------------------------|
|*----------------------------2--|(2)-----------------------------|
|*----------------------------2--|(2)-----------------------------|
|-0---0---0---0---0---0---0------|---------0---0---0---0---3---2--|

|--------------------------------|--------------------------------|
|-----------------------------3--|(3)----------------------------*|x 6
|-----------------------------3--|(3)------3---3---3---3---5---5-*|
|-0---0---0---0---0---0---0------|--------------------------------|

|--------------------------------|--------------------------------|
|--------------------------------|--------------------------------|
|---------7-------5-------3---2--|(2)-----------------------------|
|-0---0--------------------------|--------------------------------|

|--------------------------------|--------------------------------|
|--------------------------------|--------------------------------|
|(2)------3-------2-------0---3--|(3)-----------------------------|
|--------------------------------|--------------------------------|

|--------------------------------|--------------------------------|
|*-------------------------------|--------------------------------|
|*(3)-----7-------5-------3---2--|(2)-----------------------------|
|--------------------------------|--------------------------------|

                                 1. 2. 3.
|--------------------------------|--------------------------------|
|--------------------------------|-------------------------------*|
|(2)------3-------2-------0---3--|(3)----------------------------*|
|--------------------------------|--------------------------------|

Repeat Fig.1
Repeat Fig.1A
                                
|--------------------------------|--------------------------------|
|--------------------------------|--------------------------------|
|--------------------------------|--------------------------------|
|-----------------5--------------|-3---------------2--------------|

|--------------------------------|--------------------------------|
|--------------------------------|--------------------------------|
|--------------------------------|--------------------------------|
|-0------------------------------|(0)-----------------------------|

|--------------------------------|--------------------------------|
|--------------------------------|--------------------------------|
|--------------------------------|--------------------------------|
|(0)-----------------------------|(0)-----------------------------|

|--------------------------------|--------------------------------|
|--------------------------------|--------------------------------|
|--------------------------------|--------------------------------|
|(0)-----------------------------|(0)----------------------0------|

|--------------------------------:
|--------------------------------:
|--------------------------------:
|-0------------------------------: End.

Am I Evil?
100 bpm
|--------|------|------|  3  |---|-------|---|-------|---|-----|---|-------|
|--------|------|------|-----|---|-------|---|-------|---|-----|---|-------|
|-7--5-7-|-8----|---R--|-----|---|-----2-|-1-|-(1)---|---|---2-|-1-|-(1)---|
|--------|----3-|-0----|     |-0-|-(0)---|---|-----1-|-0-|-0---|---|-----1-|
  h. e e   h. q   q h.         w   (h) h   w   (h) h   w   h h   w   (h) h

|---|-------|---|-------|---|-----|---|-------|---|-----------------|
|---|-------|---|-------|---|-----|---|-------|---|-----------------|
|---|-----2-|-1-|-(1)-8-|-7-|---2-|-1-|-(1)---|---|-----5-5-5-5-5-5-|
|-0-|-(0)---|---|-------|---|-0---|---|-----1-|-0-|-(0)-------------|
  w   (h) h   w   (h) h   w   h h   w   (h) h   w   (h) e e e e e e
                                                        [ 3 ] [ 3 ]

|--------------------|-----------------------|---------------------|
|--------------------|-----------------------|---R---------R-------|
|-7---------R-------|---R-------5-5-5-5-5-5-|-7-------------7-7-7-|
|----0-0-0-0---0-0-0-|-0---0-0-0-------------|-----0-0-0-0---------|
  q  e e e e e e e e   e e e e e e e e e e e   e e e e e e e e e e
     [ 3 ]     [ 3 ]       [ 3 ] [ 3 ] [ 3 ]       [ 3 ]     [ 3 ]

|---------------------|---------------------|-----------------------|
|---------------------|---R-----------------|-----------------------|
|-7-7-7-7-5-5-5-5-5-5-|-7-----------R-------|---R-------5-5-5-5-5-5-|
|---------------------|-----0-0-0-0---0-0-0-|-0---0-0-0-------------|
  q e e e e e e e e e   e e e e e e e e e e   e e e e e e e e e e e
    [ 3 ] [ 3 ] [ 3 ]       [ 3 ]     [ 3 ]       [ 3 ] [ 3 ] [ 3 ]

                                                         160 bpm
                                                 240 bpm 2/4 4/4
|---------|-----------|-------------|------------||  13  |----|---|---|
|---------|---9-8-/15-|-14-15-15h17-|-(17)-(17)-||------|----|---|---|
|-------8-|-7---------|-------------|------------||------|--R-|-R-|-R-|
|-0-7-6---|-----------|-------------|------------||      |----|---|---|
  q q q q   q q q  q    q  q     h    (h.) (q)              h   w   w

|---|-------|----|---------------|-----------|------------------|
|---|-R-----|----|---------------|-----------|----5-------------|
|-7-|----5/-|-/7-|-(7)-5h7-5---5-|-7-(7)-5/-|-/7---7-5---------|
|-0-|-------|--0-|-(0)-------7---|-----------|----------7-6-5-3-|
  w   h. q     w   (q.)  q e e e   h.+e e       e e e e e e e e

  fig.1                   end fig.1  3 times  fill 1              end fill 1
||-------------------|--------------||-----------------|-----------------|
||-o-----------------|------------o-||-----------------|-----------------|
||-o-----------------|------------o-||-----------------|-------------5-7-|
||---0-0-0-0-3-0-0-5-|-0-0-0-6--5---||-0-0-0-0-3-0-0-5-|-0-0-0-5-6-7-----|
     e e e e e e e e   e e e q. q      e e e e e e e e   e e e e e e e e

  Verse 1,2              fill 2                     end fill 2
||--                     |-----------------|-----------------|
||-o play fig.1  3 times |-----------------|-----------------|
||-o                     |-----------------|-------5-7-5-----|
||--                     |-0-0-0-0-3-0-0-5-|-0-0-0-------7-5-|
                           e e e e e e e e   e e e e e e e e

                       Pre-chorus                     4 times
                      ||-------------------|--------------||
  play fig.1  4 times ||-o-----------------|------------o-||
                      ||-o---------5-----7-|-------8--7-o-||
                      ||---7-7-7-7---7-7---|-7-7-7--------||
                           e e e e e e e e   e e e q. q

  Chorus
  play fig.1, 1st time play fill 1 , play fig.1  2 times
              2nd time play fill 3

             fill 3
             |-----------------|-----------------|
             |-----------------|-----------------|
             |-----------------|---7-7-7-7-7-7-7-|
             |-0-0-0-0-3-0-0-5-|-0---------------|

|1.                           |2.
                           --||---------|-5-5-5-5-5-5-------|
  play fig.1, play fill 1  o-||---------|-------------------|
                           o-||-7--5--3-|---------------5-6-|
                           --||---------|-------------7-----|
                                q. q. q   e s s e e e e e e

                                                              3 times
|-----------------|------------||-----------|-5-5-5-5-5-5---------||
|-----------------|------------||-o---------|-------------------o-||
|-7---------------|------------||-o-7--5--3-|---------------5-6-o-||
|---0-0-0-3-0-0-5-|-0-0-0-6--5-||-----------|-------------7-------||
  e e e e e e e e   e e e q. q      q. q. q   e s s e e e e e e

                                       192 bpm triplet feel
                                         fig.3
|----------|---------------|-----|-----||---------------------|
|----------|---------------|-----|-----||---7-7-7-7---7-7-7-7-|
|-7--9--10-|-(10)-(10)-3--|-(3)-|-(3)-||-0---------0---------|
|----------|---------------|-----|-----||---------------------|
  q. q. q     e   (e)   h.   (w)   (w)    e e e e e e e e e e
                                              [ 3 ]     [ 3 ]

                                              end fig.3
|---------------|---------------------|---------------|---------------------|
|---7-7-7-7-----|---7-7-7-7---7-7-7-7-|---7-7-7-7-----|---7-7-7-7---7-7-7-7-|
|-0-----------5-|-0---------0---------|-0---------3---|-0---------0---------|
|-----------3---|---------------------|-------------3-|---------------------|
  e e e e e q q   e e e e e e e e e e   e e e e e q q   e e e e e e e e e e
      [ 3 ]           [ 3 ]     [ 3 ]      [ 3 ]           [ 3 ]     [ 3 ]

|---------------|---------------------|--------------------||
|---7-7-7-7-----|---7-7-7-7---7-7-7-7-|---7-7-7-7-7-7-7----||
|-0-----------5-|-0---------0---------|-0---------------7-||
|-----------3---|---------------------|--------------------||
  e e e e e q q   e e e e e e e e e e   e e e e e e e e q
      [ 3 ]           [ 3 ]     [ 3 ]       [ 3 ] [ 3 ]

Bridge 1
   fig.4
||-----------------------|-----------------|---------------------|
||-o---------------------|-----------------|---------------------|
||-o-7---------7---------|-7-----------5---|-7---------7---------|
||-----0-0-0-0---0-0-0-0-|---0-0-0-0-0-----|---0-0-0-0---0-0-0-0-|
     e e e e e e e e e e   e e e e e e e+q   e e e e e e e e e e
         [ 3 ]     [ 3 ]       [ 3 ]             [ 3 ]     [ 3 ]

                        Chorus II
          end fig.4  4 times
|-------------------||                                |--------------------|
|-----------------o-|| play fig.3, fig.3 first 3 bars |---7-7-7-7-7-7-7----|
|-7-----------5-5-o-||                                |-0---------------7-|
|---0-0-0-0-0-------||                                |--------------------|
  e e e e e q q q                                       e e e e e e e e q
      [ 3 ] [ 3 ]                                           [ 3 ] [ 3 ]


Bridge 2  :  play fig.4  4 times, play fig.3  2 times

                 Guitar solo                                  6 times
|---|-----|-----||-----------------------|-----------------------||
|---|-----|-----||-o---------------------|---------------------o-||
|---|-----|---0-||-o-2-2-2-2-2-2-2-2-2-2-|-2-2-2-2-2-2-2-2-2-2-o-||
|-0-|-(0)-|-3---||-----------------------|-----------------------||
  w   (w)   h h      e e e e e e e e e e   e e e e e e e e e e
                         [ 3 ]     [ 3 ]       [ 3 ]     [ 3 ]

                                              2 times
||-----------------------|-----------------------||
||-o---------------------|---------------------o-||
||-o-7---------7---------|-7---------7---------o-||
||-----0-0-0-0---0-0-0-0-|---0-0-0-0---0-0-0-0---||
     e e e e e e e e e e   e e e e e e e e e e
         [ 3 ]     [ 3 ]       [ 3 ]     [ 3 ]

                                              5 times
||-----------------------|-----------------------||---------------------|
||-o---------------------|---------------------o-||---------------------|
||-o-2-2-2-2-2-2-2-2-2-2-|-2-2-2-2-2-2-2-2-2-2-o-||-0-0-0-0-0-0-0-0-0-0-|
||-----------------------|-----------------------||---------------------|
     e e e e e e e e e e   e e e e e e e e e e      e e e e e e e e e e
         [ 3 ]     [ 3 ]       [ 3 ]     [ 3 ]          [ 3 ]     [ 3 ]

|---------------------|---------------------|---------------------|
|---------------------|---------------------|---------------------|
|-0-0-0-0-0-0-0-0-0-0-|---------------------|---------------------|
|---------------------|-1-1-1-1-1-1-1-1-1-1-|-1-1-1-1-1-1-1-1-1-1-|
  e e e e e e e e e e   e e e e e e e e e e   e e e e e e e e e e
      [ 3 ]     [ 3 ]       [ 3 ]     [ 3 ]       [ 3 ]     [ 3 ]

|---------------------|---------------------|---------------------|
|---------------------|---------------------|---------------------|
|-1-1-1-1-1-1-1-1-1-1-|-1-1-1-1-1-1-1-1-1-1-|---------------------|
|---------------------|---------------------|-2-2-2-2-2-2-2-2-2-2-|
  e e e e e e e e e e   e e e e e e e e e e   e e e e e e e e e e
      [ 3 ]     [ 3 ]       [ 3 ]     [ 3 ]       [ 3 ]     [ 3 ]

                                                                  5 times
|---------------------||-----------------------|-----------------------||
|---------------------||-o---------------------|---------------------o-||
|---------------------||-o-2-2-2-2-2-2-2-2-2-2-|-2-2-2-2-2-2-2-2-2-2-o-||
|-2-2-2-2-2-2-2-2-2-2-||-----------------------|-----------------------||
  e e e e e e e e e e      e e e e e e e e e e   e e e e e e e e e e
      [ 3 ]     [ 3 ]          [ 3 ]     [ 3 ]       [ 3 ]     [ 3 ]

|---------------------|---------------------|---------------------|
|---------------------|---------------------|---------------------|
|-7---------7---------|-7---------7---------|-7---------7---------|
|---0-0-0-0---0-0-0-0-|---0-0-0-0---0-0-0-0-|---0-0-0-0---0-0-0-0-|
  e e e e e e e e e e   e e e e e e e e e e   e e e e e e e e e e
      [ 3 ]     [ 3 ]       [ 3 ]     [ 3 ]       [ 3 ]     [ 3 ]

                                                             2 times
|---------------||-----------------------|-----------------------||
|---------------||-o---------------------|---------------------o-||
|-7-------------||-o-2-2-2-2-2-2-2-2-2-2-|-2-2-2-2-2-2-2-2-2-2-o-||
|---0-0-0-0-0-3-||-----------------------|-----------------------||
  e e e e e q h      e e e e e e e e e e   e e e e e e e e e e
      [ 3 ] [3]          [ 3 ]     [ 3 ]       [ 3 ]     [ 3 ]


play fig.3, play fig.3 first 2 bars

|-----------------14-|-14-14-14-14-14-14-14-14-14-12----||
|---7-7-7-7---7-7----|-------------------------------14-||
|-0---------0--------|----------------------------------||
|--------------------|----------------------------------||
  e e e e e e e e e    e  e  e  e  e  e  e  e  e  e  e
      [ 3 ]                  [  3  ]  [  3  ]  [  3  ]

Bridge 3 : play fig.4  4 times, play fig.3  4 times

                                         3 times                      rit.
||-------------------|-----------------------||---------------|-----------||
||-o-----------------|---------------------o-||-------------R-|-----R-----||
||-o-----7p0-5-5-5---|-5-5-5-------5-7p5---o-||-----7p0-5-5---|-5-5---5---||
||---0-0-----------0-|-------0-5h7-------7---||-0-0-----------|---------5-||
     e e e e e e e e   e e e e e e e e e e      e e e e e q e   e q e q q
                               [ 3 ] [ 3 ]

160 bpm, straight eight feel
|------|---|--------|----------------||-------------------|
|------|---|--------|----------------||-o-----------------|
|---R--|-R-|----5h7-|-7-7-7-7-7-7-7-||-o-----------------|
|-0----|---|-0------|----------------||---0-0-0-0-3-0-0-5-|
  q h.   w   h..  e   e e e e e e q       e e e e e e e e

             4 times
|--------------||-------||
|------------o-||-------||
|------------o-||-R-----||
|-0-0-0-6--5---||---3-0-||
  e e e q. q      h q q

Damage Inc.
 Intro
              Fast=190
4/4|----14---||------------|--------------|------------|--------------|
   |-|-----|-||------------|--------------|------------|--------------|
   |--pause--||------------|--------------|------------|--------------|
   |---------||0-----0-----|0-----0--1-1-1|0-----0-----|0-----0--1-1-1|

|------------|--------------|------------|------------||  
|------------|--------------|------------|------------||
|------------|--------------|------------|------------||
|0--0--0--0--|0--0--0--1-1-1|0--0--0--0--|0--0--0--0--||

|----------------|----------------||------------------|----------------|
|----------------|----------------||:-----------------|----------------|
|----------------|----------------||------------------|----------------|
|0000000000000000|5-5/6---5/6---5/||-/6-00000000000000|5-5/6---5/6---5/|
                     s     s     --s--                    s     s     --s

                                                     ------------------- 
                                                     |1
|-----------------|----------------|-----------------|----------------|
|-----------------|----------------|-----------------|----------------|
|-----------------|----------------|-----------------|----------------|
|/6-00000000000000|5-5/6---5/6---5/|/6-22222222222222|3-3/2---3/2---3/|
s-                    s     s     -s-                    s     s     --s

------------------------------------ ----------------
                                    ||2 
|-----------------|-----------------||---------------|------------|
|-----------------|----------------:||---------------|------------|
|-----------------|-----------------||---------------|2-----------|
|/2-00000000000000|5-5/6---5/6---5/-||3-3/2---3/2---3|------3-----|
s-                    s     s     --s--  s     s   

|------------|----------------|---------||
|------------|----------------|---------||
|0-----------|----------------|---------||
|------3-----|2222222222222222|2--------||

||-----------------|----------------|----------------|-----------------||
||:----------------|----------------|----------------|----------------:||
||-----------------|----------------|----------------|-----------------||
||-6/3-00-0-0-000-0|6/3-00-0-0-000-0|6/3-00-0-0-000-0|6/3 11-1-0-000-0-||

            1st,2nd,3rd Verses
|---------||-----------------|----------------|----------------|
|2/4------||:----------------|----------------|----------------|
|---------||-----------------|----------------|----------------|
|----6----||-6/3 00-0-0-000-0|6/3 00-0-0-000-0|6/3 00-0-0-000-0|

|----------------|----------------|----------------|----------------|
|----------------|----------------|----------------|----------------|
|----------------|----------------|----------------|----------------|
|6/3-11-1-0-000-0|6/3-00-0-0-000-0|6/3 00-0-0-000-0|6/3 00-0-0-000-0|

|----------------|----------------|----------------|----------------|
|----------------|----------------|----------------|----------------|
|55555555--------|----------------|----------------|----------------|
|--------66666666|6/3-00-0-0-000-0|6/3-00-0-0-000-0|6/3-00-0-0-000-0|

|----------------|----------------|----------------|----------------|
|----------------|----------------|----------------|----------------|
|----------------|----------------|----------------|----------------|
|6/3-11-1-0-000-0|6/3-00-0-0-000-0|6/3-00-0-0-000-0|6/3-00-0-0-000-0|

|----------------|------------|------------|----------------|------------|
|----------------|------------|------------|----------------|------------|
|55555555--------|2-----------|0-----------|----------------|------------|
|--------66666666|------3-----|------3-----|2222222222222222|0-----------|

------------------------------------------------------  -----------
|1                                                    ||2
|------------|-------------|------------|-------------||-----------|
|------------|-------------|------------|------------:||-----------|
|------------|-------------|------------|-------------||-----------|
|0-----0-----|0-----0-1-1-1|0--0--0--0--|0--0--0--0---||-----------|

         ------------  -----------             --------------  -------------
        |1.2.3       || 4                     |1.2.3         ||4
||------|------------||-----------||----------|--------------||------------||
||:-----|-----------:||-----------||:---------|-------------:||------------||
||------|----------1-||----------2||----------|------------1-||-----------2||
||------|-----11-1---||-----11-1--||-0--------|(0)----11-1---||(0)---11-1--||

Bridge

|--------|------------|--------|---------------|--------|---------------|
|--------|------------|--------|---------------|--------|---------------|
|--------|-----------1|--------|--------------1|--------|--------------1|
|0-------|------11-1--|0-------|(0)------11-1--|0-------|(0)------11-1--|

|--------|------------|    ------------|    ----------||
|--------|------------|7/8 ------------|4/4 ----------||
|--------|-----------2|    2-----------|    ----------||
|0-------|------11-1--|    ------------|    ----------||

Guitar Solo

||-----------------|----------------|----------------|-----------------||
||:----------------|----------------|----------------|----------------:||
||-----------------|----------------|----------------|-----------------||
||-0000000000000000|0000000000000000|0000000000000000|0000000000000000-||

                                                     ------------------
                                                     |1                |
||-----------------|----------------|----------------|-----------------||
||:----------------|----------------|----------------|----------------:||
||-----------------|----------------|----------------|-----------------||
||-2222222222222222|2222222222222222|2222222222222222|2222222222222222-||

 ------------------
 |2
||----------------||-------------------|----------------|-----------------|
||----------------||:------------------|----------------|-----------------|
||--------00-011-1||-------------------|----------------|-----------------|
||22-233-3--------||-000000000000000000|5-5/6---5/6---5/|/6-00000000000000|
                                           s     s     -s-                

|----------------|-----------------|----------------|-----------------|
|----------------|-----------------|----------------|-----------------|
|----------------|-----------------|----------------|-----------------|
|5-5/6---5/6---5/|/6-00000000000000|5-5/6---5/6---5/|/6-22222222222222|

|----------------||-----------|-----------|----------------|----------------|
|---------------:||-----------|-----------|----------------|----------------|
|----------------||2----------|0----------|----------------|----------------|
|3-32---32---3-||------3----|------3----|2222222222222222|2222222222222222|

|------------|------------|----------------|----------------||
|------------|------------|----------------|----------------||
|2-----------|0-----------|----------------|----------------||
|------3-----|------3-----|2-22-2-23-3-33-3|5-55-5-56-66-6-6||

                                                     -----------------
                                                    |1                |
||----------------|----------------|----------------|-----------------||
||:---------------|----------------|----------------|----------------:||
||----77----------|77------------1-|----77-0-0-0-0-0|77------------5--||
||-0-0---0-0-0-0-0|---0-0-0-00-0---|0-0-------------|---0-0-0-00-0----||

 ----------------
|2               |                                      D.S. al Coda
|----------------|------------|------------|----------------||
|----------------|------------|------------|----------------||
|77------------2-|2-----------|0-----------|----------------||
|---0-0-0-00-0---|------3-----|------3-----|2222222222222222||

   Coda
   |-----------------|--------------------|----------------|
   |-----------------|--------------------|----------------|
   |x-2----2---------|x-0-----0-----------|----------------|
   |---------x-3----3|-----------x-3-----3|2222222222222222|

|--------------|------------|--------------|------------||
|--------------|------------|--------------|------------||
|--------------|------------|--------------|------------||
|2-------------|0-----0-----|0-----0--1-1-1|1-----------||

Master Of Puppets
Intro
4/4
|----------|------------|-------------|------------|----------|--------|---------|
|----------|------------|-------------|------------|----------|--------|---------|
|----------|5---4---3---|(3)----------|------------|----------|--------|---------|
|0---------|------------|-------------|0-----------|----------|--------|-------1-|

||-------|------------|--------|---------||--------|------------|---------------|---------------|
||:------|------------|--------|--------:||--------|------------|---------------|---------------|
||-------|5---4---3---|--------|---------||--------|5---4---3---|---3-3-3-3-3-3-|3-3-3-3-3-3-3-3|
||-0-----|------------|--------|------1--||0-------|------------|---------------|---------------|

|----------------||----------|----------|----------|-----------------||
|----------------||:---------|----------|----------|----------------:||
|3-3-3-3-3-3-3-3-||----------|----------|----------|-----------------||
|----------------||-0--------|----------|----------|32-0-32-0-32--||
                                                     S     S     S

||-----------------|----------------|----------------|----------------|
||:----------------|----------------|----------------|----------------|
||-----2-----3-----|4-----3-----2-2-|----2-----3-----|4-----3-----2---|
||-0-1---0-1---0-1-|--0-1---0-1-----|0-1---0-1---0-1-|--0-1---0-1-----|

|-----------------|----------------|----------------|-----------------||
|-----------------|----------------|----------------|----------------:||
|-----2-----3-----|4-----3-----2-2-|----2-----3-----|-----------------||
|-0-1---0-1---0-1-|--0-1---0-1-----|0-1---0-1---0-1-|32-0-32-0-32--||
                                                      S     S     S

|-----------------|----------------|------------------||
|-----------------|----------------|------------------||
|-----------------|----------------|------------------||
|32-0-32-0-32--|0---------------|---------------8-||

Bass riff1                                            5/8
||-----------------|----------------|----------------|-----------||
||:----------------|----------------|----------------|----------:||
||-----------------|----------------|----------------|-----------||
||-0-0-0-0-0-0-0-0-|0-3-5-0-65-3-5-|0-0-0-0-0-0-0-0-|0-3/5-3/5--|| end of riff1
                       H     S   H

1st, 2nd, 3rd Verses 
Bass riff1 X4

Bass riff2 X2                                       5/8        
|----------------|----------------|----------------|----------|
|----------------|----------------|----------------|----------|
|----------------|----------------|----------------|----------|
|2-2-2-2-2-2-2-2-|2-5/7---87-5/7-|2-2-2-2-2-2-2-2-|2-5/7-5/7-| end of riff2

Pre-chorus
|----------------||----------------|---------------|----------------|----------------|
|----------------||----------------|---------------|----------------|--------1-------|
|----------------||7-------5---7---|---------------|3-3-3-3-3---2---|3-3-3-3-----2---|
|7-7-7-7-7-7-7-7-||--0-0-0---------|0------2-3-----|----------------|----------------|

                                                    ------------------   --------------
                                                    |1.2.             | |3.           
||-----------------|---------------|----------------|-----------------||--------------|
||:----------------|---------------|----------------|--------1-------:||4-2-1---1-----|
||-7-------5---7---|---------------|3-3-3-3-3---2---|3-3-3-3-----2----||----------3-2-|
||---0-0-0---------|0------2-3-----|----------------|-----------------||--------------|

                                    Chorus           2/4      4/4
|----------------|----------------||----------------|--------|----------------|-----------------|
|----------------|----------------||----------------|--------|----------------|-----------------|
|----------------|----------------||----------------|--------|----------------|-----------------|
|0---0-----------|1---1-----------||0-----------0-0-|2-0-0-0-|3---3-3---3-3---|3-3-3-3-3-3-333--|
                                                      P
                  2/4      4/4                                                 2/4
|----------------|--------|----------------|----------------|-----------------|--------|
|----------------|--------|----------------|----------------|-----------------|--------|
|3---2-3-3-0-0-0-|2-0-0-0-|0---0-0---0-0---|(0)-------------|5----------------|5-------|
|----------------|--------|----------------|----------------|-----------3-3-3-|----0-0-|

4/4               2/4      4/4                                                 2/4
|----------------|--------|----------------|----------------|-----------------|--------|
|----------------|--------|----------------|----------------|-----------------|--------|
|3---3-3---3-3---|3-3-3---|----------------|----------------|-----------------|--------|
|----------------|--------|0---0-----------|1---1-----------|0----------0-0-0-|2-0-0-0-|
                                                                                P

 4/4                                                                  2nd time to Coda1
|----------------|----------------|----------------|----------------||3rd time to Coda2
|----------------|----------------|----------------|----------------||
|3---3-3---3-3---|3-3-2-2-0-0-----|----------------|----------------||
|----------------|------------3-3-|0---0-----------|1---1-----------||

                                                      -----------------   ------------------
                                                     |1.               | |2.
||-----------------|----------------|----------------|-----------------||-----------------|
||:----------------|----------------|----------------|----------------:||-----------------|
||-----2-----3-----|4-----3-----2-2-|----2-----3-----|4-----3-----2----||-----------------|
||-0-1---0-1---0-1-|--0-1---0-1-----|0-1---0-1---0-1-|--0-1---0-1------||32-0-32-0-32--|
                                                                          S     S     S
                   D.S al Coda1           Coda1
|-----------------|                       |----------------|----------------||
|-----------------|                       |----------------|----------------||
|-----------------|                       |----------------|----------------||
|32-0-32-0-32--|                       |----------------|----------------||
  S     S     S

Interlude
 2/4      4/4         2/4                4/4                                              2/4
|--------|-----------|--------||--------|---------------|---------------|----------------|------|
|--------|--3 pause--|--------||--------|---------------|---------------|----------------|------|
|--------|-----------|--------||7-------|5--------------|3--------------|0-------2-------|6-----|
|--------|-----------|--------||--------|---------------|---------------|----------------|------|

Interlude riff1
             4/4                                                2/4
||---------|----------------|----------------|----------------|---------||
||:--9-9---|----------------|----------------|----------------|--------:||
||-7-----7-|5-----5-5-5---5-|3-3---333-3-0-3-|0-----0-2-220-2-|66660-6--||End of Interlude riff1
||---------|------------5---|----------------|----------------|---------||

Guitar solo1
            4/4                                                2/4
||---------|----------------|----------------|----------------|---------||
||:--9-----|----------------|----------------|----------------|--------:||
||-7---7-7-|5-----555-5-7-5-|3-3-----3-3-0-3-|0-----0-2-220-2-|66660-6--||
||---------|----------------|------33--------|----------------|---------||

Interlude riff1 X2
            
            4/4                                                2/4
||---------|----------------|----------------|----------------|---------||
||:--------|----------------|----------------|----------------|--------:||
||---------|----------------|----------------|----------------|6-6-6-6--||
||-0-0-0-0-|2-2-2-2-2-2-2-2-|3-3-3-3-3-3-3-3-|5-5-5-5-7-7-7-7-|---------||

  4/4                                                                     X6
||----------------|----------------||-----------------|-----------------||
||----------------|----------------||:----------------|----------------:||
||----------------|----------------||---------------44|--------------4--||
||0-0-0-0-0-0-0-0-|0-0-0-0-0-0-0-0-||-2-2-3-2-2-2-3---|2-2-3-2-2-2-3----||

||----------------|-----------------|----------------|----------------||
||----------------|-----------------|----------------|5-4-2-2-0-------||
||----------------|-----------------|----------------|----------4-2-0-||
||3---3---3-3-3-3-|(3)3-3---3-3-3---|2---2---2-2-2---|----------------||

Guitar solo2
Bass riff1 X4
Bass riff2 X2

|----------------||-----------------|----------------|----------------|-----------------||
|----------------||:----------------|----------------|----------------|----------------:||
|----------------||-----------------|------------2-2-|----------------|------------2----||
|7-7-7-7-7-7-7-7-||-0-0-1-0-0-1-0-0-|1-0-0-1-0-0-----|0-0-1-0-0-1-0-0-|1-0-0-1-0-0------||

                                                                      X4
|----------------|----------------|----------------|----------------||
|----------------|------------0-2-|4-5-------------|------0---------||
|----------------|------0-2-3-----|----3---------33|3-2-3---3-2-----||
|0-0-0-0-0-0-0-0-|0-2-3-----------|----------------|------------3-2-||

|----------------|----------------||-----------------|----------------|----------------|
|----------------|------0---------||:----------------|----------------|----------------|
|--------------33|3-2-3---3-2-----||-----------------|----------------|----------------|
|0---------------|------------3-2-||-0---------------|----------------|----------------|

                                    D.S. al Coda2      Coda2
|-----------------||----------------||                 ||-----------------|---------------|
|----------------:||----------------||                 ||:----------------|---------------|
|-----------------||----------------||                 ||-----------------|---------------|
|32-0-32-0-32--||32-0-32-0-32-||                 ||-0-0-0-0-0-0-0-0-|0-3-5-0-65-3-5|
  S     S     S      S     S     S                                            H     S   H  

                  5/8       x8 4/4
|----------------|-----------||----------------|----------------|----------------||
|----------------|----------:||----------------|----------------|----------------||
|----------------|-----------||----------------|----------------|----------------||
|0-0-0-0-0-0-0-0-|0-3/5-3/5--||----------------|32-0-32-0-32-|0---------------||

Whiplash
Intro

168 bpm         3 times 3/4   4/4 160 bpm                        23 times
-------||---------------||-----||-------------------------------------||
-------||-o---R-------o-||---R-||-o---------------------------------o-||
-7-7-7-||-o-7---7-7-7-o-||-7---||-o-7-7-7-7-7-7-7-7-7-7-7-7-7-7-7-7-o-||
-------||---------------||-----||-------------------------------------||
 e e e      q h e e e      q h      s s s s s s s s s s s s s s s s
 [ 3 ]          [ 3 ]

                           fig.1
|-------------------------||-----------------------------------|
|-------------------------||-o---------------------------------|
|-7-7-7-7-7-7-7-7---------||-o---------------------------------|
|-----------------5--4--3-||---0-0-0-0-0-0-0-0-0-0-0-0-0-0-0-0-|
  s s s s s s s s e. e. e      s s s s s s s s s s s s s s s s

              end fig.1  4 times  fig.2
|---------------------------|||-----------------------------------|
|-------------------------o-|||-o---------------------------------|
|-------------------------o-|||-o---------------------------------|
|-0-0-0-0-0-0-0-0-5--4--3---|||---0-0-0-0-0-0-0-0-0-0-0-0-0-0-0-0-|
  s s s s s s s s e. e. e         s s s s s s s s s s s s s s s s

                      end fig.2  4 times
|---------------------------------||
|-------------------------------o-||
|-------------------------------o-||
|-0-0-0-0-0-0-0-0-0-0-0-0-0-0-3---||
  s s s s s s s s s s s s s s e

Verse 1,2,3

||--                           ||
||-o  play fig.2   4 times     ||
||-o                           ||
||--                           ||

Chorus
  fig.3                            end fig.3  3 times
||-------------------|-------------------------||
||-o-----------------|-----------------------o-||
||-o-3-3-3-3-3-3-2-0-|-----------------------o-||
||-------------------|-0h2-2-2-2-2-2-2-2-2-0---||
     e e s s e q q q   s s s s e s s e s s q
               [ 3 ]

|1,2.                          |
|---||                       --||
|---||  play fig.1  4 times  o-||
|-R-||                       o-||
|---||                       --||
  w

|3.                   Interlude & Guitar solo                     12 times
|---|---|-------------||-----------------------|-----------------------||
|---|---|-------------||-o---------------------|---------------------o-||
|-R-|-R-|-5-4-3-------||-o-7p5---5---5---------|-7p5---5---5---------o-||
|---|---|-------5-4-3-||-------7---7---0-0-0-0-|-----7---7---0-0-0-0---||
  w   w   q q q q q q      s s s e s e e e e e   s s s e s e e e e e
          [ 3 ] [ 3 ]

    7/8     4/4
|---|-------|                      ||
|---|-------| play fig.1  4 times  ||
|---|----R--|                      ||
|-0-|-0-----|                      ||
  w   q  h+e

Verse 4 : play fig.2  4 times, play fig.3  3 times

|-----------------|-------------------|-------------------|
|-----------------|-------------------|-------------------|
|-3-3-3-3-3-3-2-0-|-----------------R-|-----------------R-|
|-----------------|-0-2-2-2-2-0-2-0---|-0-2-2-2-2-0-2-0---|
  e e s s e q q q   e s s s s e e e q   e s s s s e e e q
            [ 3 ]

|-------------------|-------------------|--------|-----------------||
|-------------------|-------------------|--------|-----------------||
|-----------------R-|-------------------|--------|---------------R-||
|-0-2-2-2-2-0-2-0---|-0-2-2-2-2-0-2-0---|-(0)----|-0-2-2-2-0-2-2---||
  e s s s s e e e q   e s s s s e e q.    (l)      e s s e e e e q

The Four Horsemen
Intro                                              2 times
|---------||-------|---|---|---------|---|---|-----------||
|---------||-o---R-|-R-|-R-|---------|---|---|---------o-||
|-3---5-3-||-o-7---|---|---|-R---R---|-R-|-R-|-3---5-3-o-||
|---3-----||-------|---|---|---0---0-|---|---|---3-------||
  q q q q      q h.  w   w   q q q q   w   w   q q q q

fig.1
|-----------------|-------------|-----------------|-------------|
|-----------------|-------------|-----------------|-------------|
|-------7-------7-|-------7-5-5-|-------7-------7-|-------7-3-5-|
|-0-0-0---0-0-0---|-0-0-0-------|-0-0-0---0-0-0---|-0-0-0-------|
  e e e q e e e q   e e e q q q   e e e q e e e q   e e e q q q
  [ 3 ]   [ 3 ]     [ 3 ]         [ 3 ]   [ 3 ]     [ 3 ]

                                   end fig.1
|-----------------|-------------|---------||
|-----------------|---------5---|---------||
|-------7-------7-|-------7---7-|-3---5-3-||
|-0-0-0---0-0-0---|-0-0-0-------|---3-----||
  e e e q e e e q   e e e q q q   q q q q
  [ 3 ]   [ 3 ]     [ 3 ]

  Verses 1,2                 Chorus
||--                         |---------------|-----------------|
||-o  play fig.1  2 times    |---------------|-----------------|
||-o                         |-7-7-7-7-0-7-0-|-7-0-7-0-7-0-7-0-|
||--                         |---------------|-----------------|
                               q e e e e e e   e e e e e e e e

|-----------------|-----------------|-----------------|-----------------|
|-----------------|-----------------|-----------------|-----------------|
|-5-5-5-5-5-0-5-0-|-5-0-5-0-5-0-5-0-|-3-3-3-0-3-0-3-0-|-3-0-3-0-3-0-3-0-|
|-----------------|-----------------|-----------------|-----------------|
  e e e e e e e e   e e e e e e e e   e e e e e e e e   e e e e e e e e

|---------|--------------|---------------|-----------------|
|---------|------7-7-8-9-|---------------|-----------------|
|-2-3-5-7-|-9-10---------|-7-7-0-7-0-7-0-|-7-0-7-0-7-0-7-0-|
|---------|--------------|---------------|-----------------|
  q q q q   q q  q e e e   q e e e e e e   e e e e e e e e
                   [ 3 ]

                   2nd & 3rd time fill 1
|-----------------|-----------------|-----------------|---------|
|-----------------|-----------------|-----------------|---------|
|-5-5-5-0-5-0-5-0-|-5-0-5-0-5-0-5-0-|-3-3-3-0-3-0-3-0-|-2-3-2---|
|-----------------|-----------------|-----------------|-------3-|
  e e e e e e e e   e e e e e e e e   e e e e e e e e   q q q q

                   fill 1
                  |-----------------|
                  |-7-------7---7---|
                  |---5-5-5---5---5-|
                  |-----------------|
                    e e e e e e e e

fig.2
|-----------------|-----------------|-----------------|-------------------|
|-----------------|-----------------|-----------------|-----------7-5-----|
|-7-5-7-5-7-5-7-5-|-7-5-7-5-7-5---5-|-7-5-7-5-7-5-7-5-|-----5-7-5-----7-5-|
|-----------------|-------------7---|-----------------|-6-7---------------|
  e e e e e e e e   e e e e e e e e   e e e e e e e e   e e e e e e e e e
                                                        [ 3 ]

                                      end fig.2            3rd time to coda
|-----------------|-----------------|---------|              --||
|-----------------|-----------------|---------|  play fig.2  o-||
|-7-5-7-5-7-5-7-5-|-7-5-7-5-7-5-----|-3---5-3-|              o-||
|-----------------|-------------7-5-|---3-----|              --||
  e e e e e e e e   e e e e e e e e   q q q q

                              fig.3
|---||-----|  6  |-----------||-----------------------|
|---||-----|-----|-R-R-------||-o---------------------|
|-7-||---R-|-----|-----8p7-7-||-o-7---------7---------|
|-0-||-0---|     |-----------||-----0-0-0-0---0-0-0-0-|
  w    e h..       q e e q q      e e e e e e e e e e
                                    [ 3 ]       [ 3 ]

                                             end fig.3 4 times
|------------------|---------------------|-----------------||
|------------------|---------------------|---------------o-||
|-7---------87--7-|-7---------7---------|-7---------8-8-o-||
|---0-0-0-0--------|---0-0-0-0---0-0-0-0-|---0-0-0-0-------||
  e e e e e s e. q   e e e e e e e e e e   e e e e e q q
      [ 3 ]              [ 3 ]     [ 3 ]       [ 3 ]

half time (102 bpm)                      164 bpm straight eights
fill A-------------------| 2/4          4/4
|-9-7---7-----------------|-/9-7---7-----|---R-----------||
|-----9---9-8-7-5-7---5-7-|------9---9-8-|-7-----R---R---||
|-------------------7-----|--------------|-----3---4---5-||
|-------------------------|--------------|---------------||
  e e e e e e e e e e e e    e e e e e e   q e e e e e e
  [ 3 ] [ 3 ] [ 3 ] [ 3 ]    [ 3 ] [ 3 ]

                                   8 times
||-------------------|-------------------||
||-o-----------------|-----------------o-||
||-o---------8-7-5-7-|-------3---4---5-o-||
||---0-0-5-7---------|-0-0-0---0---0-----||
     e e e e e e e e   e e e e e e e e

Bridge                              8 times
||-------------------|-------------------||
||-o-----------------|-----------------o-||
||-o-----------------|-------3---4---5-o-||
||---0-0-0-0-0-0-0-0-|-0-0-0---0---0-----||
     e e e e e e e e   e e e e e e e e

102 bpm
fill A 2 times

90 bpm
|-------------------------|----------------------|-------------------------|
|-------------------------|----------------------|-------------------------|
|-----7-7-7-7-5-5-5-5-7-5-|-3-3-3-3-3-0-2-2-2-9-|-------------------------|
|-0-0---------------------|----------------------|-0-0-0-0-0-0-2-2-3-2-0-2-|
  e e s s s s e e s s s s   e e s s s s e e e e    e e s s s s e e s s s s

|---------------------------|--------------------------|
|---------------------------|--------------------------|
|-----------R-------------5-|-7-7-7-7-7/9-9-9-9-9-9/10-|
|-3-3-3-3-3---7-7-7-7-7-7---|--------------------------|
  e e s s s s s s s s s s e   e e s s s s e e s s s s

|----------------------------------|-------------------------------------|
|----------------------------12----|-14-14-14-14-14-14-16-16-16-16-16-16-|
|-10-10-10-10-10/14-14-14-14----14-|-------------------------------------|
|----------------------------------|-------------------------------------|
  e  e  s  s  s  s  s  s  e  e  e    e  e  s  s  s  s  e  e  s  s  s  s

|-----------------------------------------||
|-17-17-17-17-17/21-21-21-21-21-21-21-21-||
|-----------------------------------------||
|-----------------------------------------||
  e  e  s  s  s  s  s  s  s  s  s  s  e

Guitar solo I
|-----------------------|---------------------|--------------------|
|-------4-5---------4-5-|---------4-5---------|--------------------|
|-----7-----5-5-5-7-----|-3-3-5-7-----2-2-2-2-|-7----7-5-5-7-5-0-5-|
|-0-0-------------------|---------------------|-0--0---------------|
  e e e s s e e s s s s   e e s s s s e e e e   e. s q e e s s s s

|-----------------------|-------------------------|
|-----------------5-4-2-|-2-2-2-2-0-2-4-4-4-4-0-4-|
|-3-3-5-3-0-3-2-2-------|-------------------------|
|-----------------------|-------------------------|
  e e s s s s e e s s e   e e s s s s e e s s s s

|--------------------------|----------------------------|
|-5-5-5-4-2-0--------------|----------------------------|
|-------------2-2-0-2-0-2/-|-/7-----7-7-7-7-5-5-7-5-0-5-|
|--------------------------|--0-0-0---------------------|
  e e s s s s e s s s s e     e s s s s s s e e s s s s

|-----------------------------|---------------------------|
|-----5-4-2-------------------|-2---2-0-2-4-2-4-2-4-2-4-0-|
|-3-3-------5-3-5-3-2-3-2-----|---------------------------|
|-------------------------3-2-|---0-----------------------|
  e e s s s s s s s s s s s s   e e e s s s s s s s s s s

|-------------------------|-----------------------------|
|-------------------------|-----------------------------|
|-3-3-3-5-3-0-3-2-2-2-----|-------7-7-7-7-9-9-9-9-9-9-7-|
|---------------------3-2-|-0-0-0-----------------------|
  e s s s s s s e s s e e   e s s s s s s e s s s s s s

|-----------------------|-------------------------|-------------------------|
|-----5-------------5---|-----------------5-7-----|-----------5-7-----------|
|-3-3---3-0-3-2-2-2---7-|-7---7-7-7-7-5-5-----7-5-|-3-3-3-5-7-----2-2-2-2-2-|
|-----------------------|-0-0---------------------|-------------------------|
  e e s s s s s s e e e   e e s s s s e e s s s s   s s e s s s s s s e e e

                          2/4         4/4
|-------------------------|-----------|-----------------|-----||
|---------------------7---|-----------|-----------------|---R-||
|-7---7-7-7-7-5-5-7-5---5-|-3-3-5-3-5-|-2-3-2-3-2-3-2-3-|-2---||
|---0---------------------|-----------|-----------------|-----||
  e e s s s s e e s s s s   e e s s e   e e e e e e e e   q h.

triplet feel
204 bpm                102 bpm

play fig.3  4 times   |  play fill A 2 times ||

204 bpm
|------|---|---|---------|---|---|---------|---------|---------|---------|
|------|---|---|---------|---|---|---------|---------|---------|---------|
|---R--|-R-|-R-|-R---R---|-R-|-R-|-3---5-3-|---R---R-|---R---R-|---R---R-|
|-0----|---|---|---0---0-|---|---|---3-----|-0---0---|-0---0---|-0---0---|
  e h..  w   w   q q q q   w   w   q q q q   q q q q   q q q q   q q q q

|---------|---------|---------|---------||
|---------|---------|---------|---------||
|---R---R-|---R---R-|---R---R-|-3---5-3-||
|-0---0---|-0---0---|-0---0---|---3-----||
  q q q q   q q q q   q q q q   q q q q

D.S. Verse 3 al Coda

Coda                         Guitar solo II
|---||                      ||                     ||-----------------|
|-R-|| play fig.3  4 times  || play fig.3  8 times ||-----------------|
|---||                      ||                     ||-7-5-7-5-7-5-7-5-|
|---||                      ||                     ||-----------------|
  w                                                   e e e e e e e e

|-----------------|-----------------|-------------------|
|-----------------|-----------------|-----------7-5-----|
|-7-5-7-5-7-5---5-|-7-5-7-5-7-5-7-5-|-----5-7-5-----7-5-|
|-------------7---|-----------------|-6-7---------------|
  e e e e e e e e   e e e e e e e e   e e e e e e e e e
                                      [ 3 ]

|-----------------|-----------------|---------|-----||
|-----------------|-----------------|---------|-----||
|-7-5-7-5-7-5---5-|-7-5-7-5-7-5-----|-3---5-3-|---R-||
|-------------7---|-------------7-5-|---3-----|-0---||
  e e e e e e e e   e e e e e e e e   q q q q   q h.

Fade To Black
Time 4/4
beat 116	

Intro:
:----|----|----|-----------------|-----------------|----|----|
:----|----|----|-----------------|-----------------|----|----|
:----|----|----|-----------------|-----------------|----|----|
:----|----|----|---------------5-|-7---------------|----|----|

|----------------|-----------------|----------------|-----------------|
|----------------|-----------------|----------------|-----------------|
|----------------|-----------------|--------------5-|-----------------|
|--------------5-|-7---------------|----------------|-7---------------|

|-----------------|-----------------|----|----|
|-----------------|-----------------|----|----|
|-----------------|-----------------|----|----|
|---------------5-|-7---------------|----|----|

|-----------------|-----------------|----|----|----|
|-----------------|-----------------|----|----|----|
|-----------------|-----------------|----|----|----|
|---------------5-|-7---------------|----|----|----|

|--------------------------------|--------------------------------|
|--------------------------------|--------------------------------|
|--------------------------------|-2-----------2------------------|
|-1-----------1---4-----------4--|-----------------0--------------|

|--------------------------------|----|----|
|--------------------------------|----|----|
|-0------------------------------|----|----|
|--------------------------------|----|----|

|--------------------------------|
|--------------------------------|
|--------------------------------|
|-----------------3-----/----7---|

|--------------------------------|----|----|----|
|--------------------------------|----|----|----|
|-0------------------------------|----|----|----|
|--------------------------------|----|----|----|

(Drum Enter)
|--------------------------------|--------------------------------|
|--------------------------------|--------------------------------|
|-0-----------------------0---2--|-3-----------------------3---2--|
|--------------------------------|--------------------------------|

|--------------------------------|--------------------------------|
|--------------------------------|--------------------------------|
|-------------------------3---2--|-----------------2---/---7-----|
|-3------------------------------|-0------------------------------|

|--------------------------------|--------------------------------|
|--------------------------------|--------------------------------|
|-0-----------------------0---2--|-3---------------------------5--|
|--------------------------------|------------------------5/7-----|

|--------------------------------|--------------------------------:
|--------------------------------|--------------------------------:
|--------------------------------|-----------------7-------------:
|-3-----------------------5---3--|-0---------------------------0--:

Verse 1:
:--------------------------------|--------------------------------|
:--------------------------------|--------------------------------|
:-0-----------------------0---2--|-3-----------3---3-----2h3---2--|
:--------------------------------|--------------------------------|

|--------------------------------|--------------------------------|
|--------------------------------|--------------------------------|
|--------------------------------|---------------------5---7------|
|-3-----------------------5---3--|-0-------0---0-/-7--------------|

|--------------------------------|--------------------------------|
|--------------------------------|--------------------------------|
|-0-----------------------0---2--|-3---------------------------5--|
|--------------------------------|------------------------5/7-----|

|--------------------------------|--------------------------------|
|--------------------------------|--------------------------------|
|--------------------------------|--------------------------------|
|-3-----------------------5---3--|-0---------------3-----/----7---|

|--------------------------------|--------------------------------|
|--------------------------------|--------------------------------|
|-0-----------------------0---2--|-3-----------3---3-----2h3---2--|
|--------------------------------|--------------------------------|

|--------------------------------|--------------------------------|
|--------------------------------|--------------------------------|
|-------------------------3---2--|-----------------7-------7------|
|-3------------------------------|-0------------------------------|

|--------------------------------|--------------------------------|
|--------------------------------|-----------------------5h7p5----|
|-0-----------------------0---2--|-3-----------------/-7-------7--|
|--------------------------------|--------------------------------|

|--------------------------------|--------------------------------:
|-5-----------------------5h7-5--|--------------------------------:
|---------------------5h7--------|-7---7---7---7---7---7---7---7--:
|--------------------------------|--------------------------------:

Chorus:
|Fig.1
:--------------------------------|--------------------------------|
:*-------------------------------|--------------------------------|
:*----------------------------5--|-3-----------3---3-----------5--|
:-5-----------5---5---0-0-3------|---------------------0-0-3------|

|--------------------------------|--------------------------------|
|--------------------------------|--------------------------------|
|-------------------------5------|-7------------------------------|
|-5-----------5---5--------------|-------------0---0---0-0-8---7--|

|--------------------------------|--------------------------------|
|--------------------------------|--------------------------------|
|-----------------------------5--|-3-----------3---3-----------5--|
|-5-----------5---5---0-0-3------|---------------------0-0-3------|

                                                         end Fig.1|
|--------------------------------|--------------------------------:
|--------------------------------|-------------------------------*:
|--------------------------------|-------------------------------*:
|-5-----------5---5-------3---2--|-0------------------------------:

Interlude:
:--------------------------------|--------------------------------|
:--------------------------------|--------------------------------|
:-0-----------------------0---2--|-3---------------------------5--|
:--------------------------------|------------------------5/7-----|

|--------------------------------|--------------------------------|
|--------------------------------|--------------------------------|
|--------------------------------|-----------------------/-7-----|
|-3-----------------------5---3--|-0------------------------------|

|--------------------------------|--------------------------------|
|--------------------------------|--------------------------------|
|-0-----------------------0---2--|-3-------3-------3--------0-3-5-|
|--------------------------------|--------------------------------|

|--------------------------------|--------------------------------:
|--------------------------------|--------------------------------:
|--------------------------------|--------------------------------:
|-3-------3-------3-------5---3--|-0---------------------/-7------:

Verse 2:
:--------------------------------|--------------------------------|
:--------------------------------|--------------------------------|
:-0-----------0---0-------0-3h5--|-3-----------3---3-------5------|
:--------------------------------|-----------------------------7--|

|--------------------------------|--------------------------------|
|--------------------------------|--------------------------------|
|--------------------------------|-------------------------2---/--|
|-3---------------5-----------3--|-0-----------0---0--------------|

|--------------------------------|--------------------------------|
|--------------------------------|--------------------------------|
|-0-----------------------0---2--|-3-----------------------3---5--|
|--------------------------------|--------------------------------|

|--------------------------------|--------------------------------|
|--------------------------------|--------------------------------|
|--------------------------------|--------------------------------|
|-3-------3-----------3---5---3--|-0---------------0-------5/7----|

|--------------------------------|--------------------------------|
|--------------------------------|--------------------------------|
|-0---------------0-------0---2--|-3-----------3---3-----2h3---2--|
|--------------------------------|--------------------------------|

|--------------------------------|--------------------------------|
|--------------------------------|--------------------------------|
|--------------------------------|---------7-------7--------------|
|-3-----------3---3-------5---3--|-0-----------0-----------5/7----|

|--------------------------------|--------------------------------|
|--------------------------------|------------------------5h7p5---|
|-0---------------0-------0---2--|-3-----------3---3---5h7-----7--|
|--------------------------------|--------------------------------|

|--------------------------------|--------------------------------:
|-5----------------------5h7p5---|--------------------------------:
|--------------------------------|-7---7---7---7---7---7---7---7--:
|--------------------------------|--------------------------------:

Chorus:

Repeat Fig.1 (x2) then

|--------------------------------|--------------------------------|
|--------------------------------|--------------------------------|
|--------------------------------|--------------------------------|
|(0)-----------------------------|(0)-----------------------------|

|--------------------------------|--------------------------------|
|--------------------------------|--------------------------------|
|--------------------------------|--------------------------------|
|(0)-----------------------------|-0------------------------------|

|--------------------------------|--------------------------------|
|--------------------------------|-----------------------------9-9|
|--------------------------------|--------------------------------|
|(0)-----------------------------|(0)-----------------------------|

|--------------------------------:
|-9---7-7-7---5-5-5---4-4-4---5--:
|--------------------------------:
|--------------------------------:

Bridge:
|Fig. 2
:--------------------------------|--------------------------------|
:--------------------------------|-----------------5---4/12-------|
:-5---7-----------7--------------|-5---7--------------------------|
:---------0---0-----------0---0--|---------0---0------------------|

|--------------------------------|-----------------------------4--|
|-----------------------------9-9|-9---7-7-7---5-5-5---4-4-4------|
|-----5-------5---5--------------|--------------------------------|
|--------------------------------|--------------------------------|

|--------------------------------|--------------------------------|
|--------------------------------|-----------------5---4/12-------|
|-5---7-----------7--------------|-5---7--------------------------|
|---------0---0-----------0---0--|---------0---0------------------|
   
                                                         end Fig.2| 
|--------------------------------|--------------------------------|
|-----------------------------9-9|-9---7-7-7---5-5-5---4-4-4---5--|
|-----5-------5---5--------------|--------------------------------|
|--------------------------------|--------------------------------|

Repeat Fig.2 x 2

|--------------------------------|--------------------------------|
|--------------------------------|--------------------------------|
|-----------------7--------------|--------------------------------|
|-0---0---0---0------------------|-0---0---0---0---3---2----------|

|--------------------------------|-----------------------------4--|
|-----------------------------9-9|-9---7-7-7---5-5-5---4-4-4------|
|-----------------5--------------|--------------------------------|
|-0---0---0---0------------------|--------------------------------|

|--------------------------------|--------------------------------|
|--------------------------------|--------------------------------|
|-----------------7--------------|--------------------------------|
|-0---0---0---0------------------|-0---0---0---0---3---2----------|

|--------------------------------|--------------------------------|
|-----------------------------9-9|-9---7-7-7---5-5-5---4-4-4---5--|
|-----------------5--------------|--------------------------------|
|-0---0---0---0------------------|--------------------------------|

|--------------------------------|--------------------------------|
|*-------------------------------|--------------------------------|
|*2-----------2-----------2------|(2)--2-----------4---2---0------|
|--------------------------------|-----------------------------2--|

|--------------------------------|--------------------------------|
|--------------------------------|--------------------------------|
|-0-----------0-----------0------|(0)--0-----------0---0---0---0--|
|--------------------------------|--------------------------------|

|--------------------------------|--------------------------------|
|--------------------------------|--------------------------------|
|--------------------------------|--------------------------------|
|-3-----------3-----------3---3--|(3)--3---3---3---3---3---3---3--|

|--------------------------------|--------------------------------|
|--------------------------------|-------------------------2---2-*|
|-0-----------0-----------0------|-0---0-----------0---0---------*|
|--------------------------------|--------------------------------|

|--------------------------------|--------------------------------|
|*-------------------------------|--------------------------------|
|*2-------2---2-------2---2------|-2---2-------2---4---2---0------|
|--------------------------------|-----------------------------2--|

|--------------------------------|--------------------------------|
|--------------------------------|--------------------------------|
|-0---0---0---0-----------0---0--|-0---0-------0---0---0---0---0--|
|--------------------------------|--------------------------------|

|--------------------------------|--------------------------------|
|--------------------------------|--------------------------------|
|--------------------------------|--------------------------------|
|-3---3---3---3-----------3---3--|-3---3-----------3---3---3---3--|

|--------------------------------|--------------------------------|
|--------------------------------|-------------------------2---2-*|
|-0-----------0-----------0---0--|-0---0-----------0---0---------*|
|--------------------------------|--------------------------------|

-----------------------------------------------------------------------

Seek & Destroy
140 bpm
        cresc.
|  6  |-----------------|-----------------||---------------------|
|-----|-----------------|---------7-7-7---||-o-----5h7-----5h7---|
|-----|-0-0-0-0-0-0-0-0-|-0-0-0-0-------0-||-o-0-0-----0-0-----0-|
|     |-----------------|-----------------||---------------------|
        e e e e e e e e   e e e e e e e e      e e   q e e   e e

                 4 times
|---------------5-----||---------|-------|  3  |-----------|-------------|
|-----------5-----7-o-||---------|-------|-----|-----------|-------------|
|-(0)-0-8-7---7-----o-||---R-----|----R--|-----|-R-----R---|-R-----R-----|
|---------------------||-0---12\-|-\0----|     |---0-0---0-|---0-0---0-0-|
  (e) e e e e e e e      q h q      q h.         q e e q q   q e e q e e

|-----------------|-----------------||-------------------|
|-----------------|-----------------||-o-----------------|
|---------7-7-7-7-|---------7-5-----||-o-----------------|
|-0-0-0-0---------|-0-0-0-0-----7-6-||---0-0-0-0-3-5-3-5-|
  e e e e e e e e   e e e e e e e e      e e e e e e e e

              4 times fig.1
|-------------------||-----------------|-----------------|-----------------|
|-----------------o-||-----------------|-------------5---|-----------------|
|---------7-5-----o-||-----------------|---------------7-|-----------------|
|-0-0-0-0-----7-6---||-0-0-0-0-0-0-0-0-|-0-0-0-0-7-6-----|-0-0-0-0-0-0-0-0-|
  e e e e e e e e      e e e e e e e e   e e e e e e e e   e e e e e e e e

|-----------------|-----------------|-----------------|-----------------|
|-----------------|-----------------|-------------5---|-----------------|
|-----------------|-----7-----------|---------------7-|-----7-------7---|
|-0-0-0-0-7-6-3-0-|-0-0---0-0-0-0-0-|-0-0-0-0-7-6-----|-0-0---0-0-0---0-|
  e e e e e e e e   e e e e e e e e   e e e e e e e e   e e e e e e e e

                   S
          end fig.1  Verse 1,2,3  Pre-chorus
|-----------------||            ||-----------------|----------------|
|-----------------|| play fig.1 ||-o---------------|----------5---7-|
|-----7-----------||            ||-o-3-0-0-0-3-5-3-|-3-0-0-/7---7---|
|-0-0---0-7-6-3-0-||            ||-----------------|----------------|
  e e e e e e e e                    e e e e e e q   e e e  e e e q

                |1.                  |2.
|---------------|-7-5---------------||-9-7---7---------|-----------------|
|---------------|-----7-6-5-------o-||-----9---9-8-7-5-|-----------------|
|-0-0-0-0-3-5-3-|-----------7-6-5-o-||-----------------|-7-5---5---------|
|---------------|-------------------||-----------------|-----7---7-6-5-3-|
  e e e e e e q   e e e e e e e e      e e e e e e e e   e e e e e e e e

Chorus                                           |1.
||-------------------|---------|-----------------|---------------------||
||-o---------------5-|---------|-----------------|-------------------o-||
||-o-----------------|---------|-----------------|-------5---7---7---o-||
||---3-3-3-3-3-3-3---|-2-2-1-1-|-0-0-0-0-0-0-0-0-|-0-5-7---0---0---0---||
     e e e e e s s q   q q q q   e e e e e e e e   e s s e e e e e e

|2. 3rd time fill 1  |3.        to coda I,II|4.
|-------------------||---------------------||-----------------|
|-----------------o-||-------------------o-||-----------------|
|-7-5-------------o-||-------5---7---7---o-||-----------------|
|-----7-6-5-7-6-5---||-0-5-7---0---0---0---||-0-0-0-0-3-5-3-5-|
  e e e e e e e e      e s s e e e e e e      e e e e e e e e
      fill 1
   |-----------------|
   |-----------------|
   |-7-5-------------|
   |-----7-5-6-5-7-5-|
     e e e e e e e e

|-----------------|-----------------|-----------------|-----------------|
|-----------------|-----------------|-----------------|-----------------|
|---------7-5-----|-----------------|-----------5-6-7-|-----------------|
|-0-0-0-0-----7-6-|-0-0-0-0-3-5-3-5-|-0-3-5-6-7-------|-0-0-0-0-3-5-3-5-|
  e e e e e e e e   e e e e e e e e   e e e e e e e e   e e e e e e e e

                                                D.S al coda I
|-----------------|-----------------|-----------------||
|-----------------|-----------------|-----------------||
|---------7-5-----|-----------------|---------7-5-----||
|-0-0-0-0-----7-6-|-0-0-0-0-3-5-3-5-|-0-0-0-0-----7-6-||
  e e e e e e e e   e e e e e e e e   e e e e e e e e

Coda I                          208 bpm        (guitar)
|-----------------|---------|---||------|  3  ||  7  |-----------------||
|---------------5-|---------|---||------|-----||-----|-------3-2-0-----||
|-----------------|---------|---||---R--|-----||-----|-3-2-0-------3-0-||
|-3-3-3-3-3-3-3---|-2-2-1-1-|-0-||-0----|     ||     |-----------------||
  e e e e e s s q   q q q q   w    q h.                e e e e e e e e

                                                             2 times
||-------------------|-----------------|-----|-------------------||
||-o-------7-----7---|-------7-----7---|  %  |-------3-2-0-----o-||
||-o-----0---0-0---0-|-0-0-0---0-0---0-|-----|-3-2-0-------3-0-o-||
||---3h5-------------|-----------------|-----|-------------------||
     e e e e e e e e   e e e e e e e e         e e e e e e e e

Guitar solo                                                 3 times
||-------------|---------|-----------------|-------------------||
||-o-----------|---------|-----------------|-----------------o-||
||-o-----------|---------|-----7-7-----7-7-|-----7-7-----7-7-o-||
||---3-3-3-3-3-|-2-2-1-1-|-0-0-----0-0-----|-0-0-----0-0-------||
     q q e e q   q q q q   e e e e e e e e   e e e e e e e e

|-----------|---------||-------------------|-----------------|
|-----------|---------||-o-----------------|-----------------|
|-----------|---------||-o-5h7---7-----7---|-5h7---7-----7---|
|-3-3-3-3-3-|-2-2-1-1-||-------0---0-0---0-|-----0---0-0---0-|
  q q e e q   q q q q      e e e e e e e e   e e e e e e e e

                  |1,2,3.              |4.
|-----------------|-------------------||-----------------|-----------------|
|-----------------|-----------------o-||-----------------|-----------------|
|-4h7---7-----7---|-------3-2-0-----o-||-------3-2-0-----|-------3-2-0-----|
|-----0---0-0---0-|-3-2-0-------3-0---||-3-2-0-------3-2-|-3-2-0-------3-2-|
  e e e e e e e e   e e e e e e e e      e e e e e e e e   e e e e e e e e

      Tempo I
|----||------|--------|------|--------|------|---|-----------------|
|----||---R--|-R------|---R--|-R------|---R--|-R-|-----------------|
|-0--||-0----|----0-0-|-0----|----0-0-|-0----|---|-0-0-0-0-0-0-0-0-|
|----||------|--------|------|--------|------|---|-----------------|
  l     q h.   h. e e   q h.   h. e e   q h.   w   e e e e e e e e

                                                           4 times
|-----------------||---------------------|---------------5-----||
|-----7---7-7-----||-o-----5h7-----5h7---|-----------5-----7-o-||
|-0-0---0-----0-0-||-o-0-0-----0-0-----0-|-(0)-0-8-7---7-----o-||
|-----------------||---------------------|---------------------||
  e e e e e e e e      e e   q e e   e e   (e) e e e e e e e

|---------|-----------------|-----------------|-----------------|
|---------|-----------------|-----------------|-----------------|
|---R-----|-----------------|---------7-5-----|-----------------|
|-0---12\-|-0-0-0-0-3-5-3-5-|-0-0-0-0-----7-6-|-0-0-0-0-3-5-3-5-|
  q h q     e e e e e e e e   e e e e e e e e   e e e e e e e e

|-----------------|-----------------|-----------------|-----------------|
|-----------------|-----------------|-----------------|-----------------|
|-----------5-6-7-|-----------------|---------7-5-----|-----------------|
|-0-3-5-6-7-------|-0-0-0-0-3-5-3-5-|-0-0-0-0-----7-6-|-0-0-0-0-3-5-3-5-|
  e e e e e e e e   e e e e e e e e   e e e e e e e e   e e e e e e e e

                D.S al coda II
|-------------------||
|-------------------||
|-------5---7-5-----||
|-0-5h7---7-----7-6-||
  e s s e e e e e e

Coda II
|-----------------|---------|-----------------|------------------|
|---------------5-|---------|-----------------|------------------|
|-----------------|---------|-----------------|---------------10-|
|-3-3-3-3-3-3-3---|-2-2-1-1-|-0-0-0-0-0-0-0-0-|-0-0-0-0-0-0-0----|
  e e e e e s s q   q q q q   e e e e e e e e   e e e e e e e e

|-----------------|------------------|-----------------|------------------|
|-----------------|------------------|-----------------|------------------|
|-9-----9-8-----8-|-7-------------10-|-9-----9-5-----5-|-7---5---7-7-7-10-|
|---0-0-----0-0---|---0-0-0-0-0-0----|---0-0-----0-0---|---0---0----------|
  e e e e e e e e   e e e e e e e e    e e e e e e e e   e e e e e e e e

|-----------------|------------------|-----------------|----------------|
|-----------------|------------------|-----------------|----------------|
|-9-----9-8-----8-|-7-------------10-|-9-----9-5-----5-|-7---5---7-7-7\-|
|---0-0-----0-0---|---0-0-0-0-0-0----|---0-0-----0-0---|---0---0--------|
  e e e e e e e e   e e e e e e e e    e e e e e e e e   e e e e e e q

                     |1-7.                |8. 5/4               4/4
||-------------------|-------------------||---------------------|------|
||-o-----------------|-----------------o-||---------------------|------|
||-o-----------------|-----------------o-||---------------------|---R--|
||---0-0-0-0-0-3-0-0-|-2-0-0-3-0-0-5-3---||-2-0-0-3-0-0-5-3-0-0-|-0----|
     e e e e e e e e   e e e e e e e e      e e e e e e e e e e   q h.

|------|------|-------------||
|------|------|-----------R-||
|---R--|---R--|---------7---||
|-0----|-0----|-0-0-0-0-----||
  q h.   q h.   e e e e q q

Welcome Home (Sanitarium)
Intro 4/4                                2/4         4/4
    |-----------------|---------------------|-----------|----------------------|
    |-------7---------|------------7-----75|(5)----57--|----------------------|
    |-----PAUSE-------|---------------------|-----------|7---------------------|
    |-----------------|---------------------|-----------|----------------------|
                                                    H
                           2/4            4/4                                    2/4
|-------------------------|-------------||-------------------|------------------|------------||
|---------------7------7/9|(9)-----57---||:------------------|------------------|-----------:||
|(7)----------------------|----7--------||----------3------3-|5------5----------|------------||
|-------------------------|-------------||-0------0----------|---------5------3-|(3)-3--°5---||
                                   H                                                 °2 (2nd,4th
                                                                                          times)
  4/4                                 2/4
||------------------|----------------|----------||
||------------------|----------------|----------||
||---------3-----23-|5-3-2-----------|----------||
||0------0----------|------3-5------3|(3)-3-2-2-||

1st, 2nd Verses
4/4                                    2/4
|----------------|----------------|-----------|-----------------|-----------------|-----------|
|----------------|----------------|-----------|-----------------|-----------------|-----------|
|--------3-----3-|5-----5---------|-----------|--------3------3-|5------5---------|-----------|
|0-----0---------|--------5---5-3-|(3)--3--5--|0-----0----------|---------5---5-3-|(3)-3-2-2--|

4/4                                2/4         4/4                                 2/4
|----------------|----------------|-----------|-----------------|-----------------|-----------|
|----------------|----------------|-----------|-----------------|-----------------|-----------|
|--------3-----23|5-3-2-----------|-----------|--------3------23|-5-3-2-----------|-----------|
|0-----0---------|------3---5----3|(3)-3-2-2--|0-----0----------|-------3-5-5-5-3-|(3)-3-2-2--|

4/4                                2/4      4/4                               2/4
|----------------|----------------|--------|----------------|----------------|--------||
|----------------|----------------|--------|----------------|----------------|--------||
|----2-2-----3-3-|----5-5---------|--------|----2-2-----3-3-|----5-5---------|--------||
|0-0-----0-0-----|0-0-----5-5-5-3-|3-3-5-2-|0-0-----0-0-----|0-0-----5-5-5-3-|3-3-5-2-||

Chorus
4/4
|-------------------|----------------|-------------------|------------------|
|-------------------|-------020------|-------------------|------------------|
|-----------32--32|(2)-------32----|-----------32--32|(2)-22222232------|
|0---XX32XX---XX---|------------5323|0---XX32XX---XX---|-------------3-X-1|
                            HP
                                                                            Second time to Coda
|-------------------|----------------|-------------------|------------------||
|-------------------|-------020------|-------------------|------------------||
|-----------32--32|(2)-------32----|-----------32--3--|2-----------------||
|0---XX32XX---XX---|------------5323|0---XX32XX---XX---|------------------||
                            HP
                                     2/4           3 times
||-----------------|----------------|-------------||
||:----------------|----------------|------------:||
||---------3-----3-|5-----5---------|-------------||
||-0-----0---------|--------5-----3-|(3)--3--°5---||
                                             °2 (2nd time)

4/4                                   2/2       D.S. al Coda
|------------------|-----------------|----------||
|------------------|-----------------|----------||
|---------3------3-|5------5---------|----------||
|0------0----------|---------5-5-5-5-|(3)-3-2-2-||

Coda
2/4               4/4                              2/4
|----------------|------------------|-------------|----------------|
|-------020------|------------------|-------------|-------020------|
|----------32----|-----------32--3-|2------------|----------32----|
|------------5323|0---XX32XX---XX--|-------------|------------5323|
        HP                                                HP

Double time
4/4
|-------------|-------------|-------------|-------------|----------------|----------------|
|-------------|-------------|-------------|-------------|----------------|----------------|
|-------------|-------------|-------------|-------------|----------------|----------------|
|0------------|(0)----------|(0)----------|(0)----------|0-0-0-0-0-0-0-0-|0-0-0-0-0-0-0-0-|

|-------------|-------------|----------------|----------------|----------------|----------------|
|----%--------|------%------|----------------|----------------|----------------|----------------|
|-------------|-------------|----------------|----------------|----------------|----------------|
|-------------|-------------|5-7---5-7-0-0-0-|0-0-0-0-0-0-0-0-|5-6---5-6---5-6-|--5-7-0-0-0-0-0-|
                              H     H                           H     H     H      H

                                                                       X3
||-----------------|----------------|----------------|-----------------||
||:----------------|----------------|----------------|----------------:||
||-----------------|----------------|----------------|-----------------||
||-5-6---5-6-0-0-0-|0-0-0-0-0-0-0-0-|5-6---5-6---5-6-|--5-7-0-0-0-0-0--||
    H     H                           H     H     H      H

|------------|-----------|------------|--------------|
|------------|-----------|------------|--------------|
|02----------|02-55------|02----------|02-33-32-22---|
|---00-------|-----------|---11-------|--------------|

|------------|-----------|------------|--------------|-----------------|
|------------|-----------|------------|--------------|-----------------|
|02----------|02-55------|02----------|02-33-32-22---|-----------------|
|---00-------|-----------|---11-------|--------------|000000000000(12)|

Double time
Guitar Solo
||---------------------------------------------------------------------||
||:-------------------------------------------------------------------:||
||---------------------------------------------------------------------||
||-5-6---5-6-0-0-0-|0-0-0-0-0-0-0-0-|5-6---5-6---5-6-|--5-7-0-0-0-0-0--||

Nornal  time                                                                   X6
|------------|------------||------------|-----------|-----------|---------------||
|------------|------------||:-----------|-----------|-----------|--------------:||
|02----------|02-55---5---||-02---------|02-55------|02---------|02-33---32-22--||
|---00-------|------------||----00------|-----------|---11------|---------------||

|-----------|-----------|-----------|--------------|
|-----------|-----------|-----------|--------------|
|02---------|02-55------|02---------|02-33---32-22-|
|---00------|-----------|---11------|--------------|

|----------------|----------------|----------------|----------------|------------------|
|----------------|----------------|----------------|----------------|------------------|
|02--------------|02-55---5-5-5-5-|02--------------|02-33---2-2-2-2-|2-2-2-2--2-2-2-2--|
|---00---0-0-0-0-|----------------|---11---1-1-1-1-|----------------|------------------|

|----------------|----------------|----------------|----------------||
|----------------|----------------|----------------|----------------||
|2---0-----------|----------------|----------------|----------------||
|--------3---2---|0---------------|(0)-------------|7--------------||

For Whom The Bell Tolls
beat 120

Intro:
4/4                              
:--------------------------------|--------------------------------|
:--------------------------------|--------------------------------|
:--------------------------------|--------------------------------|
:--------------------------------|-----------------2-2-----2-2----|

There are two basses, the first plays the higher note and starting E.
The second plays ending F#.

With distortion and wah wah
|--------19-18-17-16-------19p16-|--------19----------------------|
|*-------------------------------|17--16-------------------------*|x 8
|*-------------------------------|------------17--16--------(16)*|
|-0------------------------------|(0)--------------2--2----2--2---|

Normal Bass
|--------------------------------|--------------------------------|
|*-------------------------------|--------------------------------|
|*-------------------------------|-----------------------------0--|
|-0---3---2---1---0---3---2---1--|-0---3---2---1---0---2---3------|

|--------------------------------|--------------------------------|
|--------------------------------|-------------------------------*|x 4
|--------------------------------|-----------------------------2-*|
|-0---3---2---1---0---3---2---1--|-0---3---2---1---0---2---3------|

|--------------------------------|--------------------------------|
|--------------------------------|--------------------------------|
|--------------------------------|--------------------------------|
|-0------------------------------|(0)-----------------------------|

|Fig.1
|--------------------------------|--------------------------------|
|*----------tripl-----------tripl|-----------tripl-----------tripl|
|*>------------------------------|--------------------------------|
|-0---------0-0-0-0---------0-0-0|-0---------0-0-0-0---------0-0-0|

|--------------------------------|--------------------------------|
|-----------tripl-----------tripl|--------------------------------|
|->------------------------------|->------------------------------|
|-3---------3-3-3-3---------3-3-3|-3-------------------------12--|

|--------------------------------|--------------------------------|
|-----------tripl-----------tripl|-----------tripl-----------tripl|
|->------------------------------|--------------------------------|
|-0---------0-0-0-0---------0-0-0|-0---------0-0-0-0---------0-0-0|

                                  1.                           (1)
|--------------------------------|-tripl-----------tripl----------|
|-----------tripl-----------tripl|------->--------------->-------*|
|->------------------------------|-3-3-3-3---------0-0-0-0-------*|
|-3---------3-3-3-3---------3-3-3|--------------------------------|

                                  2.                  (2) end Fig.1
                                 |---tripl-----------tripl--------|
                                 |->------------------------------|
                                 |-3-3-3-3---------0-0-0-12------|
                                 |--------------------------------|

|Fig.2
|--------------------------------|--------------------------------|
|*tripl-----------tripl----------|-tripl--------------------------|
|*------>--------------->--------|------->--------->------->------|
|-0-0-0-3---------0-0-0-5--------|-0-0-0-3-------0-6-------2------|

                                                         end Fig.2|
|--------------------------------|--------------------------------|
|-tripl-----------tripl----------|-tripl--tripl------------------*|
|------->--------------->--------|-------->-------->------>----->*|
|-0-0-0-3---------0-0-0-5--------|-0-0-0--3-0-0----6------2-----1-|

Verse 1, 2:

   Repeat Fig.1

End Verse

Chorus:

   Repeat Fig.2 x 2  (To Coda at the end of second chorus)

End Chorus

Interlude (between first chorus and second verse):
:--------------------------------|--------------------------------|
:*----------tripl-----------tripl|-----------tripl-----------tripl|
:*>------------------------------|--------------------------------|
:-0---------0-0-0-0---------0-0-0|-0---------0-0-0-0---------0-0-0|

|--------------------------------|--------------------------------|
|-----------tripl----------------|-----------tripl-----------tripl|
|->------------------------------|->------------------------------|
|-0---------0-0-0-0---------/12-|-3---------3-3-3-3---------3-3-3|

                                  1.                           (1)
|--------------------------------|-----------tripl----------------|
|-----------tripl-----------tripl|->-----------------------------*|
|->------------------------------|-2---------2-2-2-2---------/14*|
|-0---------0-0-0-0---------0-0-0|--------------------------------|

                                  2.                           (2)
                                 |-----------tripl----------------:
                                 |->------------------------------:
                                 |-2---------2-2-2-2-----------2-:
                                 |--------------------------------:

Coda:
|--------------------------------|--------------------------------|
|*-------------------------------|--------------------------------|
|*-------------------------------|--------------------------------|
|-0---------------2---2----------|-0---------------2---2----------|

2/4
|--------------------------------:
|-------------------------------*:
|-------------------------------*:
|-3---3--------------------------: End (fade out)

No Remorse
188 bpm                                                             2 times
||-------------------|---------------|-----------------|-----------------||
||-o-----------------|---------------|-----------------|---------------o-||
||-o-----R-------R---|-----R---------|-----R-------R---|-----R---------o-||
||---0h2---2-2p0---0-|-0h2---2-2p0-5-|-0h2---2-2p0---0-|-0h2---2-2p0-7---||
     e e e e e e e e   e e e e e e q   e e e e e e e e   e e e e e e q

Guitar solo I                                                       6 times
||-------------------|---------------|-----------------|-----------------||
||-o-----------------|---------------|-----------------|---------------o-||
||-o-----R-----------|-----R---------|-----R-----------|-----R---------o-||
||---0h2---2-2-0-0-0-|-0h2---2-2-0-5-|-0h2---2-2-0-0-0-|-0h2---2-2-0-7---||
     e e e e e e e e   e e e e e e q   e e e e e e e e   e e e e e e q

                                                       |1.
||-------------------|---------------|-----------------|-----------------||
||-o-----------------|---------------|-----------------|---------------o-||
||-o-----R-------R---|-----R---------|-----R-------R---|-----R---------o-||
||---0h2---2-2p0---0-|-0h2---2-2p0-5-|-0h2---2-2p0---0-|-0h2---2-2p0-7---||
     e e e e e e e e   e e e e e e q   e e e e e e e e   e e e e e e q

|2.                S1
|----------------||-------|------|---|---------|---|------|---|---------||
|----------------||-------|-R----|-R-|-R-------|-R-|-R----|-R-|-R-------||
|-----R----------||---R---|----3-|---|---------|---|----3-|---|---------||
|-0h2---2-2p0-7/-||-0-----|------|---|---5-6-7-|---|------|---|---5-6-7-||
  e e e e e e q     e h..   h. q   w   h e e q   w   h. q   w   h e e q

S2
  fig.1                                                     end fig.1  2 times
||-------------------|---------------|-----------------|-----------------||
||-o-----------------|---------------|-----------------|---------------o-||
||-o-----5h7-----5h7-|-----5h7-----3-|-----5h7-----5h7-|-----5h7-------o-||
||---0-0-----0-0-----|-0-0-----0-0---|-0-0-----0-0-----|-0-0-----5-6-7---||
     e e e e e e e e   e e e e e e q   e e e e e e e e   e e e e e e q

Verse 1,2,3
                     ||---|-------------|-----------------|-----------|
play fig.1  2 times  ||-R-|-------------|-----------------|-----------|
                     ||---|-------------|-----7-5---------|-----------|
                     ||---|-3b1/4-0-3-0-|-3-0-----7-3b1/4-|-(3)-0-3-0-|
                            q     q q q   q q e e e e       (q) q q q

|-----------------|-----------|-----------------|-----------|-----------||
|-----------------|-----------|-----------------|-----------|-----------||
|-----7-5---------|-----------|-----7-5---------|-----------|---------5-||
|-3-0-----7-3b1/4-|-(3)-0-3-0-|-3-0-----7-3b1/4-|-(3)-0-3-0-|-3-0-5-7---||
  q q e e e e       (q) q q q   q q e e e e       (q) q q q   q q e e q

Chorus
||-------------------|-----------------|-----------------|-----------------|
||-o-----------------|-----------------|-----------------|-----------------|
||-o-----------------|-----------------|-----------------|-----------------|
||---0-0-7-0-0-5-0-0-|-3-0-0-2-0-0-2-3-|-0-0-7-0-0-5-0-0-|-3-0-0-2-0-0-2-3-|

                                                                   2 times
                                                                  to coda I
                                                                  to coda II
|-----------------|-----------------|-----------------|-----------------||
|-----------------|-----------------|-----------------|---------------o-||
|-----------------|-----------------|-----7-----------|-3-----2-------o-||
|-0-0-7-0-0-5-0-0-|-3-0-0-2-0-0-2-3-|-0-0---0-0-5-0-0-|---0-0---0-3-2---||

D.S1 al coda I


Coda I                              triplet feel
|---------|---------|---|----------||------|  5  |-9-9-9-9-9-9-9-9-9-9-|
|---------|---------|-9-|-(9)------||----R-|-----|---------------------|
|---------|-----7-7-|-7-|-(7)-72/-||-/7---|-----|---------------------|
|-0-0-0-0-|-0-0-0-0-|-0-|-(0)------||--0---|     |---------------------|
  e e e e   e e e e   w   (h) q q      q h.        e e e e e e e e e e
                                                       [ 3 ]     [ 3 ]

                   3rd time start of Guitar solo II
|------------------||-------------------|-----------------|
|------------------||-o-----------------|-----------------|
|-7-7-7-7-7-7-7-7-||-o---------------7-|---------------5-|
|------------------||---0-0-2-3-2-0-0---|-0-0-2-3-2-0-0---|
  e e e e e e e q       e e e e e e e q   e e e e e e e q
      [ 3 ]                 [ 3 ]             [ 3 ]

                                 6 times
|-----------------|-------------------||-----------------|-----------------|
|-----------------|-----------------o-||-----------------|-----------------|
|---------------3-|---------------5-o-||---------------7-|---------------9-|
|-0-0-2-3-2-0-0---|-0-0-2-3-2-0-0-----||-0-0-2-3-2-0-0---|-0-0-2-3-2-0-0---|
  e e e e e e e q   e e e e e e e q      e e e e e e e q   e e e e e e e q
      [ 3 ]             [ 3 ]                [ 3 ]             [ 3 ]


|------------------|-----------------|-----------------|-----------------|
|------------------|-----------------|-----------------|-----------------|
|---------------10-|---------------9-|---------------7-|---------------5-|
|-0-0-2-3-2-0-0----|-0-0-2-3-2-0-0---|-0-0-2-3-2-0-0---|-0-0-2-3-2-0-0---|
  e e e e e e e q    e e e e e e e q   e e e e e e e q   e e e e e e e q
      [ 3 ]              [ 3 ]             [ 3 ]             [ 3 ]

                                    152 bpm, straight eight feel
|-----------------|-----------------||-7-5-4-5-4---4-----------|---|---|
|-----------------|-----------------||-----------7---7-5-4-5-7-| % | % |
|---------------3-|---------------5-||-------------------------|---|---|
|-0-0-2-3-2-0-0---|-0-0-2-3-2-0-0---||-------------------------|---|---|
  e e e e e e e q   e e e e e e e q    e s s e s s e s s e s s
      [ 3 ]             [ 3 ]

       Tempo I  D. S2 al coda II
|------||
|------||
|-5----||
|----5-||
  h. q

Coda II fig.2
|  4  ||---------------------------------|-------------------------------|
|-----||-o---------------7-7-7-7-7-7-7-7-|---------------7-7-7-7-7-7-7-7-|
|-----||-o-0-0-0-0-0-0-0-----------------|-5-0-0-0-0-0-0-----------------|
|     ||---------------------------------|-------------------------------|
           e s s s s s s s s s s s s s s   e s s s s s s s s s s s s s s

                                              end fig.2  4 times
|-------------------------------|-------------------------||
|---------------7-7-7-7-7-7-7-7-|-----------------------o-||
|-2-0-0-0-0-0-0-----------------|-3-0-0-0-0-0-0-2--3--2-o-||
|-------------------------------|-------------------------||
  e s s s s s s s s s s s s s s   e s s s s s s e. e. e

Bridge   fig.3                                    end fig.3  2 times
||---------------|-------------|-------------|---------------||
||-o-------------|-------------|-------------|-------------o-||
||-o-0-0-0-3-0-0-|-0-0-0-5-3-0-|-0-0-0-3-0-0-|-0-0-0-2-3-2-o-||
||---------------|-------------|-------------|---------------||
     e q e e q e   e q e e q e   e q e e q e   e q e e q e

play fig.2  2 times, play fig.3  2 times, play fig.2  2 times

     Free time
|-----|--------|--------|-------------------------------------|
|-----|--------|-----14-|-12-12-10-10-9-9-7-7-9-9-7-7-5-5-4-4-|
|-3-2-|-----7--|-14-----|-------------------------------------|
|-----|-0------|--------|-------------------------------------|
  h h   h   h    h   h    s  s  s  s  s s s s s s s s s s s s
        /   /    /   /
        /   /    /   /

|---------------------------------|---------------||
|-7-7-5-5-4-4-2-2-5-5-4-4-0-0-2-2-|-2-------------||
|---------------------------------|---------------||
|---------------------------------|-----0-0-0-0-0-||
  s s s s s s s s s s s s s s s s   q   e e e e l
                                    /
                                    /

144 bpm
2/4         4/4 2/4         4/4
|-----------|---|-----------|-----||
|-----------|---|-----------|-----||
|-----------|-5-|-----------|---R-||
|-0-0-2-3-2-|---|-0-0-2-3-2-|-0---||
  q e e e e   w   q e e e e   q h.
  [3] [ 3 ]       [3] [ 3 ]

Metal Militia
168 bpm

|---||  3  |---------|------|---|---|---------||
|---||-----|---------|------|---|---|---------||
|-R-||-----|-R-------|---R--|-R-|-R-|-R-------||
|---||     |---6-5-3-|-0----|---|---|---6-5-3-||
  l          h q q q   q h.   w   w   h q q q
               [ 3 ]                    [ 3 ]

||------------------------------|----------------------------|
||-o----------------------------|----------------------------|
||-o----------------------------|----------------------------|
||---0-0-0-0-0-0-0-0-0-0-0-3--5-|-0-0-0-0-0-0-0-0-0-0-0-6--5-|
     s s s s s s s s s s s e. e   s s s s s s s s s s s e. e

                             |1,2,3.                    |4. 2/4
|----------------------------|-------------------------||-----------------|
|----------------------------|-----------------------o-||-----------------|
|----------------------------|-----------------------o-||-7-7-7-7-7-7-7-7-|
|-0-0-0-0-0-0-0-0-0-0-0-3--5-|-0-0-0-0-0-0-0-0-6-5-3---||-----------------|
  s s s s s s s s s s s e. e   s s s s s s s s q q q      s s s s s s s s
                                               [ 3 ]
4/4
|-------------|---||  4  |------|-----|-----|---------------||
|-------------|---||-----|---R--|  %  |  %  |---------------||
|-------------|-0-||-----|-0----|-----|-----|-6---3---------||
|-6-5-3-6-5-3-|---||     |------|-----|-----|---6-----3-5-6-||
  q q q q q q   w          q h.           q q q+e e e e
  [ 3 ] [ 3 ]                             [ 3 ]

||----------------------|-----|-----|-----------------||
||-o---7---5------------|  %  |  %  |---------------o-||
||-o-0---0---0-7-0-6--5-|-----|-----|-6---3---------o-||
||----------------------|-----|-----|---6-----3-5-6---||
     e e s e s e s e. e               q q q+e e e e
                                      [ 3 ]

Verse 1
|---------------------------------|-----|-----|---------------|
|---------------------------------|  %  |  %  |---------------|
|-0-0-0-0-0-0-0-0-0-0-0-0-0-0-0-0-|-----|-----|-6---3---------|
|---------------------------------|-----|-----|---6-----3-5-6-|
  s s s s s s s s s s s s s s s s               q q q+e e e e
                                                [ 3 ]

 fig.1                                           end fig.1  3 times
||----------------------------|-----|-----|-----------------||
||-o--------------------------|  %  |  %  |---------------o-||
||-o-0-0-0-0-0-0-0-0-7-0-6--5-|-----|-----|-6---3---------o-||
||----------------------------|-----|-----|---6-----3-5-6---||
     s s s s s s s s e s e. e               q q q+e e e e
                                            [ 3 ]

Pre-chorus
|---------------------|-----------------|---------------------|
|---------------------|-----------------|---------------------|
|-5-5-5-5-5-5-5-5-5-5-|-3-3-3-3-3-2-0-0-|-5-5-5-5-5-5-5-5-5-5-|
|---------------------|-----------------|---------------------|
  e e s s e e e s s e   e e s s e q e e   e e s s e e e s s e

                  Chorus
|----------------||------------------------------|
|----------------||-o----------------------------|
|-3-3-3-3-3-2-3/-||-o-0-0-0-0-0-0-0-0-0-0-0-3--5-|
|----------------||------------------------------|
  e e s s e q h       s s s s s s s s s s s e. e
            [3]

|----------------------------|----------------------------|
|----------------------------|----------------------------|
|-0-0-0-0-0-0-0-0-0-0-0-6--5-|-0-0-0-0-0-0-0-0-0-0-0-3--5-|
|----------------------------|----------------------------|
  s s s s s s s s s s s e. e   s s s s s s s s s s s e. e

|1,2,3.                    |4. 2/4           4/4
|-------------------------||-----------------|-------------|---|
|-----------------------o-||-7-7-7-7-7-7-7-7-|-------------|---|
|-0-0-0-0-0-0-0-0-6-5-3-o-||-----------------|-6-5-3-6-5-3-|-5-|
|-------------------------||-----------------|-------------|---|
  s s s s s s s s q q q      s s s s s s s s   q q q q q q   w
                  [ 3 ]                        [ 3 ] [ 3 ]

|---------------------------------|-----|-----|---------------|
|---------------------------------|  %  |  %  |---------------|
|-0-0-0-0-0-0-0-0-0-0-0-0-0-0-0-0-|-----|-----|-6---3---------|
|---------------------------------|-----|-----|---6-----3-5-6-|
  s s s s s s s s s s s s s s s s               q q q+e e e e
                                                [ 3 ]

|---------------------------------|-----|-------------------------------|
|---------------------------------|  %  |---7---7---7---7---7---7---7---|
|-0-0-0-0-0-0-0-0-0-0-0-0-0-0-0-0-|-----|-0---0---0---0---0---0---0---0-|
|---------------------------------|-----|-------------------------------|
  s s s s s s s s s s s s s s s s         e s s s s s s s s s s s s s s

                 Verse 2                 Pre-chorus
|---------------||                      ||---------------------|
|---------------||  play fig.1  4 times ||---------------------|
|-6---3---------||                      ||-5-5-5-5-5-5-5-5-5-5-|
|---6-----3-5-6-||                      ||---------------------|
  q q q+e e e e                            e e s s e e e s s e
  [ 3 ]

|-----------------|---------------------|----------------||
|-----------------|---------------------|----------------||
|-3-3-3-3-3-2-0-0-|-5-5-5-5-5-5-5-5-5-5-|-3-3-3-3-3-2-3/-||
|-----------------|---------------------|----------------||
  e e s s e q e e   e e s s e e e s s e   e e s s e q h
                                                    [3]

Chorus
||------------------------------|----------------------------|
||-o----------------------------|----------------------------|
||-o-0-0-0-0-0-0-0-0-0-0-0-3--5-|-0-0-0-0-0-0-0-0-0-0-0-6--5-|
||------------------------------|----------------------------|
     s s s s s s s s s s s e. e   s s s s s s s s s s s e. e

                             |1,2,3.
|----------------------------|-------------------------||
|----------------------------|-----------------------o-||
|-0-0-0-0-0-0-0-0-0-0-0-3--5-|-0-0-0-0-0-0-0-0-6-5-3-o-||
|----------------------------|-------------------------||
  s s s s s s s s s s s e. e   s s s s s s s s q q q
                                               [ 3 ]

|4. 2/4           4/4                3/4
|-----------------|-------------|---||----||------------------------------|
|-7-7-7-7-7-7-7-7-|-------------|---||-R--||-o----------------------------|
|-----------------|-6-5-3-6-5-3-|-5-||----||-o-----------------------5--7-|
|-----------------|-------------|---||----||---7-7-7-7-7-7-7-7-7-7-7------|
  s s s s s s s s   q q q q q q   w    h.      s s s s s s s s s s s e. e
                    [ 3 ] [ 3 ]

|----------------------------|----------------------------|
|----------------------------|----------------------------|
|-----------------------8--7-|-----------------------5--7-|
|-7-7-7-7-7-7-7-7-7-7-7------|-7-7-7-7-7-7-7-7-7-7-7------|
  s s s s s s s s s s s e. e   s s s s s s s s s s s e. e

|1,2,3.                    |4. 2/4           4/4
|-------------------------||-----------------|-------------|---||
|-----------------------o-||-----------------|-------------|---||
|-----------------8-7-5-o-||-----------------|-8-7-5-8-7-5-|-7-||
|-7-7-7-7-7-7-7-7---------||-7-7-7-7-7-7-7-7-|-------------|---||
  s s s s s s s s q q q      s s s s s s s s   q q q q q q   w
                  [ 3 ]                        [ 3 ] [ 3 ]

160 bpm
|-------------------------|-----|-----|---------------------|
|-7-----7-----7-----7-----|  %  |  %  |-7-----7-----7-----7-|
|---0-0---0-0---0-0---0-0-|-----|-----|---0-0---0-0---0-0---|
|-------------------------|-----|-----|---------------------|
  e s s e s s e s s e s s               e s s e s s e s s q

                     4 times                 4 times               2 times
||----------------------|||----------------------|||----------------------||
||-o------------------o-|||-o------------------o-|||-o------------------o-||
||-o-6-----3----------o-|||-o-8-----5----------o-|||-o-9-----6----------o-||
||------6-----3-3-5-1---|||------8-----5-5-7-3---|||------9-----6-6-8-4---||
     e. e. e. s e e e         e. e. e. s e e e         e. e. e. s e e e

                    2 times
||----------------------||-----------------------|-----------------------|
||-o------------------o-||-----------------------|-----------------------|
||-o-10----7----------o-||-7-7-5-5---------------|-----------------------|
||------10----7-7-9-5---||---------8-8-7-7-5-7-8-|-8-8-7-7-5-5-3-3-2-3-5-|
     e. e. e. s e e e      s e s e s e s e s s e   s e s e s e s e s s e

     Tempo I
|---||-----------------------------------|-----|-----|
|---||-o---------------------------------|  %  |  %  |
|---||-o-0-0-0-0-0-0-0-0-0-0-0-0-0-0-0-0-|-----|-----|
|-0-||-----------------------------------|-----|-----|
  w      s s s s s s s s s s s s s s s s

             2 times  Verse 3            Pre-chorus
|-----------------||                     ||---------------------|
|---------------o-|| play fig.1  4 times ||---------------------|
|-6---3---------o-||                     ||-5-5-5-5-5-5-5-5-5-5-|
|---6-----3-5-6---||                     ||---------------------|
  q q q+e e e e                             e e s s e e e s s e
  [ 3 ]

                       let ring
|-----------------|-----------7-|----------------||
|-----------------|-----7-------|----------------||
|-3-3-3-3-3-2-0-0-|-5-5---5-5---|-3-3-3-3-3-2-3/-||
|-----------------|-------------|----------------||
  e e s s e q e e   e e s s e h   e e s s e q h
                                            [3]

Chorus
||------------------------------|----------------------------|
||-o----------------------------|----------------------------|
||-o-0-0-0-0-0-0-0-0-0-0-0-3--5-|-0-0-0-0-0-0-0-0-0-0-0-6--5-|
||------------------------------|----------------------------|
     s s s s s s s s s s s e. e   s s s s s s s s s s s e. e

                                                   repeat & fade
|----------------------------|-------------------------||
|----------------------------|-----------------------o-||
|-0-0-0-0-0-0-0-0-0-0-0-3--5-|-0-0-0-0-0-0-0-0-6-5-3-o-||
|----------------------------|-------------------------||
  s s s s s s s s s s s e. e   s s s s s s s s q q q
                                               [ 3 ]

The people who tabbed the songs
Creeping Death			Eros Fratini
Am I Evil?			Anonomys
Damage Inc.			Maf
Master Of Puppets		Maf
Whiplash			Steve Gorenberg
The Four Horsemen		Steve Gorenberg
Fade To Black			Eros Fratini
Seek & Destroy			Steve Gorenberg
Welcome Home (Sanitarium)	Maf
For Whom The Bell Tolls	        Eros Fratini
No Remorse			Steve Gorenberg
Metal Militia			Steve Gorenberg

The guy who made this possible
BIG TOMMY P
comments
print report bad tab
5 comments total. Showing first comments.
0 reply
EET_FUK_BASS wrote on December 14 2004, 12:00 am

my god dude...all you did was take tabs for the songs that were played in Cliff 'em All (huge waste of money, I'd give $10 for that crap, it's like a vhs, not a dvd; awesome seeing Cliff, but way overpriced for essentially a VHS) and compile 'em...you didn't tab what he ACTUALLY PLAYED in the live concerts-no Anesthesias done differently, none of the sweet intro/solo before bells....come on man!

0 reply
herrly wrote on December 23 2004, 12:00 am

dude u suck all you did was copy and paste the tabs from this site. you didnt actually watch him and hear him play and add what he actually did. man you suck. this is just a waste of space.

0 reply
r_lightning wrote on May 5 2005, 12:00 am

gee you suck

I want to post or [tab]
guest
You may want to rate the tab now too:
select rating
Please do not post tabs as comments. Select "correction" instead!