Oops, an error
Loading. Please wait.

Cliffem All Tab

19,422 views 20 this week
9 commentsread comments
1 2 3 4 5
excellent!
x 12
Autoscroll
+/-
esc
set tempo
stop
Contributor
Hey! There's an official Ultimate Guitar app which is ideal
for learning songs when you're away from computer. Get the app
WARNING: You are trying to view
                                    content from Ultimate-Guitar.com
                                    in an unauthorized application,
                                    which is prohibited.

                                    Please use an official Ultimate
                                    Guitar Tabs application for iPhone,
                                    iPad or Android to access legitimate
                                    chords, guitar, bass, and drum tabs
                                    from Ultimate-Guitar.com database.

                                    Type "ultimate guitar tabs" in Apple
                                    App Store's or Android Market's
                                    search to find the application.
Band- Metallica
Album- Cliff Em' All
Tuning(whole album)-Standard

This is a tribute video to Cliff Burton and the highlights of the 3 1/2 years he was with
the band.

1.Creeping Death
2.Am I Evil?
3.Damage Inc.
4.Master Of Puppets
5.Whiplash
6.The Four Horsemen
7.Fade To Black
8.Seek And Destroy
9.Welcome Home(Sanitarium)
10.For Whom The Bell Tolls
11.No Remorse
12.Metal Militia

1.CREEPING DEATH

E------------------------------------------------------|
B------------------------------------------------------|
G------------------------------------------------------|
D------------9------------9\7             -------------|
A------------7------------7\5 4times then --7--5--4--2-|
E--0-0-0-0-0----0-0-0-0-0----             --5--3--2--0-|
  pm........    .........                   ..........
the last two times the second guitar does this
D-------------9------------9\7-|
A------------10-----------10\9-|
E--0-0-0-0-0----0-0-0-0-0------|

                                   You do this right before the verse
D------2---2--2---2---2h3p2h3p2p0   -5-7-5-|
A------2---2--2---2---2h3p2h3p2p0   -3-5-3-|
E--0-0---0------0---0------------   -------|
  pm....................
           this is the pre chours and is done during the second intro
D----------------------------------------|
A--------5--------5----------------------|
E--0--0--3--0--0--3--0--0--2-2-2-2-2-2-2-|
 pm....     ....     ...................
chours
D--2-  --5-7--  -10-9-  --5-7--  -10-12-9---  -5-7-  -10-9-  -5-7--------
A--2-  --3-5-  --8--7-  --3-5-  --8--10-7--  --3-5-  -8--7-  -3-5---5-7-5
E--0-  -------  ------- --------   ---------  ------  ------  ------3-5-3

Then the repeat the hole song except for the main intro
Now the kickass yet some what cmplicated solo

e--------------------------------------|----------------------19h20h22--|
b--12-13-15-17p15-13-14-15-17-19p17-15-|-15-17-19-17-19-20-22-----------|
g--------------------------------------|--------------------------------|
d--------------------------------------|--------------------------------|

E--22b24----22b24----22b24----|--22b24--r22----22b24-r23-b24--22--19--|
B-----------------------------|---------------------------------------|
G-----------------------------|---------------------------------------|

E--22--20--19-\17--21--19--17-\15--19--17--15-\14--17--15--14-\12--|
B------------------------------------------------------------------|
G------------------------------------------------------------------|

E--15p14--------------------------------------------------|
B---------17p15--15p14p12h14--12-\10--10------------------|
G------------------------------------------12b14-r13-b14--|
D---------------------------------------------------------|

E-----------------------------------------|-----------------------------------|
B--------10--15------15---12--------------|-----------------------------------|
G--(14)------14b16---14---12------12--14--|--14b16--r14--12b13--------12--14b-|
D-----------------------------14----------|-----------------------14----------|
A-----------------------------------------|-----------------------------------|

E--------------------------------------------------------|
B--------12--15p12--15p12--------------12--15p12--15p12--|
G--b16---------------------14b16-(16)--------------------|
D---------------------------------*----------------------|
 * : hold bend and strike note
E------------------------------------------12-|-15p12----12----------------------14-|
B---------12--15p12--15p12--15b17----(17)-----|-------15----15-12-15p12----12-------|
G--14b16------------------------------*-------|-------------------------14----14----|
D---------------------------------------------|-------------------------------------|

E-17p15-14-15p14----14-------12-------|-------------------------------------|
B----------------17----17p15----15p14-|-15p14-12-14-12----------------------|
G-------------------------------------|----------------14--12------12--14-/-|
D-------------------------------------|------------------------14-----------|
                                  Sweep picking
E----------17--19-/22-~-~-22-~-~-|---------12--17p12-----------------12--17p12-------|
B------18------------------------|-----13-------------13---------13------------13----|
G-/19----------------------------|-14---------------------14-14-------------------14-|
D--------------------------------|---------------------------------------------------|

E----------12--17p12-------------------12--17p12------|
B------13-------------13-----------13-------------13--|
G--14--------------------14-14-14---------------------|
D-----------------------------------------------------|

E--12h15p12---------------------------------|----------------------------------------|
B-----------15---12----12-15p12-------------|--15------15------15-------------(15)\--|
G-------------------14----------14-12----12-|--14b16---14b16---14b16-r14-b16--(14)\--|
D-------------------------------------14----|----------------------------------------|

D---------------------------------|----------------------------------------------|
A--7--7-7-8-8-8-8-9-9-9-9-9-9-9-9-|-10-9-10-9-10-9-11-10-12-11-12-11-12-11-13-12-|
E---------------------------------|----------------------------------------------|

G-------------------------------------------------|
D----------------------------------------------11-|
A-14-13-14-13-14-14-15-15-14-14-15-14-14-14-15----|
E-------------------------------------------------|

E----------------------------------------------------------|
B---------------------------------------------------12/14--|
G-11-12-11-12-11-12-12-12-12-13-12-13-15-15---15-15--------|
D----------------------------------------------------------|

E-------------------------------------14-|-17p14-------------------------------------|
B-------------------14-17-14----14-17----|-------17-14-----14---17p14----------------|
G--17--14--13-14-16----------16----------|-------------16--------------16-14------14-|
D----------------------------------------|------------------------------------16-----|

E-------------------------------------|------------------------------------|
B-------------------------------------|------------------------------------|
G-16p14----14-------------------------|------------------------------------|
D-------16----16p14-16p14----14-------|----------------------------12--12--|
A-------------------------16----16-14-|-16p14-12-14p12-----12--14----------|
E-------------------------------------|----------------14------------------|

E-------------------------|------------------------------|--------------------------|
B-------------------------|------------------------------|--------------------------|
G-------------11--12--14--|--(14)----12----12-h-14-p-12--|--------------11--12--14--|
D--14------14-------------|------------------------------|--12------14--------------|
A-------------------------|------------------------------|--------------------------|
E-------------------------|------------------------------|--------------------------|

E----------------------------|--12--------12-/14--15--17--|
B----------12----13----15----|----------------------------|
G--(14)----------------------|----------------------------|
D----------------------------|----------------------------|

E--(17)--15---14----------|--/17------17--19----20--|--(20)--19--17---15-14h15--|
B-------------------17----|---//--------------------|---------------------------|
G-------------------------|-------------------------|---------------------------|

E-15p14p12-15p14p12-15p14p12-15p14p12-|-15p14p12-15p14p12-15p14p12-15-12/14-|
B-------------------------------------|-------------------------------------|
G-------------------------------------|-------------------------------------|

E-17p15p14-17p15p14-17p15p14-17p15p14-|-17p15p14-17p15p14-17p15p14-17-15-15-|
B-------------------------------------|-------------------------------------|
G-------------------------------------|-------------------------------------|


E-19p17p15-19p17p15-19p17p15-19-15-16-|-20p19p17-20p19p17-22p20p19-22p20p19-|
B-------------------------------------|-------------------------------------|
G-------------------------------------|-------------------------------------|

E--22b24----22b24----|--22b24----22b24--22b24-~-|------------|
B--------------------|--------------------------|------------|
G--------------------|--------------------------|------------|
D--------------------|--------------------------|--14-\-\-\--|
A--------------------|--------------------------|--14-\-\-\--|
E--------------------|--------------------------|--12-\-\-\--|
bridge
D--9---------10-7-9---------12-10-9---------10-7-9-|
A--7---------8--5-7---------10-8--7---------8--5-7-|
E----0-0-0-0--------0-0-0-0---------0-0-0-0--------|
    pm......        .......         .......

first you do the the verse riff then this little solo thing
gtr.1
e--------------------------------------------|
B--15-13-12---12----13---15-13-12---12----13-|
G----------------14--------------------14----|
D--------------------------------------------|
Gtr.2
e-----------------------------------|
B--10-8-7---7---8---10-8-7---7---8--|
G-------------9----------------9----|
D-----------------------------------|
Then  the last verse and so on then an outro

Gtr.3
D---9-7-5-4---5-4-2-5---9-7-5-4---5-4-2-5-|
A---7-5-3-2---3-2-0-3---7-5-3-2---3-2-0-3-|
E-----------------------------------------|
Gtr.2
E-------------------------------------------------------------------------|
B�17-15-13-12�-13-12-10-13---17-15-13-12---13-12-10-13------|
G-------------------------------------------------------------------------|
Gtr.1
E------------------------------------------------------------|
B------------------------------------------------------------|
G-19-17-15-14---15-14-12-15----19-17-15-14---15-14-12-15-----|
Then gtr.3 stops and does this
e-----------------------------|       (8 times)
B----19p16p0------------------|

e----------------------------|       (8 times)
B----20p17p0-----------------|
And this all ends with a slide like from the solo to the bidge
And this little outro thing

 E-------------|-------------|-14h15--14----|-------------|----------|----|
 B-------------|-------16-17-|-----------17-|-16----------|----------|----|
 G----------14-|-16-17-------|--------------|----17-16-14-|----------|----|
 D-14-16-17----|-------------|--------------|-------------|-17p16p14-|-14-|
 A-------------|-------------|--------------|-------------|----------|----|
 E-------------|-------------|--------------|-------------|----------|----|
   Oh yeah, and its all tremelo picked

2.AM I EVIL?

Gtr 1 : Distorted

        |   |   |   |     |   |   |   |    |   |     |   |

||---||-----------------|----------------|---------------------|
||-4-||-----------------|----------------|---------------------|
||---||-9-----------7-9-|-10----------12-|-9---9-9-9-9---9-9-9-|
||-4-||-9-----------7-9-|-10----------12-|-9---9-9-9-9---9-9-9-|
||---||-7-----------5-7-|-8-----------10-|-7---7-7-7-7---7-7-7-|
||---||-----------------|----------------|---------------------|

   |   |     |     |       |   |     |   |       |   |     |	 |

 |-----------------------|---------------------|-----------------------|
 |-----------------------|---------------------|-----------------------|
 |-9---9-9-9-7-7-7-7-7-7-|-9---9-9-9-9---9-9-9-|-9---9-9-9-7-7-7-7-7-7-|
 |-9---9-9-9-7-7-7-7-7-7-|-9---9-9-9-9---9-9-9-|-9---9-9-9-7-7-7-7-7-7-|
 |-7---7-7-7-5-5-5-5-5-5-|-7---7-7-7-7---7-7-7-|-7---7-7-7-5-5-5-5-5-5-|
 |-----------------------|---------------------|-----------------------|
					       |
					       |
   					       | Gtr 2 : Distorted
					       | ( Trem Strum )
                           |--------------------------|
                           |--------------------------|
                            |-------------------------|
                           |-14-\---------------------|
                           |-14-\---------------------|
                           |-12-\---------------------|


Gtr 1 doubles Gtr 2

  |   |     |   |       |   |     |     |       |   |     |   |

|---------------------|-----------------------|---------------------|
|---------------------|-----------------------|---------------------|
|*--------------------|-----------------------|---------------------|
|-2-------------------|-----------9-9-9-9-9-9-|-8-------------------|
|*2-------------------|-----------9-9-9-9-9-9-|-8-------------------|
|-0-------------------|-----------7-7-7-7-7-7-|-6-------------------|

  |   |     |     |       |   |     |   |       |   |     |     |

|-----------------------|---------------------|-----------------------|
|-----------------------|---------------------|-----------------------|
|----------------------*|---------------------|-----------------------|
|-----------3-3-3-3-3-3-|-2-------------------|-----------9-9-9-9-9-9-|
|-----------3-3-3-3-3-3*|-2-------------------|-----------9-9-9-9-9-9-|
|-----------1-1-1-1-1-1-|-0-------------------|-----------7-7-7-7-7-7-|

  |   |     |   |       |   |     |        |          |   |     |   |

|---------------------|-----------------------------|-----------------------|
|---------------------|-----------------------------|-----------------------|
|---------------------|-----------10-10-10-10-10-10-|-9---------------------|
|-8-------------------|-----------10-10-10-10-10-10-|-9---------------------|
|-8-------------------|-----------8--8--8--8--8--8--|-7---------------------|
|-6-------------------|-----------------------------|-----------------------|

  |   |     |     |       |   |     |   |       |   |     |     |

|-----------------------|---------------------|-----------------------|
|-----------------------|---------------------|-----------------------|
|-----------------------|---------------------|-----------------------|
|-----------9-9-9-9-9-9-|-8-------------------|-----------3-3-3-3-3-3-|
|-----------9-9-9-9-9-9-|-8-------------------|-----------3-3-3-3-3-3-|
|-----------7-7-7-7-7-7-|-6-------------------|-----------1-1-1-1-1-1-|

  |   |     |   |       |   |     |     |       |    |     |   |

|---------------------|-----------------------|----------------------|
|---------------------|-----------------------|----------------------|
|---------------------|-----------------------|*---------------------|
|-2-------------------|-----------7-7-7-7-7-7-|-/9---9-9-9-9---9-9-9-|
|-2-------------------|-----------5-5-5-5-5-5-|*/7---7-7-7-7---7-7-7-|
|-0-------------------|-----------------------|----------------------|


                        Gtr 1 : Grad rit.

  |   |     |     |       |   |   |   |      |   |   |   |
	(Repeat 3 times)
                                  ~~             ~~      ~~
|-----------------------|------------------|-------------------|
|-----------------------|------------------|-------------------|
|----------------------*|------------------|-------------10----|
|-9---9-9-9-7-7-7-7-7-7-|------------------|-----9---8---------|
|-7---7-7-7-5-5-5-5-5-5*|-------------8----|-7-----------------|
|-----------------------|-0---7---6--------|-------------------|


  ~~
|------------------------------------|
|------------------------------------|
|-9---10---/12---/14-----/16---------|
|------------------------------------|
|------------------------------------|
|------------------------------------|

Gtr 2 : Intro solo. (See comments at end)

   HH  HH  HH  HH  HH  HH  HH  HH    HH  HH  HH  HH  HH  HH  HH  HH
|---------------------------------|---------------------------------|
|-058-058-058-058-058-058-058-058-|-047-047-047-047-047-047-047-047-|
|---------------------------------|---------------------------------|
|---------------------------------|---------------------------------|
|---------------------------------|---------------------------------|
|---------------------------------|---------------------------------|


							(Hold last note..)
   HH  HH  HH  HH  HH   HH   HH  HH    HH  HH  HH  HH  HH  HH  HH
|-----------------------------------|---------------------------------|
|-058-058-058-058-0710-0710-058-058-|-047-047-047-047-047-047-047-----|
|-----------------------------------|---------------------------------|
|-----------------------------------|---------------------------------|
|-----------------------------------|---------------------------------|
|-----------------------------------|---------------------------------|


  A   A   A   A   A   A Wh~~~~~~
|-------------------------------|
|-------------------------------|
|-------------------------------|
|-----5-------------------------|
|-5-----------5-------7---------|
|---------5-------7-------------|

"One, Two"		(Repeat Main Riff 8 times before verse)

                      PM---|  PM-|  PM---|

           	    |   |   |  |    |   |   |  |
Main Riff :       |--------------------------------|
          |----------------------------------------|
          |*---------------------------------------|
          |---------------2---------3--2-----------|
          |*2-2-2-2-5-2-2-0-2-2-2---1--0-----------|
          |-0-0-0-0-3-0-0---0-0-0------------------|

(Main Riff with verse 1)

Verse 1 : (Lyrics)

		My mother was a witch, she was burned alive.
		Thankless little bitch, for the tears i've cried.
		Take her down now, don't want to see her face.
		All blistered and burned, can't hide my disgrace.


		      PM---|  PM-|  PM---|

		    |   |   |  |    |   |   |  |
Pre-Chorus riff : |--------------------------------|
          |----------------------------------------|
          |*---------------------------------------|
          |---------7-----9---------10-9-----------|
          |*7-7-7-7-5-7-7-7-7-7-7---8--7-----------|
          |-5-5-5-5---5-5---5-5-5------------------|

(Pre-Chorus riff x 4 with Pre-Chorus)

Pre-Chorus : (Lyrics)

		Twenty-seven, every one is nice,
		Gotta see 'em, make 'em pay the price,
		See the bodies out on the ice,
		Take my time.......


(Main Riff x 4 with Chorus)

Chorus : (Lyrics)

		Am I Evil?
		Yes I am,
		Am I Evil?
		I am that, yes I am....


			*******Main Riff x 2*******

(Main Riff x 8 with verse 2)

Verse 2 : (Lyrics)

		As i watched my mother die, I lost my head,
		Revenge now I sought, to break with my bread,
		Taking no chances, you come with me,
		I split you to the bone, help set you free.


(Pre-chorus riff x 4 with pre-chorus)

(Main Riff x 4 with chorus)

Bridge :

		|------------------|------------------------------|
		|------------------|------------------------------|
		|*9-----7-----5---*|------------------------------|
		|-9-----7-----5----|---------------2---------3--2-|
		|*7-----5-----3---*|-2-2-2-2-5-2-2-0-2-2-2---1--0*|
		|------------------|-0-0-0-0-3-0-0---0-0-0--------|


               (Repeat 3 times)

	. |   |   |   |      |   |     |  |       |   |   |   |
						    ~~~~~~~~~~~
	|------------------|--------------------|------------------|
	|------------------|--------------------|------------------|
	|*9-----7-----5---*|-9-----11-----12----|------------------|
	|-9-----7-----5----|-9-----11-----12----|------------------|
	|*7-----5-----3---*|-7-----9------10----|--/7--------------|
	|------------------|--------------------|------------------|

Double Time feel :

				      _______________________________________
Fast Riff 1:			      |1.

  |   |   |   |      |   |   |   |      |   |   |   |      |   |   |   |

     PM-|    PM-|       PM-|               PM-|    PM--|      PM--------------|
|------------------|------------------|------------------|--------------------|
|------------------|------------------|------------------|--------------------|
|*-----------------|------------------|------------------|--------------------|
|------------------|-------------7----|------------------|---------5----------|
|*7--7777-7--7777--|-7--7777-5---5----|-7--7777-7--7777--|-7--7777-3---5------|
|-5--5555-5--5555--|-5--5555-3--------|-5--5555-5--5555--|-5--5555-----3------|


_____________________________________
|2.					Fast Riff 2 : (Note : Lyrics)

  |   |   |   |      |   |   |   |      |   |   |   |     |   |   |   |

     PM-|    PM--|            PM--------------------------------------------|
|------------------|-----------------||-----------------|-------------------|
|------------------|-----------------||-----------------|-------------------|
|------------------|-----------------||*----------------|-------------------|
|------------------|-----------------||-----------------|------------7------|
|-7--7777-7--7777--|-----------------||*2--2222-2-2222--|-2--2222-2--5------|
|-5--5555-5--5555--|-555-555-555-532-||-0--0000-0-0000--|-0--0000-0---------|
   		   |   Triplets      |


  |   |   |   |     |   |   |   |

  PM----------------------------------|
|-----------------|-------------------|
|-----------------|-------------------|
|-----------------|-------------------|    Repeat whole sequence again.
|-----------------|------------7-7----|
|-2--2222-2-2222--|-2--2222-2--5-5----|
|-0--0000-0-0000--|-0--0000-0---------|

(With Fast Riff 2 [First repeat])

Lyrics :


(With Fast Riff 2 [Second repeat])

Lyrics :



		*******Then Fast Riff 1 x 1*******

  |   |   |   |      |   |   |   |      |   |   |   |

|------------------|------------------|------------------|
|------------------|------------------|------------------|
|------------------|------------------|------------------|
|-2----------------|------------------|-5-------7--------|
|-2----------------|------------------|-5-------7--------|
|-0----------------|------------------|-3-------5--------|


GUITAR SOLO:


For the solo, the rhythm follows the following 'feel':

          X       X         X       X
	|-X--XXXX-X-XXXX--|-X--XXXX-X-XXXX--|

	Chord changes are noted above tab lines, and are 2 or 3 fingered power
chords, depending on what you feel like. For the 'XX' notes, strike the
full chord, on the others just play the lowest note (Usually the E string)

  B5

  |  |||| |  | |||    |    | ||| |   | || |
  @  @@@@ @  @ @@@    @    @ @@@ @   @ @@ @
      (Full)    P
|-----------7-------|----------------11-12--|
|------------10-7-7/|/12-----------12-------|
|-9^^^^^^^^^--------|-----------------------|
|-------------------|-----------------------|
|-------------------|-----------------------|
|-------------------|-----------------------|

  |       |  |  |  |     |     |  |  |  |    |    |||| |   ||||
  @       @  @  @  @     @     @  @  @  @    @    @@@@ @   @@@@
    H  P       H  H        P  P     P  P
|-11-12-11---11-12-14-14-14-12-11-12-11----|-----------------7---|
|---------12----------------------------12-|-10---------/7-------|
|------------------------------------------|---------------------|
|------------------------------------------|---------------------|
|------------------------------------------|---------------------|
|------------------------------------------|---------------------|

  |  ||||  |     |   | |  |     |    | || | |     ||||
  @  @@@@  @     @   @ @  @     @    @ @@ @ @     @@@@
            H P                   P       P   P
|-10-9--7--7-9-7-----7--------|--------------------------|
|----------------10----10-7---|-10-7---7-----------------|
|-----------------------------|------9---9-7-9-7---7---7-|
|-----------------------------|------------------9-------|
|-----------------------------|--------------------------|
|-----------------------------|--------------------------|

  |    ||  | | |    | | | |     |    ||  | | |    | | | |
  @    @@  @ @ @    @ @ @ @     @    @@  @ @ @    @ @ @ @
 (Full)                        (Full)
|-----7-----------------------|-----7-----------------------|
|-----7-10-7---7--------------|-----7-10-7---7--------------|
|-9^^--------9---9-7-7------7-|-9^^--------9---9-7-7------7-|
|-----------------------------|-----------------------------|
|-----------------------------|-----------------------------|
|-----------------------------|-----------------------------|


  |    ||  | | |    | | | |      |      | | | |   |   | | | |
  @    @@  @ @ @    @ @ @ @      @      @ @ @ @   @   @ @ @ @
 (Full)
|-----7-----------------------|-/19--/20---/22---/24----------|
|-----7-10-7---7--------------|-------------------------------|
|-9^^--------9---9-7-7------7-|-------------------------------|
|-----------------------------|-------------------------------|
|-----------------------------|-------------------------------|
|-----------------------------|-------------------------------|

  E5
  |      | |  |  |  |      | |  |  |    |      | |  |  |  |      | |  |  |
  @      @ @  @  @  @      @ @  @  @    @      @ @  @  @  @      @ @  @  @
    P  P              P  P                P  P              P  P
|-15-14-12----12-14-15-14-12----12-14-|-15-14-12----12-14-15-14-12----12-14-|
|----------15----------------15-------|----------15----------------15-------|
|-------------------------------------|-------------------------------------|
|-------------------------------------|-------------------------------------|
|-------------------------------------|-------------------------------------|
|-------------------------------------|-------------------------------------|


  |     | | | |  |     | | | |     |     | | | |  |     | | | |
  @     @ @ @ @  @     @ @ @ @     @     @ @ @ @  @     @ @ @ @

|-15---14---12--------12---------|--------------------------------|
|----------------15--------15----|-14---12---14-------------------|
|--------------------------------|----------------12======--------|
|--------------------------------|--------------------------------|
|--------------------------------|--------------------------------|
|--------------------------------|--------------------------------|

  B5
  |  | | | | |   | | | |    |    | | | |  |   | | | |
  @  @ @ @ @ @   @ @ @ @    @    @ @ @ @  @   @ @ @ @
 (Full) P     P      P        P      P     P     P
|------7-0-0-9-0-0-10-0-0-|-12-0-0-10-0-0-9-0-0-7-0-0-|
|----7--------------------|---------------------------|
|-9^----------------------|---------------------------|
|-------------------------|---------------------------|
|-------------------------|---------------------------|
|-------------------------|---------------------------|

  |    | | | | |   | | | |      |   | | | | |   | | | |
  @    @ @ @ @ @   @ @ @ @      @   @ @ @ @ @   @ @ @ @

|-10---9---7--------7---------|----------------------------|
|--------------10-------10----|-9---7---9------------------|
|-----------------------------|-------------7======\-------|
|-----------------------------|----------------------------|
|-----------------------------|----------------------------|
|-----------------------------|----------------------------|


  |  |||| |  ||||   |  |||| |  ||||   |  |||| |  ||||   |  |||| |  ||||
  @  @@@@ @  @@@@   @  @@@@ @  @@@@   @  @@@@ @  @@@@   @  @@@@ @  @@@@
   HH  HH  HH  HH    HH  HH  HH  HH    HH  HH  HH  HH    HH  HH  HH  HH
|-----------------|-----------------|-----------------|-047-047-047-047-|
|-047-047-047-047-|-058-058-058-058-|-047-047-047-047-|-----------------|
|-----------------|-----------------|-----------------|-----------------|
|-----------------|-----------------|-----------------|-----------------|
|-----------------|-----------------|-----------------|-----------------|
|-----------------|-----------------|-----------------|-----------------|

                                      A5
  |  |||| |  ||||   |  |||| |  ||||   |   ||||  |   ||||
  @  @@@@ @  @@@@   @  @@@@ @  @@@@   @   @@@@  @   @@@@
   HH  HH  HH  HH    HH  HH  HH  HH   T PP T PP T PP T PP
|-058-058-058-058-|-047-047-047-047-|-1285-1285-1285-1285-|
|-----------------|-----------------|---------------------|
|-----------------|-----------------|*-------------------*|
|-----------------|-----------------|---------------------|
|-----------------|-----------------|*-------------------*|
|-----------------|-----------------|---------------------|

  F5                    A#5                   F#5
  |   ||||  |   ||||    |   ||||  |   ||||    |   ||||  |   ||||
  @   @@@@  @   @@@@    @   @@@@  @   @@@@    @   @@@@  @   @@@@
  T PP T PP T PP T PP   T PP T PP T PP T PP   T PP T PP T PP T PP
|-1385-1385-1385-1385-|-1396-1396-1396-1396-|-1496-1496-1496-1496-|
|---------------------|---------------------|---------------------|
|*-------------------*|*-------------------*|---------------------|
|---------------------|---------------------|---------------------|
|*-------------------*|*-------------------*|---------------------|
|---------------------|---------------------|---------------------|


  B5
  |    || | | |    || | |   |  |||| |  ||||   |  |||| |  ||||
  @    @@ @ @ @    @@ @ @   @  @@@@ @  @@@@   @  @@@@ @  @@@@
  T P P T P P T P P T P P    HH  HH  HH  HH    HH  HH  HH  HH
|-14107-14107-14107-14107-|-047-----047-----|-047-----047-----|
|-------------------------|-----047-----047-|-----047-----047-|
|*-----------------------*|-----------------|-----------------|
|-------------------------|-----------------|-----------------|
|*-----------------------*|-----------------|-----------------|
|-------------------------|-----------------|-----------------|


  |  |||| |  ||||   |  |||| |  ||||   |  |||| |  ||||   |  |||| |  ||||
  @  @@@@ @  @@@@   @  @@@@ @  @@@@   @  @@@@ @  @@@@   @  @@@@ @  @@@@
   HH  HH  HH  HH    HH  HH  HH  HH    HH  HH  HH  HH    HH  HH  HH  HH
|-----------------|-----------------|-----------------|-----------------|
|-047-----047-----|-047-----047-----|-----------------|-----------------|
|-----047-----047-|-----047-----047-|-047-----047-----|-047-----047-----|
|-----------------|-----------------|-----047-----047-|-----047-----047-|
|-----------------|-----------------|-----------------|-----------------|
|-----------------|-----------------|-----------------|-----------------|

                                        E5
  |  |||| |  ||||   |  |||| |  ||||     |      | | |  |   |      | | |  |
  @  @@@@ @  @@@@   @  @@@@ @  @@@@     @      @ @ @  @   @      @ @ @  @
   HH  HH  HH  HH                         P  P     P  P     P  P     P  P
|-----------------|-------------------|-------------------------------------|
|-----------------|----------------12-|-1514-0-0-1715-0-0-1514-0-0-1715-0-0-|
|-----------------|-------------/14---|-------------------------------------|
|-047-----047-----|-------------------|-------------------------------------|
|-----047-----047-|-------------------|-------------------------------------|
|-----------------|-7\----------------|-------------------------------------|

  |      | | |  |   |      | | |  |     |        |  | | |    |    ||| |
  @      @ @ @  @   @      @ @ @  @     @        @  @ @ @    @    @@@ @
    P  P    P  P    P  P    P  P
|-------------------------------------|---------------------------------|
|-1514-0-0-1715-0-0-1514-0-0-1715-0-0-|-1514-0-1412-0-1210-0-109-0-97-0-|
|-------------------------------------|---------------------------------|
|-------------------------------------|---------------------------------|
|-------------------------------------|---------------------------------|
|-------------------------------------|---------------------------------|


                      B5
  |  ||||  |  ||||    |   |||| |    || ||    |    |||| |  ||||
  @  @@@@  @  @@@@    @   @@@@ @    @@ @@    @    @@@@ @  @@@@
                     (Full)      P                     (Full)
|-------------------|----------------------|------------10^====|
|-7-----------------|-10^------107---7-----|-------------------|
|-7-9-7---7---------|--------------9---9-7-|-9-7---7-----------|
|-------------------|----------------------|-----9-------------|
|-------------------|----------------------|-------------------|
|-------------------|----------------------|-------------------|


  |   || || |       || | |    |    || | |  |  | | | |       (END SOLO)
  @   @@ @@ @       @@ @ @    @    @@ @ @  @  @ @ @ @
              H  P    H  P     H P   H P    ~~~~~~~~
|-9----12-------------------|--------------------------|
|-----------10-12-10-8-10-8-|-7-8-7-5-6-5--3========---|
|---------------------------|--------------------------|
|---------------------------|--------------------------|
|---------------------------|--------------------------|
|---------------------------|--------------------------|


*******Fast Riff 1 x 2 ( Note : Only repeat the first section )*******

On fourth repeat, Gtr 2 plays:

               P
|------------------|
|------------------|
|------------------|
|-/777-777-777-75--|
|----------------7-|
|------------------|


*******Fast Riff 2 x 4*******

*******Fast Riff 1 x 4*******


(Triplet feel - not strict time)

                             _________________________
                             |1,2,3.      |4.
                              H   H P
|------------------|----------------------|----------|
|------------------|----------------------|----------|
|------------------|---------------------*|----------|
|-----9---7-7------|-7-7------------------|-7--------|
|-----7---5-5------|-5-5---------5-7-5---*|-5---7----|
|-0-0--------------|---------5-7-------7--|-----5----|


    PM---|  PM-|  PM---|       h   h
              (Repeat 6 times)
|----------------------------|-----------------|
|----------------------------|-----------------|
|*--------------------------*|-----------------|
|---------------2--------3-2-|-------------2---|
|*2-2-2-2-5-2-2-0-2-2-2--1-0*|---------5---2---|
|-0-0-0-0-3-0-0---0-0-0------|-5---5---3---0---|       (END)

3.DAMAGE INC.

Intro
Two guitars
|--5------3------|----------------|----------------|----------------|
|----------------|--3------5------|--7------7------|--8------3------|
|--2------4------|--4------6------|--7------4------|--5------7-p-0--|
|----------------|----------------|----------------|----------------|
|----------------|----------------|----------------|----------------|
|----------------|----------------|----------------|----------------|
 volume swells, with heavy echo

|--5------3------|----------------|----------------|----------------|
|----------------|--3------5-p-3--|--7-p-3--7-p-3--|--8--p-5h7p5-3--|
|--2------4------|--4------6-p-2--|--7------4------|--5--p-2h4p2-0--|
|----------------|----------------|----------------|----------------|
|----------------|----------------|----------------|----------------|
|----------------|----------------|----------------|----------------|

Fast Tempo=190
||------------|--------------------|------------|--------------------|
||------------|--------------------|------------|--------------------|
||------------|--------------------|------------|--------------------|
||--2----2----|--2----2---3--3--3--|--2----2----|--2----2---3--3--3--|
||--2----2----|--2----2---3--3--3--|--2----2----|--2----2---3--3--3--|
||--0----0----|--0----0---1--1--1--|--0----0----|--0----0---1--1--1--|

|--------------|------------------|--------------|--------------||
|--------------|------------------|--------------|--------------||
|--------------|------------------|--------------|--------------||
|--2--2--2--2--|--2--2--2--3-3-3--|--2--2--2--2--|--2--2--2--2--||
|--2--2--2--2--|--2--2--2--3-3-3--|--2--2--2--2--|--2--2--2--2--||
|--0--0--0--0--|--0--0--0--1-1-1--|--0--0--0--0--|--0--0--0--0--||

  Rhy Fig 1
||-------------------------------------------------|------------------------|
||-------------------------------------------------|------------------------|
||-------------------------------------------------|------------------------|
||-------------------------------------------------|-----7/8-----7/8-----7/-|
||-------------------------------------------------|-----7/8-----7/8-----7/-|
||-0--0--0--0--0--0--0--0--0--0--0--0--0--0--0--0--|--5-------X-------X-----|
   PM............................................|

||-------------------------------------------------|------------------------|
||*------------------------------------------------|------------------------|
||-------------------------------------------------|------------------------|
||--/8---------------------------------------------|-----7/8-----7/8-----7/-|
||*-/8---------------------------------------------|-----7/8-----7/8-----7/-|
||-------0--0--0--0--0--0--0--0--0--0--0--0--0--0--|--5-------X-------X-----|
         PM......................................|

|------------------------------------------------|------------------------|
|------------------------------------------------|------------------------|
|------------------------------------------------|------------------------|
|-/8---------------------------------------------|-----7/8-----7/8-----7/-|
|-/8---------------------------------------------|-----7/8-----7/8-----7/-|
|------0--0--0--0--0--0--0--0--0--0--0--0--0--0--|--5-------X-------X-----|
       PM......................................|
                                                  ________________________
                                                 |1.
|------------------------------------------------|------------------------|
|------------------------------------------------|------------------------|
|------------------------------------------------|------------------------|
|-/8---------------------------------------------|-----5\4-----5\4-----5\-|
|-/8---------------------------------------------|-----5\4-----5\4-----5\-|
|------2--2--2--2--2--2--2--2--2--2--2--2--2--2--|--3-------X-------X-----|
       PM......................................|
 __________________________________________________________________________
                                                                           |
|------------------------------------------------|-------------------------||
|------------------------------------------------|------------------------*||
|------------------------------------------------|-------------------------||
|-\4---------------------------------------------|-----7/8-----7/8-----7/--||
|-\4---------------------------------------------|-----7/8-----7/8-----7/-*||
|------0--0--0--0--0--0--0--0--0--0--0--0--0--0--|--5-------X-------X------||
       PM......................................|
 ________________________
|2.                                   end Rhy Fig 1
|------------------------|------------|------------|
|------------------------|------------|------------|
|------------------------|--4---------|------------|
|-----5\4-----5\4-----5--|--4----5----|--7----5----|
|-----5\4-----5\4-----5--|--2----5----|--7----5----|
|--3-------X-------X-----|-------3----|--5----3----|

|--------------------------------------------------|-------------|
|--------------------------------------------------|-------------|
|--------------------------------------------------|-------------|
|--4--4--4--4--4--4--4--4--4--4--4--4--4--4--4--4--|--4----------|
|--4--4--4--4--4--4--4--4--4--4--4--4--4--4--4--4--|--4----------|
|--2--2--2--2--2--2--2--2--2--2--2--2--2--2--2--2--|--2----------|
   PM............................................|

   Rhy Fig 2
||---------------------------|---------------------------|
||*--------------------------|---------------------------|
||---------------------------|---------------------------|
||---------------------------|---------------------------|
||*-8\5----------------------|--8\5----------------------|
||--6\3--0-0-0--0--0--0-0-0--|--6\3--0-0-0--0--0--0-0-0--|
         PM................|
                                             end Rhy Fig 2
|---------------------------|----------------------------||-----------|
|---------------------------|---------------------------*||-----------|
|---------------------------|----------------------------||-----------|
|---------------------------|----------------------------||-----------|
|--8\5----------------------|--8\5----------------------*||----8------|
|--6\3--0-0-0--0--0--0-0-0--|--6\3--1-1-1--0--0--0-0-0---||----6------|

S/S
Verses w/ Rhy Fig 2

  Chorus
||------------|------------|--------------------------------------------------|
||------------|------------|--------------------------------------------------|
||--4---------|------------|--------------------------------------------------|
||--4----5----|--7----5----|--4--4--4--4--4--4--4--4--4--4--4--4--4--4--4--4--|
||--2----5----|--7----5----|--4--4--4--4--4--4--4--4--4--4--4--4--4--4--4--4--|
||-------3----|--5----3----|--2--2--2--2--2--2--2--2--2--2--2--2--2--2--2--2--|
                              PM............................................|

||------------|------------|--------------------------------------------------|
||------------|------------|--------------------------------------------------|
||--4---------|------------|--------------------------------------------------|
||--4----5----|--7----5----|--4--4--4--4--4--4--4--4--4--4--4--4--4--4--4--4--|
||--2----5----|--7----5----|--4--4--4--4--4--4--4--4--4--4--4--4--4--4--4--4--|
||-------3----|--5----3----|--2--2--2--2--2--2--2--2--2--2--2--2--2--2--2--2--|
                              PM............................................|

  After Chorus
||------------|-------------------|--------------|--------------||
||------------|-------------------|--------------|--------------||
||------------|-------------------|--------------|--------------||
||--2----2----|--2----2--3--3--3--|--2--2--2--2--|--2--2--2--2--||
||--2----2----|--2----2--3--3--3--|--2--2--2--2--|--2--2--2--2--||
||--0----0----|--0----0--1--1--1--|--0--0--0--0--|--0--0--0--0--||

[...]

Solo
|--15p12--12--15--15p14--12--15--15p14--12--15--15p14--12--12--|
|--------------------------------------------------------------|
|--------------------------------------------------------------|
|--------------------------------------------------------------|
|--------------------------------------------------------------|
|--------------------------------------------------------------|

|--15p14--12--15--15p14--12--15--15p14--12--15--15p14--12--15--|
|--------------------------------------------------------------|
|--------------------------------------------------------------|
|--------------------------------------------------------------|
|--------------------------------------------------------------|

|--15--15--15--15--15--14p12--15--15--15--15--15p14p12--12--|
|-----------------------------------------------------------|
|-----------------------------------------------------------|
|-----------------------------------------------------------|
|-----------------------------------------------------------|
|-----------------------------------------------------------|

|--15--14--12--12--15--14--12--15-b17--------------14--|
|----------------------------------------------15------|
|-----------------------------------------/16----------|
|------------------------------------------------------|
|------------------------------------------------------|
|------------------------------------------------------|

|--17--15--14--15p14--15p14----14--X-------|
|---------------------------14--------17\--|
|------------------------------------------|
|------------------------------------------|
|------------------------------------------|
|------------------------------------------|

|-----------------------------------------------|-----------------------------------|
|--15\14--12--14----12\10h12----10\9--10p9------|----10--10p9---------10--10p9------|
|-------------------------------------------11--|--9-----------11--9------------11--|
|-----------------------------------------------|-----------------------------------|
|-----------------------------------------------|-----------------------------------|
|-----------------------------------------------|-----------------------------------|

|-----------------------------------|------------------------------------|
|-----10--10p9---------10--10p9-----|------12--12p10p9------12--12p10p9--|
|--9------------11--9------------9--|--11---------------11---------------|
|-----------------------------------|------------------------------------|
|-----------------------------------|------------------------------------|
|-----------------------------------|------------------------------------|

|------9--9-----------------9--9-------------|-----------------------------------|
|------------12p10----------------12p10------|------12-12p10p9------12--12p10p9--|
|--11---------------11--11---------------11--|--11--------------11---------------|
|--------------------------------------------|-----------------------------------|
|--------------------------------------------|-----------------------------------|
|--------------------------------------------|-----------------------------------|

|-----(9)--9-----------------9--9------------|-12b14--r12-b14--r12--9--9h12-12p9--9-|
|-------------12p10----------------12p10-----|--------------------------------------|
|-11-----------------11--11---------------11-|--------------------------------------|
|--------------------------------------------|--------------------------------------|
|--------------------------------------------|--------------------------------------|
|--------------------------------------------|--------------------------------------|

|--12p9--9--9--12--9---------9--12--9---------9--12p9----------|
|---------------------12b14------------12b14-----------(12)----|
|--------------------------------------------------------------|
|--------------------------------------------------------------|
|--------------------------------------------------------------|
|--------------------------------------------------------------|

|------------------------------------------------|
|--10p7--0--11p8--0--0--12p9--0--0--13p10--0--0--|
|------------------------------------------------|
|------------------------------------------------|
|------------------------------------------------|
|------------------------------------------------|

|------------------------------------------------------|
|--14p11--0--0--15p12--0--0--16p13--0--0--17p14--0--0--|
|------------------------------------------------------|
|------------------------------------------------------|
|------------------------------------------------------|
|------------------------------------------------------|

    UB      UB      UB       UB      UB
|-----12------12------12-------12------12----------|---------------------14--|
|--15b17---15b17---15b17----15b17---15b17--r15p12--|--13-~-~--------/15------|
|--------------------------------------------------|-------------------------|
|--------------------------------------------------|-------------------------|
|--------------------------------------------------|-------------------------|
|--------------------------------------------------|-------------------------|

|--15--17--17--17b19--17b19-r17p14--|--15--~--~--~--14--15--|
|-----------------------------------|-----------------------|
|-----------------------------------|-----------------------|
|-----------------------------------|-----------------------|
|-----------------------------------|-----------------------|
|-----------------------------------|-----------------------|

|--17--15--14--15p14--15p14-------14----------|-----------------17-----------------|
|----------------------------17-------17--14--|--15p14------15---------------------|
|---------------------------------------------|---------16----------14--14--16b18--|
|---------------------------------------------|------------------------------------|
|---------------------------------------------|------------------------------------|
|---------------------------------------------|------------------------------------|

|----------------------------------------------------|-------------------------17b19--|
|----14-17p14------14--17p14------14--17p14------14--|--17p14--17b19----r17p14--------|
|--------------16-------------16-------------16------|--------------------------------|
|----------------------------------------------------|--------------------------------|
|----------------------------------------------------|--------------------------------|
|----------------------------------------------------|--------------------------------|

       +       o      +          o       +
|-------------------------|------------------------|
|-----15------15-----15---|-----15------15---------|
|--14b16---14b16--14b16---|--14b16---14b16---------|
|-------------------------|------------------------|
|-------------------------|------------------------|
|-------------------------|------------------------|
 w/ wha  (+=treble  o=bass)

|--15--15--15--15--15--15--15--12--15--15--15--15--15--15p12--12--|
|-----------------------------------------------------------------|
|-----------------------------------------------------------------|
|-----------------------------------------------------------------|
|-----------------------------------------------------------------|
|-----------------------------------------------------------------|

|--15--15--15--12--15--15--12--15--15b17-~-~-----------|
|-----------------------------------------------10/12--|
|------------------------------------------------------|
|------------------------------------------------------|
|------------------------------------------------------|
|------------------------------------------------------|

|--10--10--12--12-/14--14--15--15--/17---15--15--17--17/--|
|---------------------------------------------------------|
|---------------------------------------------------------|
|---------------------------------------------------------|
|---------------------------------------------------------|
|---------------------------------------------------------|

|--/19--19--19--17--17--17--19--19-/20--20--20--19--19--19--20--20/--|
|--------------------------------------------------------------------|
|--------------------------------------------------------------------|
|--------------------------------------------------------------------|
|--------------------------------------------------------------------|
|--------------------------------------------------------------------|

|--/22--22--20--19--22--20--18--18--21-19-17-17-20-18-16-16-19-17--|
|------------------------------------------------------------------|
|------------------------------------------------------------------|
|------------------------------------------------------------------|
|------------------------------------------------------------------|
|------------------------------------------------------------------|

|--15-15-18-16-14-14-17-15-13-13-16-14-12-15-13-12-14-12-10--\--|---------------|
|---------------------------------------------------------------|---------------|
|---------------------------------------------------------------|---------------|
|---------------------------------------------------------------|---------------|
|---------------------------------------------------------------|---------------|
|---------------------------------------------------------------|---------------|

                   T       T       T       T       T       T       T       T
|--------------|-------------------------------------------------------------------|
|-----------0--|--12p10p7-12p10p7-13p10p7-13p10p7-14p7h10-14p7h10-15p7h10-15p7h10--|
|--------------|-------------------------------------------------------------------|
|--------------|-------------------------------------------------------------------|
|--------------|-------------------------------------------------------------------|
|--------------|-------------------------------------------------------------------|

    T       T       T       T       T       T       T
|-------------------------------------------------------|
|--16p7h10-16p7h10-16p7h10-16p7h10-16p7h10-16p7h10-16\--|
|-------------------------------------------------------|
|-------------------------------------------------------|
|-------------------------------------------------------|
|-------------------------------------------------------|

|------------|------------|------------------------------------------|
|------------|------------|------------------------------------------|
|--4---------|------------|------------------------------------------|
|--4----5----|--7----5----|------------------------------------------|
|--2----5----|--7----5----|--4----4--4----4--4----5---5---5----5--5--|
|-------3----|--5----3----|--2----2--2----2--2----3---3---3----3--3--|
                                 PM...........|      PM............|

|-----------------------------------------|
|-----------------------------------------|
|-----------------------------------------|
|-----------------------------------------|
|--7----7--7----7--7---8----8--8----8--8--|
|--5----5--5----5--5---6----6--6----6--6--|
       PM...........|      PM...........|

||------------------------------|---------------------------|
||*-----------------------------|---------------------------|
||------------------------------|---------------------------|
||------------------------------|---------------------------|
||*-------7-7------8------5-----|--7-7-----8-----7-7-----8--|
||--0--0-------0------0------0--|-------0-----0-------0--6--|
   PM...|     PM     PM      PM         PM    PM      PM
                                ____________________________
                               |1.                          |
|------------------------------|----------------------------||
|------------------------------|---------------------------*||
|------------------------------|----------------------------||
|------------------------------|------------------------7---||
|--------7-7------8------5-----|--7-7-----8-----7-7-----5--*||
|--0--0-------0------0------0--|-------0-----0-------0------||
  PM...|     PM     PM     PM         PM    PM      PM
 ___________________________
|2.                         |
|---------------------------|------------|------------|
|---------------------------|------------|------------|
|---------------------------|--4---------|------------|
|------------------------4--|--4----5----|--7----5----|
|--7-7-----3-----5-5-----2--|--2----5----|--7----5----|
|-------0-----0-------0-----|-------3----|--5----3----|
       PM    PM      PM
                                         DS al coda
|--------------------------------------------------|
|--------------------------------------------------|
|--------------------------------------------------|
|--------------------------------------------------|
|--4--4--4--4--4--4--4--4--4--4--4--4--4--4--4--4--|
|--2--2--2--2--2--2--2--2--2--2--2--2--2--2--2--2--|

Coda
|----------------------|----------------------|
|----------------------|----------------------|
|----------------------|----------------------|
|----4----4------------|----------------------|
|----2----2----5----5--|----7----7----5----5--|
|--------------3----3--|----5----5----3----3--|

|--------------------------------------------------|--------------------|
|--------------------------------------------------|--------------------|
|--------------------------------------------------|--------------------|
|--------------------------------------------------|--------------------|
|--4--4--4--4--4--4--4--4--4--4--4--4--4--4--4--4--|--4-----------------|
|--2--2--2--2--2--2--2--2--2--2--2--2--2--2--2--2--|--2-----------------|

|------------|-----------------|-----------------|
|------------|-----------------|-----------------|
|------------|-----------------|-----------------|
|------------|-----------------|-----------------|
|--2----2----|--2----2--3-3-3--|--3--------------|
|--0----0----|--0----0--1-1-1--|--1--------------|

4.MASTER OF PUPPETS

Intro
-----------------------|
-----------------------|
-9--------7---6---5~~--|
-9--------7---6---5~~--|
-7--------5---4---3~~--|
-0---------------------|

(4 Times)
-----------------------|-------------|-----------------------------------|
-----------------------|-------------|-----------------------------------|
-----------------------|--7---6---5--|-----------------------------------|
-----------------------|--7---6---5--|-----------------------------------|
------7--------6-------|--5---4---3--|-----------------------------------|
-0-0------0-0-----0-0--|-------------|--0-0-7-0-0-6-0-0-5-0-4-0-3-0-2-0--|
 \' \'      \' \'     \' \'                   \' \'   \' \'   \' \'   \'   \'   \'   \'

(2Times)
------------------------------------------------------------------|
------------------------------------------------------------------|
------------------------------------------------------------------|
------------------------------------------------------------------|
-----2-----3-----4-----3-----2-2-----2-----3-----5/4---5/4---5/4--|
-0-1---0-1---0-1---0-1---0-1-----0-1---0-1-----0-3/2-0-3/2-0-3/2--|
 \'     \'     \'     \'     \'       \'     \'       \'     \'     \'


-----------------------------------------------------------------|
-----------------------------------------------------------------|
-----------------------------------------------------------------|
------------------------------------------------------------4----|
-----2-----3-----4-----3-----2-2-----2-----3-----4-----3----2----|
-0-1---0-1---0-1---0-1---0-1-----0-1---0-1---0-1---0-1----0------|
 \'     \'     \'     \'     \'       \'     \'     \'     \'      \'
------------------------------------------------------------------|
------------------------------------------------------------------|
------------------------------------------------------------------|
------------------------------------------------------------------|
-----2-----3-----4-----3-----2-2-----2-----3-----5/4---5/4---5/4--|
-0-1---0-1---0-1---0-1---0-1-----0-1---0-1-----0-3/2-0-3/2-0-3/2--|
 \'     \'     \'     \'     \'       \'     \'       \'     \'     \'
------------------------------------------------------------------|
------------------------------------------------------------------|
------------------------------------------------------------------|
-------------------------------------------------------------4----|
-----2-----3-----4-----3-----2-2-----2-----3-----4-----3-----2----|
-0-1---0-1---0-1---0-1---0-1-----0-1---0-1---0-1---0-1----0-------|
 \'     \'     \'     \'     \'       \'     \'     \'     \'      \'

----------------------------------------------|
----------------------------------------------|
----------------------------------------------|
----------------------------------------------|
-----2-----3-----4-----3-----2-2-----2-----3--|
-0-1---0-1---0-1---0-1---0-1-----0-1---0-1----|
 \'     \'     \'     \'     \'       \'     \'
----------------------------------------|
----------------------------------------|
----------------------------------------|
-------------------------------------2--|
--5/4---5/4---5/4---5/4---5/4---5/4--2--|
--3/2-0-3/2-0-3/2-0-3/2-0-3/2-0-3/2--0--|
      \'     \'     \'     \'     \'

Lead In
----------------------------------------|
----------------------------------------|
----------------------------------------|
------8------8------8------8------8~~~--|
----7------7------7------7------7-------|
--0------0------0------0------0---------|
  \'   *  \'   *  \'   *  \'   *  \'   *

* = Here it is a Semi-Harmonic (Give it a slightest touch of your thumb)


Verse (First Part)(6 Times)
------------------------------------------------------------|
------------------------------------------------------------|
------------------------------------------------------------|
------------------5/7--8/7--5/7-------------------5/7--5/7--|
------------------5/7--8/7--5/7-------------------5/7--5/7--|
-0-0-0-0-0-0-0-0--3/5--6/5--3/5--0-0-0-0-0-0-0-0--3/5--3/5--|
 \' \' \' \' \' \' \' \'                 \' \' \' \' \' \' \' \'

First Part With the Lyrics:

-End of passion play, crumbling away
-I\'m your source of self-destruction
-Veins that pump with fear, sucking darkest clear
-Leading on your death\'s construction


Verse (Second Part)(2 Times)
------------------------------------------------------------|
------------------------------------------------------------|
------------------------------------------------------------|
------------------4-4---5/4-4-4-------------------4----4----|
------------------0-2---3/2-0-2-------------------0h2--0h2--|
-2-2-2-2-2-2-2-2----------------2-2-2-2-2-2-2-2-------------|
 \' \' \' \' \' \' \' \'                \' \' \' \' \' \' \' \'

Second Part with the Lyrics:

-Taste me, you will see
-More is all you need
-You\'re dedicated to
-How I\'m killing you


Lead in To Pre-Chorus
------------------|
------------------|
-4-4-4-4-4-4-4-4--|
-4-4-4-4-4-4-4-4--|
-2-2-2-2-2-2-2-2--|
------------------|
 \' \' \' \' \' \' \' \'

Pre-Chorus (3 Times)
---------------------------------------------------------------------|
---------------------------------------------------------------------|
-9---------7--9-----------------------------------------------8------|
-9---------7--9--------9--------------------10---9------------8---9--|
-7---------5--7---7-9-----10-9h10-----------10---9------------6---9--|
-0----0-0---------------------------8-8-8-8--8---7---8-8-8-8------7--|
      \' \'         \' \'               \' \' \' \'          \' \' \' \'

Then This
-----------------------------------------------------------------------------|
-----------------------------------------------------------------------------|
-9---------7--9--------------------------------------------------------------|
-9---------7--9--------9--------------------10---9-----7--5--4------4--------|
-7---------5--7---7-9-----10-9h10-----------10---9-----9--7--6------6--7--6--|
-0----0-0---------------------------8-8-8-8--8---7---------------------8--7--|
      \' \'         \' \'               \' \' \' \'            \'  \'  \'      \'  \'  \'
Pre-Chorus with the Lyrics:

-Come crawling faster
-Obey your master
-Your life burns faster
-Obey your master


Lead In to Chorus
--------|--------|
--------|--------|
--------|--------|
--2--2--|--3--3--|
--2--2--|--3--3--|
--0--0--|--1--1--|

Lead In to Chorus with the Lyrics:

-Master!
-Master!

Chorus (First Part)
--------------------------------------------------|
--------------------------------------------------|
--------------------------------------------------|
----------------------------5~-------4-------2~---|
--2~-----------------5~-----3~--0-0--2--0-0--0~---|
--0~--0-0--2p0--0-0--3~---------------------------|
      \' \'       \' \'             \' \'     \' \'

--------------------------------------------------|
--------------------------------------------------|
--------------------------------------------------|
--7~-------5-------4~-------9~-------7-------5~---|
--5~-------3-------2~-------7~-------5-------3~---|
------3-3-----3-3---------------0-0-----0-0-------|
      \' \'     \' \'           \' \'     \' \'

First Chorus Part with the Lyrics:
-Master of puppets, I\'m pulling your strings
-Twisting your mind and smashing your dreams
-Blinded by me, you can\'t see a thing
-Just call my name, \'cause I\'ll hear you scream


Chorus (Second Part)
--------|--------|-------------------------|--------|--------|
--------|--------|-------------------------|--------|--------|
--------|--------|-------------------------|--------|--------|
--2--2--|--3--3--|---------------------5~--|--2--2--|--3--3--|
--2--2--|--3--3--|--2~-----------------3~--|--2--2--|--3--3--|
--0--0--|--1--1--|--0~--0-0--2p0--0-0------|--0--0--|--1--1--|
                        \' \'       \' \'

Second Chorus Part with the Lyrics:
-Master!
-Master!
-Just call my name, \'cause I\'ll hear you scream
-Master!
-Master!


------------------------------------------------------------------|
------------------------------------------------------------------|
------------------------------------------------------------------|
-------------------------------------------------------------4----|
-----2-----3-----4-----3-----2-2-----2-----3-----4-----3-----2----|
-0-1---0-1---0-1---0-1---0-1-----0-1---0-1---0-1---0-1----0-------|
 \'     \'     \'     \'     \'       \'     \'     \'     \'      \'

----------------------------------------------|
----------------------------------------------|
----------------------------------------------|
----------------------------------------------|
-----2-----3-----4-----3-----2-2-----2-----3--|
-0-1---0-1---0-1---0-1---0-1-----0-1---0-1----|
 \'     \'     \'     \'     \'       \'     \'
--------------------------------------|
--------------------------------------|
--------------------------------------|
--------------------------------------|
--5/4---5/4---5/4---5/4---5/4---5/4---|
--3/2-0-3/2-0-3/2-0-3/2-0-3/2-0-3/2---|

Verse (First Part)(6 Times)
------------------------------------------------------------|
------------------------------------------------------------|
------------------------------------------------------------|
------------------5/7--8/7--5/7-------------------5/7--5/7--|
------------------5/7--8/7--5/7-------------------5/7--5/7--|
-0-0-0-0-0-0-0-0--3/5--6/5--3/5--0-0-0-0-0-0-0-0--3/5--3/5--|
 \' \' \' \' \' \' \' \'                 \' \' \' \' \' \' \' \'

First Part With the Lyrics:

-Needlework the way, never you betray
-Life of death becoming clearer
-Pain monopoly, ritual misery
-Chop your breakfast on a mirror


Verse (Second Part)(2 Times)
------------------------------------------------------------|
------------------------------------------------------------|
------------------------------------------------------------|
------------------4-4---5/4-4-4-------------------4----4----|
------------------0-2---3/2-0-2-------------------0h2--0h2--|
-2-2-2-2-2-2-2-2----------------2-2-2-2-2-2-2-2-------------|
 \' \' \' \' \' \' \' \'                \' \' \' \' \' \' \' \'

Second Part with the Lyrics:

-Taste me, you will see
-More is all you need
-You\'re dedicated to
-How I\'m killing you


Lead in To Pre-Chorus
------------------|
------------------|
-4-4-4-4-4-4-4-4--|
-4-4-4-4-4-4-4-4--|
-2-2-2-2-2-2-2-2--|
------------------|
 \' \' \' \' \' \' \' \'

Pre-Chorus (3 Times)
---------------------------------------------------------------------|
---------------------------------------------------------------------|
-9---------7--9-----------------------------------------------8------|
-9---------7--9--------9--------------------10---9------------8---9--|
-7---------5--7---7-9-----10-9h10-----------10---9------------6---9--|
-0----0-0---------------------------8-8-8-8--8---7---8-8-8-8------7--|
      \' \'         \' \'               \' \' \' \'          \' \' \' \'

Then This
-----------------------------------------------------------------------------|
-----------------------------------------------------------------------------|
-9---------7--9--------------------------------------------------------------|
-9---------7--9--------9--------------------10---9-----7--5--4------4--------|
-7---------5--7---7-9-----10-9h10-----------10---9-----9--7--6------6--7--6--|
-0----0-0---------------------------8-8-8-8--8---7---------------------8--7--|
      \' \'         \' \'               \' \' \' \'            \'  \'  \'      \'  \'  \'
Pre-Chorus with the Lyrics:

-Come crawling faster
-Obey your master
-Your life burns faster
-Obey your master


Lead In to Chorus
--------|--------|
--------|--------|
--------|--------|
--2--2--|--3--3--|
--2--2--|--3--3--|
--0--0--|--1--1--|

Lead In to Chorus with the Lyrics:

-Master!
-Master!

Chorus (First Part)
--------------------------------------------------|
--------------------------------------------------|
--------------------------------------------------|
----------------------------5~-------4-------2~---|
--2~-----------------5~-----3~--0-0--2--0-0--0~---|
--0~--0-0--2p0--0-0--3~---------------------------|
      \' \'       \' \'             \' \'     \' \'

--------------------------------------------------|
--------------------------------------------------|
--------------------------------------------------|
--7~-------5-------4~-------9~-------7-------5~---|
--5~-------3-------2~-------7~-------5-------3~---|
------3-3-----3-3---------------0-0-----0-0-------|
      \' \'     \' \'           \' \'     \' \'

First Chorus Part with the Lyrics:
-Master of puppets, I\'m pulling your strings
-Twisting your mind and smashing your dreams
-Blinded by me, you can\'t see a thing
-Just call my name, \'cause I\'ll hear you scream


Chorus (Second Part)
--------|--------|-------------------------|--------|--------|
--------|--------|-------------------------|--------|--------|
--------|--------|-------------------------|--------|--------|
--2--2--|--3--3--|---------------------5~--|--2--2--|--3--3--|
--2--2--|--3--3--|--2~-----------------3~--|--2--2--|--3--3--|
--0--0--|--1--1--|--0~--0-0--2p0--0-0------|--0--0--|--1--1--|
                        \' \'       \' \'

Second Chorus Part with the Lyrics:
-Master!
-Master!
-Just call my name, \'cause I\'ll hear you scream
-Master!
-Master!


Interlude (James)(Clean w/Chorus effect)(2Times)
----------------------0h2p0-------3---------------------------------------------------|
----------------3------------3------------3---3-------0-------0----------0----------0-|
-------0-----2-----2------------2-------0---0---0-----------2---------2----------2----|
-----2----0----------------------------------------2--------------------------1-------|
---2---------------------------------3-------------------0-------0-2--------2---------|
-0------------------------------------------------------------------------------------|

James & Kirk Solo
-----19/22--19--------20---17-------------------20---17-------|
-20---------20---20---22---19---19---19-19-19---22---19---19--|
-21--------------21-------------19---19-19-19-------------19--|
--------------------------------------------------------------|
--------------------------------------------------------------|
--------------------------------------------------------------|

-19---15-------------------19---15--------17---15h17p15-14-------|
-20---17---17---17-17-17---20---17---17---19---17h19p17-16---17--|
-----------17---17-17-17-------------17----------------------17--|
-----------------------------------------------------------------|
-----------------------------------------------------------------|
-----------------------------------------------------------------|


-----------14-------14---16---17---19--|
-16---17--------17--16---17---19---20--|
-16---17--/19---17---------------------|
---------------------------------------|
---------------------------------------|
---------------------------------------|

James Solo
---------------14-15---14-15-17-15-14-19-15-12h15p12----------------|
-17---------17---------------------------------------13-----15b-15b-|
--------------------------------------------------------------------|
--------------------------------------------------------------------|
--------------------------------------------------------------------|
--------------------------------------------------------------------|

-15-14------15-14-------------------------------------------------|
-------12---------12h15p12-------------15b------------------------|
--------------------------------12-14--14b--14b---12----12--------|
-----------------------------------------------------14-----12----|
------------------------------------------------------------------|
------------------------------------------------------------------|

----------------------------------------------------------------------------|
----------------------------------------------------------------------------|
-12----14-12---11--------14---12---11h12p11---------------------------------|
--------------------12----------------------10------------9-10--------9-10--|
-------------------------------------------------------12-------------------|
----------------------------------------------------------------------------|

-----------------------------------15---14--11h12p11-----------/19--|
-------------------------12--------------------------12---10--------|
-------------9--11--12-------12-------------------------------------|
-12--10--12---------------------------------------------------------|
--------------------------------------------------------------------|
--------------------------------------------------------------------|

Now Back to this:
-----19/22--19--------20---17-------------------20---17-------|
-20---------20---20---22---19---19---19-19-19---22---19---19--|
-21--------------21-------------19---19-19-19-------------19--|
--------------------------------------------------------------|
--------------------------------------------------------------|
--------------------------------------------------------------|

-19---15-------------------19---15--------17---15h17p15-14-------|
-20---17---17---17-17-17---20---17---17---19---17h19p17-16---17--|
-----------17---17-17-17-------------17----------------------17--|
-----------------------------------------------------------------|
-----------------------------------------------------------------|
-----------------------------------------------------------------|


-----------14-------14---16---17---19--|
-16---17--------17--16---17---19---20--|
-16---17--/19---17---------------------|
---------------------------------------|
---------------------------------------|
---------------------------------------|

(James)(Distorted)(2Times)
----------------------0h2p0-------3---------------------------------------------------|
----------------3------------3------------3---3-------0-------0----------0----------0-|
-------0-----2-----2------------2-------0---0---0-----------2---------2----------2----|
-----2----0----------------------------------------2--------------------------1-------|
---2---------------------------------3-------------------0-------0-2--------2---------|
-0------------------------------------------------------------------------------------|
 \' \' \' \'  \'  \'  \'  \'                 \'  \'   \'   \'  \'     \'  \'    \'

Build Up (First Part)
-----------------------------------|
-----------------------------------|
-4-4-4-4-4-4-4-4--4-4-4-4-4-4-4-4--|
-2-2-2-2-2-2-2-2--2-2-2-2-2-2-2-2--|
-2-2-2-2-2-2-2-2--2-2-2-2-2-2-2-2--|
-0-0-0-0-0-0-0-0--0-0-0-0-0-0-0-0--|
 \' \' \' \' \' \' \' \'  \' \' \' \' \' \' \' \'

Build Up (Second Part)(6 Times)
-------------------------------------|
-------------------------------------|
-------------------------------------|
-----------------------------------6-|
--4-4-5-4-4-4-5-4-4--4-4-5-4-4-4-5-4-|
--2-2-3-2-2-2-3------2-2-3-2-2-2-3---|
  \' \' \' \' \' \' \' \' \'  \' \' \' \' \' \' \' \'

Second Part of Build Up with lyrics:

-Master, master
-Where\'s the dreams that I\'ve been after?
-Master, master
-You promised only lies
-Laughter, laughter
-All I hear and see is laughter
-Laughter, laughter
-Laughing at my cries


Lead In
-------------------|
-------------------|
-------------------|
--5~~~----4~~~-----|
--5~~~----4~~~-----|
--3~~~----2~~~-----|


Lead In with Lyrics:

-Fix Me!


Kirk Fast Solo
-17p12----------12-17p12----------12-17p12----------12-15p12----------12--|
-------13-12-13----------13-12-13----------13-12-13----------13-12-13-----|
--------------------------------------------------------------------------|
--------------------------------------------------------------------------|
--------------------------------------------------------------------------|
--------------------------------------------------------------------------|

-17p12----------12-17p12----------12-17p12-------12-12-15p12----|
-------13-13-12----------13-12-13----------13-12-------------13-|
----------------------------------------------------------------|
----------------------------------------------------------------|
----------------------------------------------------------------|
----------------------------------------------------------------|

-----19-19-17-17-17-17-15-15-15-14-14-14-14-17-17-17-15-15-15-14--|
-/17--------------------------------------------------------------|
------------------------------------------------------------------|
------------------------------------------------------------------|
------------------------------------------------------------------|
------------------------------------------------------------------|

-14-14-14-14---------------------------------17h19------------------|
-------------15---17b--17b---------17p15p14---------15p14-----------|
-----------------------------------------------------------16-14-==-|
--------------------------------------------------------------------|
--------------------------------------------------------------------|
--------------------------------------------------------------------|

-x-------------------------------------------------------------|
---------------------------------------------------------------|
---------------------------------------------------------2--4--|
---------------------------------------------------------------|
---------------------------------------------------------------|
---------------------------------------------------------------|

x = This note produced by pulling string off edge of fretboard and
\"fretting\" it against pickup.

---------------------------------------------------------------------|
------------------------------------/15--13--12------13--12----------|
-2b-4--0--2-0h2----------------------------------14----------14--12--|
-----------------4--2---2-h4-----------------------------------------|
---------------------------------------------------------------------|
---------------------------------------------------------------------|

-----------------------------------------------------------|
-------------12----12-12-12-12-12-12-15-13-12-15-13-12-13--|
-11--12--14------------------------------------------------|
-----------------------------------------------------------|
-----------------------------------------------------------|
-----------------------------------------------------------|

-12----------12-------------14-------14-------15-15--------|
----15-15-13----15-13h15-15----17-15----15-17-------17/19--|
-----------------------------------------------------------|
-----------------------------------------------------------|
-----------------------------------------------------------|
-----------------------------------------------------------|

-17-------19-17-------17----------19-17-------17----------19-17--------|
----20-19-------19-19----21-19-19-------19-19----21-19-19-------19-19--|
-----------------------------------------------------------------------|
-----------------------------------------------------------------------|
-----------------------------------------------------------------------|
-----------------------------------------------------------------------|

-17-------------19-17-------------14--14------14------------14--|
----21b-19b-19b-------19b-19b-17b--------17b------17b-17b-------|
----------------------------------------------------------------|
----------------------------------------------------------------|
----------------------------------------------------------------|
----------------------------------------------------------------|

-19-p14------19-p14--14----------14------14------14-14-14------14-14--|
---------17b---------17b-----17b-----17b-----17b-----------17b--------|
----------------------------------------------------------------------|
----------------------------------------------------------------------|
----------------------------------------------------------------------|
----------------------------------------------------------------------|

-----15b-----15b-----15b-----15b-----17b-----17b-----18b-----18b--|
-18b-----18b-----18b-----18b-----20b-----20b-----21b-----21b------|
------------------------------------------------------------------|
------------------------------------------------------------------|
------------------------------------------------------------------|
------------------------------------------------------------------|

-----19b-----19b-22b-----/////---------------|
-22b-----22b---------------------------------|
---------------------------------------------|
---------------------------------------------|
---------------------------------------------|
---------------------------------------------|


Post solo (2Times)
----------------------------------------------------------------|
----------------------------------------------------------------|
----------------------------------------------------------------|
-----3-----3-----3-----3-------------3-----3-----3-----3-----4--|
-----3-----3-----3-----3-----2-2-----3-----3-----3-----3-----2--|
-0-0-1-0-0-1-0-0-1-0-0-1-0-0-----0-0-1-0-0-1-0-0-1-0-0-1-0-0----|
 \' \'   \' \'   \' \'   \' \'   \' \'     \' \'   \' \'   \' \'   \' \'   \' \'
Then this -
------------------------------------------------------------------|
------------------------------------------------------------------|
------------------------------------------------------------------|
------------------------------0-2-4-5------------------0----------|
------------------------0-2-3---------3------3-3-3-2-3---3-2------|
-0-0-0-0-0-0-0-0--0-2-3--------------------------------------3-2--|
 \' \' \' \' \' \' \' \'  \' \' \' \' \' \' \' \'            \' \' \' \' \' \' \' \' \' \'


Two guitars
-------------------------------------------------------------------------|
-------------------------------------------------------------------------|
----------------------------------------2-4------------------------------|
-------------------------------0-4-2/5--4-5-2------2-2-2-0-2-4-2-0-------|
-------------------------0-2-3--------------3------3-3-3-2-3-5-3-2-3-2---|
-0-0-0-0-0-0-0-0-0-0-2-3-------------------------------------------3-2---|
 \' \' \' \' \' \' \' \' \' \' \' \' \' \' \' \' \' \' \'             \' \' \' \'
------------------------------------------------------------------------|
---------------------------------------------5~~------------------------|
----------------------------------------2-4--5~~------------------------|
-------------------------------0-4-2/5--4-5--5~~------------------------|
-------------------------0-2-3---------------3~~---3-3-3-2-3-5-3-2------|
-0-0-0-0-0-0-0-0-0-0-2-3-------------------------------------------3-2--|
 \' \' \' \' \' \' \' \' \' \' \' \' \' \' \' \' \' \' \'             \' \' \' \'

-------------------------------------|
-------------------------------------|
-4~~--------------------2------------|
-2~~------------5-5-5-4-----5-4-2-4--|
-2~~------------3-3-3-2-3-5-3-2------|
-0~~----------------------------3-2--|
                \' \' \' \' \' \' \' \' \' \'

------------------------------------------------------------------|
------------------------------------------------------------------|
------------------------------------------------------------------|
------------------------------------------------------------------|
-----2-----3-----4-----3-----2-2-----2-----3-----5/4---5/4---5/4--|
-0-1---0-1---0-1---0-1---0-1-----0-1---0-1-----0-3/2-0-3/2-0-3/2--|
 \'     \'     \'     \'     \'       \'     \'       \'     \'     \'

----------------------------------------------|
----------------------------------------------|
----------------------------------------------|
----------------------------------------------|
-----2-----3-----4-----3-----2-2-----2-----3--|
-0-1---0-1---0-1---0-1---0-1-----0-1---0-1----|
 \'     \'     \'     \'     \'       \'     \'

--------------------------------------|
--------------------------------------|
--------------------------------------|
--------------------------------------|
--5/4---5/4---5/4---5/4---5/4---5/4---|
--3/2-0-3/2-0-3/2-0-3/2-0-3/2-0-3/2---|
      \'     \'     \'     \'     \'

Verse (First Part)(6 Times)
------------------------------------------------------------|
------------------------------------------------------------|
------------------------------------------------------------|
------------------5/7--8/7--5/7-------------------5/7--5/7--|
------------------5/7--8/7--5/7-------------------5/7--5/7--|
-0-0-0-0-0-0-0-0--3/5--6/5--3/5--0-0-0-0-0-0-0-0--3/5--3/5--|
 \' \' \' \' \' \' \' \'                 \' \' \' \' \' \' \' \'

First Part With the Lyrics:

-Hell is worth all that, natural habitat
-Just a rhyme without a reason
-Never-ending maze, drift on numbered days
-Now your life is out of season


Verse (Second Part)(2 Times)
------------------------------------------------------------|
------------------------------------------------------------|
------------------------------------------------------------|
------------------4-4---5/4-4-4-------------------4----4----|
------------------0-2---3/2-0-2-------------------0h2--0h2--|
-2-2-2-2-2-2-2-2----------------2-2-2-2-2-2-2-2-------------|
 \' \' \' \' \' \' \' \'                \' \' \' \' \' \' \' \'

Second Part with the Lyrics:

-I will occupy
-I will help you die
-I will run through you
-Now I rule you, too


Lead in To Pre-Chorus
------------------|
------------------|
-4-4-4-4-4-4-4-4--|
-4-4-4-4-4-4-4-4--|
-2-2-2-2-2-2-2-2--|
------------------|
 \' \' \' \' \' \' \' \'

Pre-Chorus (3 Times)
---------------------------------------------------------------------|
---------------------------------------------------------------------|
-9---------7--9-----------------------------------------------8------|
-9---------7--9--------9--------------------10---9------------8---9--|
-7---------5--7---7-9-----10-9h10-----------10---9------------6---9--|
-0----0-0---------------------------8-8-8-8--8---7---8-8-8-8------7--|
      \' \'         \' \'               \' \' \' \'          \' \' \' \'

Then This
-----------------------------------------------------------------------------|
-----------------------------------------------------------------------------|
-9---------7--9--------------------------------------------------------------|
-9---------7--9--------9--------------------10---9-----7--5--4------4--------|
-7---------5--7---7-9-----10-9h10-----------10---9-----9--7--6------6--7--6--|
-0----0-0---------------------------8-8-8-8--8---7---------------------8--7--|
      \' \'         \' \'               \' \' \' \'            \'  \'  \'      \'  \'  \'
Pre-Chorus with the Lyrics:

-Come crawling faster
-Obey your master
-Your life burns faster
-Obey your master


Lead In to Chorus
--------|--------|
--------|--------|
--------|--------|
--2--2--|--3--3--|
--2--2--|--3--3--|
--0--0--|--1--1--|

Lead In to Chorus with the Lyrics:

-Master!
-Master!

Chorus (First Part)
--------------------------------------------------|
--------------------------------------------------|
--------------------------------------------------|
----------------------------5~-------4-------2~---|
--2~-----------------5~-----3~--0-0--2--0-0--0~---|
--0~--0-0--2p0--0-0--3~---------------------------|
      \' \'       \' \'             \' \'     \' \'

--------------------------------------------------|
--------------------------------------------------|
--------------------------------------------------|
--7~-------5-------4~-------9~-------7-------5~---|
--5~-------3-------2~-------7~-------5-------3~---|
------3-3-----3-3---------------0-0-----0-0-------|
      \' \'     \' \'           \' \'     \' \'

First Chorus Part with the Lyrics:
-Master of puppets, I\'m pulling your strings
-Twisting your mind and smashing your dreams
-Blinded by me, you can\'t see a thing
-Just call my name, \'cause I\'ll hear you scream


Chorus (Second Part)
--------|--------|-------------------------|--------|--------|
--------|--------|-------------------------|--------|--------|
--------|--------|-------------------------|--------|--------|
--2--2--|--3--3--|---------------------5~--|--2--2--|--3--3--|
--2--2--|--3--3--|--2~-----------------3~--|--2--2--|--3--3--|
--0--0--|--1--1--|--0~--0-0--2p0--0-0------|--0--0--|--1--1--|
                        \' \'       \' \'

Second Chorus Part with the Lyrics:
-Master!
-Master!
-Just call my name, \'cause I\'ll hear you scream
-Master!
-Master!


Outro
------------------------------------------------------------|
------------------------------------------------------------|
------------------------------------------------------------|
-2----------------5/7--8/7--5/7--2----------------5/7--5/7--|
-2----------------5/7--8/7--5/7--2----------------5/7--5/7--|
-0-0-0-0-0-0-0-0--3/5--6/5--3/5--0-0-0-0-0-0-0-0--3/5--3/5--|
   \' \' \' \' \' \' \'                   \' \' \' \' \' \' \'


Ending
----------------------------------|---------|
----------------------------------|---------|
----------------------------------|--4~~~~--|
----------------------------------|--2~~~~--|
-----------------5/4---5/4---5/4--|--2~~~~--|
-----------------3/2-0-3/2-0-3/2--|--0~~~~--|
                     \'     \'

Ending With Psychotic Laughter

5.WHIPLASH

|-----------||----------------------||-----------|---------|---------|---------|
|-----------||*--------------------*||-----------|---------|---------|---------|
|-----------||----------------------||-----------|---------|---------|---------|
|--9--9--9--||---9--------9--9--9---||--9--------|--9------|---------|---------|
|--7--7--7--||*--7--------7--7--7--*||--7--------|--7------|---------|---------|
|-----------||----------------------||-----------|---------|---------|---------|


|----------|----------|----------|----------|----------|-----------|----------|
|----------|----------|----------|----------|----------|-----------|----------|
|----------|----------|----------|----------|----------|--9--------|----------|
|----------|----------|----------|----------|----------|--9--------|----------|
|----------|----------|----------|----------|----------|--7--------|----------|
|----------|----------|----------|----------|----------|--0--------|----------|


|-----------|----------|------------|-----------|-----------|--------|
|-----------|----------|------------|-----------|-----------|--------|
|--9--------|----------|--9--9------|--9--------|--9--------|--------|
|--9--------|----------|--9--9------|--9--------|--9--------|--------|
|--7--------|----------|--7--7------|--7--------|--7--------|--------|
|--0--------|----------|--0--0------|--0--------|--0--------|--------|

                                                          play 3 times
||---------------------------------|----------------------------------||
||*--------------------------------|---------------------------------*||
||---------------------------------|----------------------------------||
||---------------------------------|------------------7----6----------||
||*--------------------------------|------------------7----6----5p0--*||
||--0--0-0-0-0-0-0-0-0-0-0-0-0-0-0-|-0-0-0-0-0-0-0-0------------------||
      PM.............................................

|---------------------------------|--------------------------------|
|---------------------------------|--------------------------------|
|---------------------------------|--------------------------------|
|---------------------------------|-------------------7----6----5--|
|---------------------------------|-------------------7----6----5--|
|--0--0-0-0-0-0-0-0-0-0-0-0-0-0-0-|-0-0-0-0-0-0-0-0----------------|
      PM.............................................

  Rhy Fig 1                                            end Rhy Fig 1
||---------------------------------|--------------------------------||
||*--------------------------------|-------------------------------*||
||---------------------------------|--------------------------------||
||---------------------------------|------------------7----6----5---||
||*--------------------------------|------------------7----6----5--*||
||--0--0-0-0-0-0-0-0-0-0-0-0-0-0-0-|-0-0-0-0-0-0-0-0----------------||
      PM.............................................

                                                             play 4 times
  Rhy Fig 2                                                 end Rhy Fig 2
||----------------------------------|------------------------------------||
||*---------------------------------|-----------------------------------*||
||----------------------------------|------------------------------------||
||----------------------------------|------------------------------5-----||
||*---------------------------------|------------------------------5----*||
||--0-0-0-0-0-0-0-0-0-0-0-0-0-0-0-0-|-0-0-0-0-0-0-0-0-0-0-0-0-0-0--------||
   PM.............................................................


 S/S

 w/ Rhy Fig 2 (4 times)
|--------------------------------------|
|--------------------------------------|
|--------------------------------------|
|--------------------------------------|
|--------------------------------------|
|--------------------------------------|
 1. Late at night...
 2.3.4.


  Chorus


  Rhy Fig 3                                     end Rhy Fig 3
||--------------------|--------------------------------------||
||--------------------|--------------------------------------||
||--------------------|--------------------------------------||
||--5--------5--4--2--|--------------------------------------||
||--3--------3--2--0--|-------4--4--4----4--4--4----4--4-----||
||--------------------|--0h2--2--2--2----2--2--2----2--2--0--||
                             PM.............................

 Note: Chorus consists of 3x Rhy Fig 3 plus one bar w/ no guitars.

                                     __________________________________
                                    |1,2,3.                            |
 w/ Rhy Fig 1 (4 times)
||----------------------------------|----------------------------------||
||*---------------------------------|---------------------------------*||
||----------------------------------|----------------------------------||
||----------------------------------|----------------------------------||
||*---------------------------------|---------------------------------*||
||----------------------------------|----------------------------------||


  _________________________________
 |4.

||---------------------------------|---------------------------------||
||---------------------------------|---------------------------------||
||---------------------------------|---------------------------------||
||---------------------------------|---------------------------------||
||---------------------------------|---------------------------------||
||---------------------------------|---------------------------------||


                                                           play 4 times
  Rhy Fig 4                                               end Rhy Fig 4
||----------------------------------|----------------------------------||
||*---------------------------------|---------------------------------*||
||----------------------------------|----------------------------------||
||-----------5-----5----------------|----------5-----5-----------------||
||*--7p5-----5-----5----------------|--7p5-----5-----5----------------*||
||--------7-----7-------0--0--0--0--|-------7-----7-------0--0--0--0---||
                       PM..........                      PM..........


 Guitar solo

 w/ Rhy Fig 4

|--15p14p12------12--15p14p12------12--17p15p12------12--17p15p12------12--|
|------------15----------------15----------------15----------------15------|
|--------------------------------------------------------------------------|
|--------------------------------------------------------------------------|
|--------------------------------------------------------------------------|
|--------------------------------------------------------------------------|

|--17p15p12------12--17p15p12------12--17p15p12------12--17p15p12------12--|
|------------15----------------15----------------15----------------15------|
|--------------------------------------------------------------------------|
|--------------------------------------------------------------------------|
|--------------------------------------------------------------------------|
|--------------------------------------------------------------------------|

|--17p15p12------12--17p15p12------12--17p15p12------12--17p15p12------12--|
|--------------------------------------------------------------------------|
|------------15----------------15----------------15----------------15------|
|--------------------------------------------------------------------------|
|--------------------------------------------------------------------------|
|--------------------------------------------------------------------------|

|-17b19---------------------------|------------------------------------------------|
|--------15--15\-------------x--x-|-----12-------12-------12-------14--12----------|
|-----------------14b16------x--x-|-----12-------12-------12-------14--12-------12-|
|------------------------12-------|-14-------14-------14-------14-----------14-----|
|---------------------------------|------------------------------------------------|
|---------------------------------|------------------------------------------------|

|--------------------12h15p12-----------------------------------------|
|---------12--15p12------------15-----12--------12--15p12-------------|
|--14b16---------------------------14b16--14b16--------------14--12\--|
|---------------------------------------------------------------------|
|---------------------------------------------------------------------|
|---------------------------------------------------------------------|

          AH      AH               AH
|-------------------------------|-----------------------------|
|-------------------------------|-----------------------------|
|--2b4----{2}b4--r{2}-b4----r2--|--{2}b4----rp0------------0--|
|-------------------------------|----------------2------2-----|
|-------------------------------|-----------------------------|
|-------------------------------|-----------------------------|

|--------------------------------------|--------------------------------------|
|--------------------------------------|--------------------------------------|
|--2p0h2p0--4p0h4p0--5p0h5p0--4p0h4p0--|--5p0h5p0--7p0h7p0--9p0h9p0--7p0h7p0--|
|--------------------------------------|--------------------------------------|
|--------------------------------------|--------------------------------------|
|--------------------------------------|--------------------------------------|

|------------------------------------------|--------------------------------------|
|------------------------------------------|------------------------------------7-|
|-9p0h9p0--10p0h10p0--12p0h12p0--10p0h10p0-|-9p0h9p0--7p0h7p0--9b11---9b10---9----|
|------------------------------------------|--------------------------------------|
|------------------------------------------|--------------------------------------|
|------------------------------------------|--------------------------------------|

|-----------------10p7------7-----7--------------|
|--10p7-----10p7--------10--7-----7--10p7--------|
|--------9---------------------9-----------9--7--|
|------------------------------------------------|
|------------------------------------------------|
|------------------------------------------------|

|--------------------------------------------------|
|--------------------------------------------------|
|--7--7--9p7---------------------------------------|
|-------------9p7-----7--9p7-----------------------|
|------------------9----------9--7--5--------------|
|--------------------------------------7--7--~--~--|

|--------------------------------------------------------------------|
|----------------------------------------------------------------12--|
|--------------------------12-----------------12------12--14b16------|
|----------------------12--12--12--14p12------12--14-----------------|
|------12--12--12--14---------------------14-------------------------|
|--14----------------------------------------------------------------|

|-------------12--15p12------------------------------------------------|
|---------12-------------15--12------12--15p12------12--15p12------12--|
|--14b16-------------------------14-------------14-------------14------|
|----------------------------------------------------------------------|
|----------------------------------------------------------------------|
|----------------------------------------------------------------------|

|--------------------------|------------------|
|--15b17----------------0--|------------------|
|-----------------------0--|--15b17--r15-\----|
|--------------------------|------------------|
|--------------------------|------------------|
|--------------------------|------------------|


 w/ Rhy Fig 1 (4 times)

|-----12--12-----12----12--------12--12--12--------12----12--12--12--12--|
|--15b17------15b17-------15b17--------------15b17-----------------------|
|------------------------------------------------------------------------|
|------------------------------------------------------------------------|
|------------------------------------------------------------------------|
|------------------------------------------------------------------------|


|--12-------12----12--12---------12-----12--12---------12--|
|-----15b17----15b17-----------------15b17------15b17------|
|-------------------------14b15----------------------------|
|----------------------------------------------------------|
|----------------------------------------------------------|
|----------------------------------------------------------|


|--15--12------12--15p12------12--15p12-------------------------|
|----------15-------------15-------------15--12--12--12--15p12--|
|---------------------------------------------------------------|
|---------------------------------------------------------------|
|---------------------------------------------------------------|
|---------------------------------------------------------------|


|---------------------------------------------------------|
|---------------------------------------------------------|
|--14--12------12--14p12------12--14p12------12--14--12\--|
|----------14-------------14-------------14---------------|
|---------------------------------------------------------|
|---------------------------------------------------------|
  PM...........................................

|--3p1p0--3p1p0--3p1p0--5p3p0--6p4p0--6p4p0--7p5p0--8p6p0--|
|----------------------------------------------------------|
|----------------------------------------------------------|
|----------------------------------------------------------|
|----------------------------------------------------------|
|----------------------------------------------------------|

|--8p6p0--9p7p0--10p7p0--11p8p0--12p9p0--12p9p0--14p11p0--15p12p0--|
|------------------------------------------------------------------|
|------------------------------------------------------------------|
|------------------------------------------------------------------|
|------------------------------------------------------------------|
|------------------------------------------------------------------|

|-15p12p0--16p13p0--17p13p0--17p14p0--18p15p0--19p16p0--20p17p0--21p18p0-|
|------------------------------------------------------------------------|
|------------------------------------------------------------------------|
|------------------------------------------------------------------------|
|------------------------------------------------------------------------|
|------------------------------------------------------------------------|


                                                  go back to the sign S/S
|--21p18p0--22p19--22p19--22p19--22b24----22b24--|--22b24----------------|
|------------------------------------------------|-----------------------|
|------------------------------------------------|-----------------------|
|------------------------------------------------|-----------------------|
|------------------------------------------------|-----------------------|
|------------------------------------------------|-----------------------|

6.THE FOUR HORSEMEN

intro

2a)
D-----------------------------------------5h7p5-----|
A--7-5-7-5-7-5-7-5---5-7-5-7-5-7-5----5h7-------7p5-|
E--0-0-0-0-0-0-0-0-6---0-0-0-0-0-0--7---------------|
pm...........................................

2b) continued
D--------------------------------------5---7-5-|
A--7-5-7-5-7-5-7-5---5-7-5-7-5-7-5---5-3-5-5-3-|
E--0-0-0-0-0-0-0-0-6---0-0-0-0-0-0-6-----3-----|
pm...........................................
galloping


3)                           1st   2nd   3rd
D--------9-------9-------9-|-7-7-|-5-7-|-12-9-5---7-5-| repeat.
A--------7-------7-------7-|-5-5-|-3-5-|-10-7-3-5-5-3-|
E--0-0-0---0-0-0---0-0-0---|-----|-----|--------3-----|
pm......   .....   .....
main


4)
D--9--9-7--7-5--5-4-*-9--9-7--7-5--4-5-4---|
A--7--7-5--5-3--3-2-*-7--7-5--5-3--2-3-2-5-|
E-------------------*--------------------3-|
pm                                 .......
The horsemen are drawing nearer.
*=slide pick


5)
D----------------------------------9-9-----------10-10-|
A----------------------------------7-7-----------8--8--|
E--0-0-0-0-0--0-0-0-0-0--0-0-0-0-0-----0-0-0-0-0-------|
pm................................     .........


6)
D--------------------------------------------|
A--7-5----5-------------------7-5----5-------|
E------7----7-6-5-3-5--0-3-5------7----7-6-5-|


7)
D--5-6-7----------3-2-0-2-------5-6-7-|
A--3-4-5------0-3---------------3-4-5-|
E---------0-0-------------0-0-0-------|
pm        ...             .....
Time...


8)
D--------------------------5-6-7-|
A--------------------------3-4-5-|
E--0-0-0-0-0-0-0-0-0-0-0-0-------|


9)
G--------------------------4---------2-----|
D------9---------7---------------------2---|
A--7-7---7---5-5---5---3-3---3---2-2-----2-|
E----------7---------5---------3-----------|
Not often played live (although I have heard it)


--------------------------------------------------------------------

solo 1
|-----------------------------------------|--15b--12--15--14b~~~----|
|--15b--15b--15b~~~--(15)p12--15--15b~~~--|-------------------------|
|-----------------------------------------|---------------------\9--|
|-----------------------------------------|-------------------------|
|-----------------------------------------|-------------------------|
|-----------------------------------------|-------------------------|

7---------9--7------------10--9--7----------|
---10--7--------10--8--7------------7h10p7--|
--------------------------------------------|
--------------------------------------------|
--------------------------------------------|
--------------------------------------------|

---------------------------------|-------------------------------------|
7--10p7--------------------------|-----12--12--12----12----12--12--12--|
---------9--7--6h7--6------------|--9--11--11--11/11-11/11-11--11--11--|
-----------------------7---------|-------------------------------------|
--------------------------7--(7)\|-------------------------------------|
---------------------------------|-------------------------------------|

---------------------------------------------------------------------|
---------------------------------------------------------------------|
14b~~~--(14)--14p11--------------------------------------------------|
--------------------14--12------12--14b--(14)p12------12~~~--12--12--|
----------------------------14-------------------14------------------|
---------------------------------------------------------------------|

------------------------------------------------------------------------|
-------------------------------------------------12--13p12------12--13--|
11h12--11------11--12--11h12p11------11--12--14-------------14----------|
-----------14--------------------14-------------------------------------|
------------------------------------------------------------------------|
------------------------------------------------------------------------|

---------------------------------20--------|
13/15--15/17--17/19--19/20--20~~~-----(20)\|
-------------------------------------------|
-------------------------------------------|
-------------------------------------------|
-------------------------------------------|


Gtr.2
17b--17b--15--17p15--14--15p14\12--14p12---------------------|
----------------------------------------15--15--14--12--14\--|
-------------------------------------------------------------|
-------------------------------------------------------------|
-------------------------------------------------------------|
-------------------------------------------------------------|

-------------------------------------------------------------------|
12--10--12--10--8--10--8-----8-------------------------------------|
--------------------------9-----9--7--9--7-------------------------|
--------------------------------------------9--7-------------------|
--------------------------------------------------10--7------------|
---------------------------------------------------------10--7--7--|
                                                         P.M.----|

Gtr.3
17b--17b--15--17p15--14--15p14--12--14p12--10--12p10--8--|
---------------------------------------------------------|
---------------------------------------------------------|
---------------------------------------------------------|
---------------------------------------------------------|
---------------------------------------------------------|

10p8--7--8p7--5--7--5-----5--------------------------------------|
-----------------------8-----8--7--8p7--5--7--5--7---------------|
----------------------------------------------------7--6---------|
----------------------------------------------------------7--(7)/|
-----------------------------------------------------------------|
-----------------------------------------------------------------|


Gtrs.2&3
---------------------------------------------------------------12------12----|
---------------------------8-----8--10--8--10--12--10--12--15------15--------|
---------7-----7--9--7--9-----9----------------------------------------------|
9--7--9-----9----------------------------------------------------------------|
-----------------------------------------------------------------------------|
-----------------------------------------------------------------------------|
P.M.-------------------------------------------------------------------------|


15p12--12--12--15p12--12--12--12--15p12--12--12--12--12--12--12--12--15p12------|
--------------------------------------------------------------------------------|
--------------------------------------------------------------------------------|
--------------------------------------------------------------------------------|
--------------------------------------------------------------------------------|
--------------------------------------------------------------------------------|

12--12--12--12--12--15b--15b--|
------------------------------|
------------------------------|
------------------------------|
------------------------------|
------------------------------|

15b--15--12--15p12--15p12--15--12--12h15p12------12--15p12--12h15p12------12----|
--------------------------------------------15-----------------------15---------|
--------------------------------------------------------------------------------|
--------------------------------------------------------------------------------|
--------------------------------------------------------------------------------|
--------------------------------------------------------------------------------|

15p12--12h15p12------12--15p12--12--|
-----------------15-----------------|
------------------------------------|
------------------------------------|
------------------------------------|
------------------------------------|


Gtr.2
15p12------12--15p12--12h15p12------12--15p12--15p12------12--15b--15b--15b--15\-|
-------15-----------------------15--------------------15-------------------------|
---------------------------------------------------------------------------------|
---------------------------------------------------------------------------------|
---------------------------------------------------------------------------------|
---------------------------------------------------------------------------------|


Gtr.3
17p12--12h15p12------12--15p12--17p12--1h15p12------12--15p12--15--12-----------|
-----------------15-----------------------------15---------------------15-------|
--------------------------------------------------------------------------------|
--------------------------------------------------------------------------------|
--------------------------------------------------------------------------------|
--------------------------------------------------------------------------------|

-------------------|------------------------------------------------------|
12-----------------|------------------------------------------------------|
----14--12---------|--12h14--12p11h12p11------11--------------------------|
------------14--12\|----------------------14------14--12p11h12p11\9--11p9\|
-------------------|------------------------------------------------------|
-------------------|------------------------------------------------------|

---------------------------------------|
---------------------------------------|
---------------------------------------|
7~~~-----------------------------------|
---------------------------------------|
---------------------------------------|

-------------------------------------------------------|-----------------------|
----------------------------------10--8--7h8p7---------|-----------------------|
---7--9--7--9b--(9)p7-----7--9--7----------------7-----|-----------------------|
9---------------------9----------------------------9---|--7~~~-----------------|
-------------------------------------------------------|-----------------------|
-------------------------------------------------------|-----------------------|


solo 2 the faster one
*There is a lot of riff repetition in this solo, for space sake I'll write the riff
once and then repeat*


1)
e-----------------------------------14-|
B--------------------------14----14----|
G-----------------14----13----12-------|
D--------14----13----12----------------|
A-----13----12-------------------------|
E--12----------------------------------|


2)                                 ^   ^   ^  ^  ^
e-----12-15-12----12-17-12---    ------------------|
B--15----------15----------15 8x -15--15--15-15-15-|
G----------------------------    ------------------|
D----------------------------    ------------------|
A----------------------------    ------------------|
E----------------------------    ------------------|


3)
e-------------    -------------------------------------------------|
B--15p14p12--- 8x -15p14p12----12----------------------------------|
G-----------14    ----------14----14-12-14-12----12----------------|
D-------------    ----------------------------14----14-12-14-12----|
A-------------    ----------------------------------------------14-|
E-------------    -------------------------------------------------|
                    (or something close)

4)                            AH
e--------------------------------|
B-----------------------12-12-12-|
G-----------------------12-------|
D-----------------12-14----------|
A-----------12-14----------------|
E--12-14-15----------------------|


5) **************************     ^   ^
e--19-19-19-19-19-19-19h22p19    -22--22-|
B---------------------------- 6x --------|
G----------------------------    --------|
D----------------------------    --------|
A----------------------------    --------|
E----------------------------    --------|
The 19's are picked as fast as possible, probably more than I have written,
but I couldn't count them.


6)                                            ^  ^  ^
e--19-21-22-21-19----19------------------    ----------|
B-----------------22----22-21-22-21-19--- 3x ----------|
G--------------------------------------21    -21-21-21-|
D----------------------------------------    ----------|
A----------------------------------------    ----------|
E----------------------------------------    ----------|


7a)              7b)        7c)        7d)        ^   ^
e-----12-15-12  -19p15---  -17p14---  -21p17---  -22--22-|
B--15---------  -------17  -------15  -------17  --------|
G-------------  ---------  ---------  ---------  --------|
D-------------  ---------  ---------  ---------  --------|
A-------------  ---------  ---------  ---------  --------|
E-------------  ---------  ---------  ---------  --------|

7.FADE TO BLACK

Acoustic gtr.
|------------------------|------------------------|
|------------------------|------------------------|
|-------0----------------|-------0----------------|
|----4-----4-----4-----4-|----4-----4-----4-----4-|
|-2-----------2-----5----|-0-----------0-----5----|
|------------------------|------------------------|

|------------------------|------------------------|
|------------------------|------------------------|
|-------0----------------|-------2----------------|
|----4-----4-----4-----4-|----2-----2-----2-----2-|
|-2-----------2-----5----|-4-----------4-----0----|
|------------------------|------------------------|

w/Flanger or chorus
|----------------------------------------------------------|
|-----------------------------------------------7----------|
|--------------------------------------------7-(7)---------|
|--------------------------------------/-9-----------9-----|
|----------------------------------------------------------|
|----------------------------------------------------------|

|--------------------------|-----------------------|
|-----7--8-/-10------8--10-|-12---10---8---10------|
|--------------------------|-----------------------|
|--------------------------|-----------------------|
|--------------------------|-----------------------|
|--------------------------|-----------------------|

           p  p sl  h p           h
|------------------------------|---------------------|
|-(10)---12^10^8-\-7^8^7-----7-|-7^8--7-----7--------|
|-------------------------9----|---------9-----9---7-|
|------------------------------|---------------------|
|------------------------------|---------------------|
|------------------------------|---------------------|

                    sl  sl               p
|----------------------------|-----------------|-----|
|----------------------------|---------------8-|-7---|
|----------------------7-\-6-|----------7^6----|-----|
|-7---9----------(9)-\-------|-----------------|-----|
|----------------------------|-----------------|-----|
|----------------------------|-----------------|-----|

   sl   ~~~~~~~~~~~~~~
|---------------------|
|-8-/-10--------------|
|---------------------|
|---------------------|
|---------------------|
|---------------------|
                                           full
                   p                        )\ ~~~~~~~~~~~~~
|---14-19-14-----15^14---------------------/--\------------|
|-15--------15--------15---17-15-14-------/----\-----------|
|-------------16--------14---------16-14-/----(14)---------|
|----------------------------------------------------------|
|----------------------------------------------------------|
|----------------------------------------------------------|

    h     ~~~~~~~~~~   h                  h  p
|---------------------------------------------------------|
|---------------------------------14-15-14^15^14----14^15-|
|-14^16---------------------14-16----------------16-------|
|--------14----------14^16--------------------------------|
|---------------------------------------------------------|
|---------------------------------------------------------|

                                         ~~~~~~~~~~~~~~~~~
|----19--17--15----------15--17-|-14----------------------|
|-14----------------------------|----15-------------------|
|-------------------------------|-------16----------------|
|-------------------------------|-------------------------|
|-------------------------------|-------------------------|
|-------------------------------|-------------------------|

|-14--15--14--------------14--15--14------17----15--14-----|
|---------------15--------------------15-------------------|
|------------------14--------------------------------------|
|----------------------------------------------------------|
|----------------------------------------------------------|
|----------------------------------------------------------|

                                              h  h
|------------------------|---------12-13-15-12^13^15---17--|
|------------------------|-12-13-15------------------15----|
|------------------12-14-|---------------------------------|
|----------12-14-15------|---------------------------------|
|-12-14-15---------------|---------------------------------|
|------------------------|---------------------------------|

Acoustic gtr.
|------------------------|---------------------------|
|------------------------|-------------------0----3--|
|------------------------|-------1--------1----------|
|-------0-----------2----|----2--------2-------------|
|----3-----------2-----2-|-2--------2----------------|
|-1--------1--4----------|---------------------------|

   h             h
|----------0----------|------------0----------|
|-0^1---------------1-|-(1)---1-------------0-|
|-2---2---------0^2---|--0--------------0^2---|
|-2-----2-----2-------|--2------2-----2-------|
|-0-------------------|--3--------------------|
|---------------------|-----------------------|

                                        sl
|------------3-----3--3-|---------------------|
|-(0)---3---------------|---------0--(1)-/-3--|
|--0---------------2--0-|-0-------0--(2)-/-4--|
|---------0-----0-------|-----2---------------|
|-----------------------|-------2-------------|
|--3--------------------|-0-------------------|

   h              h                       h
|----------0-----------|------------0----------|
|-0^1----------------1-|-(1)---1-------------0-|
|-2---2----------0^2---|--0--------------0^2---|
|-2-----2-----2--------|--2------2-----2-------|
|-0--------------------|--3--------------------|
|----------------------|-----------------------|

                     h p                        sl
|-------------3-------------|-0------------------------|
|-(0)---3-------------------|-0----------0---(1)-/-3---|
|--0----------------0^2^0-0-|-0----------0---(2)-/-4---|
|----------0-----0----------|-2----2-------------------|
|---------------------------|---------2----------------|
|--3------------------------|----0---------------------|

P.M.--------------------|               P.M.----------|
|------------------------|----------------------------|
|-5--5--5--5--5--5--5--5-|-0-------2--2---------------|
|-5--5--5--5--5--5--5--5-|-2-------2--2---------------|
|-2--2--2--2--2--2--2--2-|-2-------2--2---------------|
|------------------------|-0-------0--0-----------5---|
|-0--0--0--0--0--0--0--0-|---------------0--0--3------|

               P.M.-----------------------------|
|-----------------------------------------------|
|-5-------5--5----------------------------------|
|-5-------5--5----------------------------------|
|-5-------5--5----------------------------------|
|-3-------3--3-----------5----------------------|
|---------------0--0--3-------------------------|
                                 P.M.-----------|
|-----------------------------------------------|
|-2-------2--2-----7---9-----9--9---------------|
|-2-------2--2-----7---9-----9--9---------------|
|-2-------2--2-----7---9-----9--9--------5--5---|
|-0-------0--0-----5---7-----7--7--------3--2---|
|----------------------------------0--0---------|

               P.M.------|                P.M.----------|
|--------------------------|----------------------------|
|-0-------2--2-------------|-5-------5--5---------------|
|-2-------2--2-------------|-5-------5--5---------------|
|-2-------2--2-------------|-5-------5--5---------------|
|-0-------0--0-----------5-|-3-------3--3-----------5---|
|---------------0--0--3----|---------------0--0--3------|

               P.M.--|
|---------------------|------------|
|-2-------2--2--------|------------|
|-2-------2--2--------|-1----------|
|-2-------2--2--------|-2----------|
|-0-------0--0--5--5--|-2----------|
|---------------3--2--|-0----------|

    ~~~~~~~~~~~           ~~~~~    sl
|---------------------|--------------------------|
|-10-----------10--12-|-13------13-/-15--13--12--|
|--9------------9--11-|-12------12-/-14--12--11--|
|---------------------|--------------------------|
|---------------------|--------------------------|
|---------------------|--------------------------|

  ~~~~~~~~~~~~~~~~   sl       ~~~~~~~~~~~  sl        sl
|--------------------------|------------------------------|
|--------------------------|------------------------------|
|-12---------------12-/-14-|-9-----------9-/-11---11-/-12-|
|-12---------------12-/-14-|-9-----------9-/-11---11-/-12-|
|--------------------------|------------------------------|
|--------------------------|------------------------------|

                                            full
                                             /\
    sl   ~~~~~~~~~~~~~~           ~~~~~~     ) )\
|-----------------------------|-------------/-/--\---------|
|--------------------------12-|-13------15-/-/------13-----|
|-12-/-14--------------14--11-|-12------14--/-------12-----|
|-12-/-14--------------14-----|----------------------------|
|-----------------------------|----------------------------|
|-----------------------------|----------------------------|

     full    full    full    full
      /\      /\      /\      /\
      ) )     ) )     ) )     ) )\  ~~~~~~~~~~~~~~~~~~~~~~~
|----/-/-----/-/-----/-/-----/-/|-\------------------------|
|-15/-/---15/-/---15/-/---15/-/-|(15)----------------------|
|-14-/----14-/----14-/----14-/--|(14)----------------------|
|-------------------------------|--------------------------|
|-------------------------------|--------------------------|
|-------------------------------|--------------------------|

   sl                    sl          sl
|---------------------|--------------------------|
|---------------------|--------------------------|
|-7-/-9-------9---9---|-7-/-9-------9-/-12--11---|
|-7-/-9-------9---9---|-7-/-9-------9-/-12--11---|
|-5-/-7-------7---7---|-5-/-7-------7-/-10---9---|
|---------------------|--------------------------|

                        P.M.------------------------------|
|-----------------------|---------------------------------|
|-----------------------|---------------------------------|
|---7-------7---7-------|-----------------------------4---|
|---7-------7---7-------|-9-9-9--7-7-7--5-5-5--4-4-4------|
|---5-------5---5-------|---------------------------------|
|-----------------------|---------------------------------|

   sl                    sl          sl
|---------------------|--------------------------|
|---------------------|--------------------------|
|-7-/-9-------9---9---|-7-/-9-------9-/-12--11---|
|-7-/-9-------9---9---|-7-/-9-------9-/-12--11---|
|-5-/-7-------7---7---|-5-/-7-------7-/-10---9---|
|---------------------|--------------------------|

                        P.M.------------------------------|
|-----------------------|---------------------------------|
|-----------------------|---------------------------------|
|---7-------7---7-------|---------------------------------|
|---7-------7---7-------|-9-9-9--7-7-7--5-5-5--4-4-4--5---|
|---5-------5---5-------|---------------------------------|
|-----------------------|---------------------------------|

   sl              ~~~~~~~~    sl                  ~~~~~~~
|--------------------------|------------------------------|
|-7-/-8-------8---8--------|-7-/-8-------8---12---10------|
|--------------------------|------------------------------|
|-7-/-9-------9---9--------|-7-/-9-------9---12---11------|
|--------------------------|------------------------------|
|--------------------------|------------------------------|

               ~~~~~~~ P.M.----------------------------------|
|---------------------|--------------------------------------|
|-7-------7-----------|-12-12-12--10-10-10--8-8-8--7-7-7-----|
|-------------7-------|--------------------------------------|
|-7-------7---7-------|-12-12-12--11-11-11--9-9-9--7-7-7-9---|
|---------------------|--------------------------------------|
|---------------------|--------------------------------------|

    sl             ~~~~~~~                        ~~~~~~~~
|-------------------------|-------------------------------|
|-7-/-8-------8---8-------|-7---8-------8---12---10-------|
|-------------------------|-------------------------------|
|-7-/-9-------9---9-------|-7-/-9-------9---12---11-------|
|-------------------------|-------------------------------|
|-------------------------|-------------------------------|

                ~~~~~~~~~~~ P.M.-----------------------------|
|--------------------------|---------------------------------|
|--------------------------|-7-7-7--5-5-5--3-3-3--2-2-2--3---|
|--11------11--11----------|-7-7-7--6-6-6--4-4-4--2-2-2--4---|
|---7-------7---7----------|---------------------------------|
|---9-------9---9----------|---------------------------------|
|--------------------------|---------------------------------|

P.M.--------|          P.M.-----------------------|
|----------------------|--------------------------|
|----------------------|--------------------------|
|--------------9-----9-|--------------12-11-------|
|--------------9-----9-|--------------12-11-------|
|--------------7-----7-|--------------10--9-------|
|-0--0--0--0-----------|-0--0--0--0---------------|

P.M.--------|        P.M.--------------------------------|
|--------------------|-----------------------------------|
|--------------7-----|-----------------------------------|
|--------------7-----|------------------------------4----|
|--------------7-----|-9-9-9--7-7-7--5-5-5--4-4-4--(5)---|
|--------------5-----|-----------------------------------|
|-0--0--0--0---------|-----------------------------------|

       sl                                      P.M.-|
|-----------------------|--------------------------------|
|-----------------------|--------------------------------|
|-----------------------|--------------------------------|
|-------/-4-------2/5---|-(2/5)--4-------2---------------|
|-*2/5------------------|--------5-------4--2/5--4-------|
|-----------------------|------------------------5---2/5-|
*Gtr. II indicated to left slash in TAB

       sl                                   P.M.-|
|---------------------|------------------------------|
|---------------------|------------------------------|
|---------------------|------------------------------|
|-------/-4-------2/5-|-(2/5)-4-------2--------------|
|-4-------------------|-------5-------4--2/5--4------|
|-5-------------------|-----------------------5--2/5-|

        sl                                     P.M.-|
|------------------------|------------------------------|
|------------------------|------------------------------|
|------------------------|------------------------------|
|--------/-4-------2/5---|-(2/5)-4-------2--------------|
|-2----------------------|-------5-------4--2/5--4------|
|-3----------------------|-----------------------5--2/5-|

         sl                                     P.M.--|
|-------------------------|----------------------------|
|-------------------------|----------------------------|
|-------------------------|----------------------------|
|---------/-4-------2/5---|-(2/5)-7--------5--4--2--4--|
|-4-----------------------|-------5--------4--2--------|
|-5-----------------------|----------------------5--2--|

Guitar Solo:             Full    Full   Full
       sl                  )       )      )
|------------------|------/-------/------/----|
|------------------|-----/-------/------/-----|
|----------------7-|---9/------9/-----9/------|
|-------/-9---9----|--------------------------|
|------------------|--------------------------|
|------------------|--------------------------|

         Full
           )\   p
|---------/--\-------------------|
|--------/----\---------------7--|
|-(9)--9/----(9)^7--9---9---9----|
|--------------------------------|
|--------------------------------|
|--------------------------------|


   h     h p        h
|----------------------------------|
|-7^8---7^8^7------7^8-------7-----|
|---------------7----------------7-|
|----------------------------------|
|----------------------------------|
|----------------------------------|

   h                           sl              h
|-----------------------------------|----------------------|
|-7^8---7-----10---10---8---10-/-12-|-10---8--8^10---8---7-|
|----------7------------------------|----------------------|
|-----------------------------------|----------------------|
|-----------------------------------|----------------------|
|-----------------------------------|----------------------|


|-----------------------|----------------------------------|
|---8---10-----8--------|----------------------------------|
|-----------9-----9---7-|----------------------------7---9-|
|-----------------------|-----7-------9---9-------9--------|
|-----------------------|----------------------------------|
|-----------------------|----------------------------------|

    Full
      )\   p
|----/--\--------------------------|
|---/----\-------------------------|
|-9/----(9)^7--9---7---7-----7---9-|
|-------------------------9--------|
|----------------------------------|
|----------------------------------|

    Full         Full        Full        Full
      )     p      )    p      )    p      )
|----/--7---------/-7---------/-7---------/---|
|---/-----10^7---/----10^7---/----10^7---/--7-|
|-9/-----------9/----------9/----------9/-----|
|---------------------------------------------|
|---------------------------------------------|
|---------------------------------------------|

         Full       Full        Full        Full
    p      )   p      )    p      )    p      )
|---------/----------/-7---------/-7---------/-7-|
|-10^7---/-7-10^7---/----10^7---/----10^7---/----|
|------9/---------9/----------9/----------9/-----|
|------------------------------------------------|
|------------------------------------------------|
|------------------------------------------------|

    p         p    p         p    p
|-10^7----7-10^7-10^7----7-10^7-10^7----7-|
|------10-------------10-------------10---|
|-----------------------------------------|
|-----------------------------------------|
|-----------------------------------------|
|-----------------------------------------|

    p         p    p         p    p
|-10^7----7-10^7-10^7----7-10^7-10^7----7-|
|------10-------------10-------------10---|
|-----------------------------------------|
|-----------------------------------------|
|-----------------------------------------|
|-----------------------------------------|

    Full    Full
      )       )
     /       /
|-10/-----10/---10-8-7-8-7----|-7-------------------------|
|--------------------------10-|---10-8-10-8-7-8-7---7-----|
|-----------------------------|-------------------9---9-7-|
|-----------------------------|---------------------------|
|-----------------------------|---------------------------|
|-----------------------------|---------------------------|

                p
|----------------------|------7------------|
|--------------8^7---7-|-8-10---10-8-7-----|
|------------------9---|---------------9-7-|
|-7-----9---9----------|-------------------|
|----------------------|-------------------|
|----------------------|-------------------|

             p                    ~~~~~~
|-------------------|------7--8--7------7--8-|
|-----------8^7---7-|-8-10-------------------|
|---------------9---|------------------------|
|-7---9--9----------|------------------------|
|-------------------|------------------------|
|-------------------|------------------------|

|-10-8-7-8-7----7-------------|-------------------------|
|------------10---10-8-10-8-7-|-8-7---7-----------------|
|-----------------------------|-----9---9-7-9-7-6-7-6---|
|-----------------------------|-----------------------9-|
|-----------------------------|-------------------------|
|-----------------------------|-------------------------|

|------------------7--------|--------------7--------------|
|-----------7-8-10---10-8-7-|-8-7---7-8-10---10-8-7-8^7---|
|-----6-7-9-----------------|-----9---------------------9-|
|-7-9-----------------------|-----------------------------|
|---------------------------|-----------------------------|
|---------------------------|-----------------------------|

                            Full
                              _____Grad. Release
                              \    \3/4
   Full  Full  Full  Full      \            \1/2
      )     )     )     )       )                    \ 1/4
|----/-----/-----/-----/---|---/---------------------------|
|---/-----/-----/-----/----|--/----------------------------|
|-9/----9/----9/----9/-----|-9-9-9-9-9-9-9-9-9-9-9-9-9-9-9-|
|--------------------------|-------------------------------|
|--------------------------|-------------------------------|
|--------------------------|-------------------------------|

   p
|--------------10-10-10-------10-10-10-----10-10-10-|
|---------------7--7--7-------10-10-10-----10-10-10-|
|-9^7---7-------7--7--7--------7--7--7------7--7--7-|
|-----9----x-x----------x-x-x----------x-x----------|
|----------x-x----------x-x-x----------x-x----------|
|---------------------------------------------------|

    Full    Full    Full
      )       )       )~~~~~~   p
|----/-------/-------/-------------------|
|-10/-----10/-----10/---------10^7---7-8-|
|----------------------------------9-----|
|----------------------------------------|
|----------------------------------------|
|----------------------------------------|

   h p         ~~~~~~
|------------------------|-------------------------|
|-7^8^7------------------|-------------------------|
|-------9-7---7--------7-|-9-7---7-----------------|
|-----------9--------9---|-----9---9-7-9-7---7-----|
|------------------------|-----------------9---9-7-|
|------------------------|-------------------------|

                       sl.
|-------------------------12-|
|----------------------------|
|----------------------------|
|----------------------------|
|-9-7-5-7-5---5-5-5-5-7-/----|
|-----------7----------------|

    p         p     p         p     p
|-15^12--12-15^12-14^12--12-15^12-14^12--12-|
|------12--------------12--------------12---|
|-------------------------------------------|
|-------------------------------------------|
|-------------------------------------------|
|-------------------------------------------|

    p         p     p         p     p
|-15^12--12-15^12-14^12--12-15^12-14^12--12-|
|------12--------------12--------------12---|
|-------------------------------------------|
|-------------------------------------------|
|-------------------------------------------|
|-------------------------------------------|

              p         p         p
|-17-14--14-17^14--14-17^14--14-17^14--14-|\-|
|------15--------15--------15--------15------| \
|--------------------------------------------|  \
|--------------------------------------------|  /-repeat
|--------------------------------------------| /
|--------------------------------------------|

    p         p     p         p     p
|-19^15--15-19^15-17^15--15-19^15-17^15--15-| \
|------17--------------17--------------17---|
|-------------------------------------------|
|-------------------------------------------|
|-------------------------------------------|
|-------------------------------------------|

    p         p     p         p     p
|-19^15--15-19^15-17^15--15-19^15-17^15--15-|
|------17--------------17--------------17---|
|-------------------------------------------|
|-------------------------------------------|
|-------------------------------------------|
|-------------------------------------------|

    p         p         p         p
|-21^17--17-21^17--17-21^17--17-21^17--17-|
|------19--------19--------19--------19---|
|-----------------------------------------|
|-----------------------------------------| repeat
|-----------------------------------------|
|-----------------------------------------|

   Full  Full  Full  Full    Full  Full  Full  Full
     )     )     )     )       )     )     )     )~~~~~
|-22/---22/---22/---22/---|-22/---22/---22/---22/------|
|-------------------------|----------------------------|
|-------------------------|----------------------------|
|-------------------------|----------------------------|
|-------------------------|----------------------------|
|-------------------------|----------------------------|

   Full
     )\
|-22/(22)-19-22-20-19-20-19-17-19-17-15-17-15-14-|
|------------------------------------------------|
|------------------------------------------------|
|------------------------------------------------|
|------------------------------------------------|
|------------------------------------------------|

|-15-14-12-14-12-10-12-10-9-10-9-7-|
|----------------------------------|
|----------------------------------|
|----------------------------------|
|----------------------------------|
|----------------------------------|

BEGIN FADE

|-9-7--7---7----------------|------------------------|
|----10--10--8-10-8-7-8-7---|-7----------------------|
|-------------------------9-|---9-7-9-7---7--7--7--7-|
|---------------------------|-----------9------------|
|---------------------------|------------------------|
|---------------------------|------------------------|

         trem. pick
    Full  Full                               Full
      )     )- - - - - - - - - - - - -(        )
|----/-----/----------------|----------\------/-----------|
|---/-----/-----------------|-----------\----/------7---7-|
|-9/-----9------------------|-(9)------(9)-9/-------------|
|-------//------------------|-//--------------------------|
|---------------------------|-----------------------------|
|---------------------------|-----------------------------|

    Full      Full
      )        )\   p
|----/---7----/--\-----|
|-10/------10/--(10)^7-|
|----------------------|
|----------------------| repeat 2x
|----------------------|
|----------------------|

    Full          Full         Full       Full
      )\   p        )\  p        )          )
|----/--\----------/--\---------/----------/-------|
|-10/--(10)^7---10/-(10)^7---10/---10---10/---10---|
|--------------------------------------------------|
|--------------------------------------------------|
|--------------------------------------------------|
|--------------------------------------------------|

    p              p
|-10^7--------------------------------|
|------10^7----7-10^7-----------------|
|-----------10--------9-7---7-9-7-----|
|-------------------------9-------9-7-|
|-------------------------------------|
|-------------------------------------|

       p                    sl.
|------------------------------------|
|------------------------------------|
|------------------------------------|
|-7-7-9^7------------------------7-9-|
|---------9-8-7-5-7-5---5--7-/-9-----|
|---------------------7--------------|

        sl.           p
|------------------------------------12-15-|
|-------------11-12-13^12----12-x-15-------|
|-7-9-11-/-14-------------14---------------|
|------------------------------------------|
|------------------------------------------|
|------------------------------------------|


|-(15)^12----12-15^12-15^12----12-15^12-15^12----12-|
|---------15----------------15----------------15----|
|---------------------------------------------------|
|---------------------------------------------------|
|---------------------------------------------------|
|---------------------------------------------------|

     Full         Full         Full         Full
       )            )            )            )
|-----/------------/------------/------------/--------|
|-15-/---------15-/---------15-/---------15-/---------|
|-14/----------14/----------14/----------14/----------|
|-----------------------------------------------------|
|-----------------------------------------------------|
|-----------------------------------------------------|

8.SEEK AND DESTROY

Play eight times
E||-----------------------------|---------------------||
B||-----------------------------|---------------------||
G||*--------7h8-7---------------|--------------5-----*||
D||*------------------7h8-7-----|--------5--------7--*||
A||---0--0---------0---------0--|--8--7-----7---------||
E||-----------------------------|---------------------||
 P.M. ^  ^         ^         ^     ^  ^     ^

|--------------------------|
|--------------------------|
|--9--7-----7--------------|
|--------9-----9--8--7/-5--|
|--------------------------|
|--------------------------|

Play eight times
|---------------------------||---------------------------|
|---------------------------||---------------------------|
|*--------------------------||--------------------------*|
|*--------------5--7--5--7--||--------------------------*|
|---------------5--7--5--7--||--------------7--5---------|
|---0--0--0--0--------------||--0--0--0--0--------7--6---|
P.M.^  ^  ^  ^                  ^  ^  ^  ^

Play eight times
|---------------------------|---------------------------|
|---------------------------|---------------------------|
|*--------------------------|--------------------------*|
|*--------------------------|--------------------5-----*|
|---------------------------|-----------------------7---|
|---0--0--0--0--0--0--0--0--|--0--0--0--0--7--6---------|
P.M.^  ^  ^  ^  ^  ^  ^  ^     ^  ^  ^  ^  ^  ^

Play three times             Play last time
|---------------------------||--------------------------|
|---------------------------||--------------------------|
|*-------------------------*||--7--5--------------------|
|*--------------5/-7/-5----*||--------7--6--5-----------|
|---------------3/-5/-3-----||-----------------7--6--5--|
|---0--0--0--0--------------||--------------------------|
P.M.^  ^  ^  ^

Play three times             Play twice last time
|---------------------------||--------------------------|
|---------------------------||--------------------------|
|*-------------------------*||--7--5--------------------|
|*--------------5/-7/-5----*||--------7--6--5-----------|
|---------------3/-5/-3-----||-----------------7--6--5--|
|---0--0--0--0--------------||--------------------------|
P.M.^  ^  ^  ^

      / |--------------------|--------------------|
     |  |--------------------|--------------------|
     |  |*--7----------------|--6--------5--------|
     |  |*--5----------------|--4--------3--------|
     |  |--------------------|--------------------|
play |  |--------------------|--------------------|
four |
times|  |--------------------------|---------------------------||
     |  |--------------------------|---------------------------||
     |  |--------------------------|--------------------------*||
     |  |--------------------------|--------------------------*||
     |  |--------------------------|---------------------------||
      \ |--0--0--0--0--0--0--0--0--|--0--0--0--0--0--0--0--0---||
       P.M.^  ^  ^  ^  ^  ^  ^  ^     ^  ^  ^  ^  ^  ^  ^  ^

Play four times
|---------------------------|---------------------------||
|---------------------------|---------------------------||
|*--------------------------|--------------------------*||
|*--------------5--7--5--7--|--------------------------*||
|---------------5--7--5--7--|--------------7--5---------||
|---0--0--0--0--------------|--0--0--0--0--------7--6---||
p.m.^  ^  ^  ^                 ^  ^  ^  ^

Play four times
|---------------------------|---------------------|
|---------------------------|---------------------|
|*--------------------------|--------------------*|
|*--------------------------|--------------5-----*|
|---------------------------|-----------------7---|
|---0--0--0--0--0--0--0--0--|--0--0--7--6---------|
p.m.^  ^  ^  ^  ^  ^  ^  ^     ^  ^  ^  ^

Play three times             Play last time
|---------------------------||--------------------------|
|---------------------------||--------------------------|
|*-------------------------*||--7--5--------------------|
|*--------------5\-7/-5----*||--------7--6--5-----------|
|---------------3\-5/-3-----||-----------------7--6--5--|
|---0--0--0--0--------------||--------------------------|
P.M.^  ^  ^  ^

Play three times             Play twice last times
|---------------------------||----------------------------|
|---------------------------||----------------------------|
|*-------------------------*||*--9--7-----7---------------|
|*--------------5/-7/-5----*||*--------9-----9--8--7------|
|---------------3/-5/-3-----||------------------------10--|
|---0--0--0--0--------------||----------------------------|
P.M.^  ^  ^  ^


      / |--------------------|--------------------|
     |  |--------------------|--------------------|
     |  |*--7----------------|--6--------5--------|
     |  |*--5----------------|--4--------3--------|
     |  |--------------------|--------------------|
play |  |--------------------|--------------------|
four |
times|  |--------------------------|---------------------------||
     |  |--------------------------|---------------------------||
     |  |--------------------------|--------------------------*||
     |  |--------------------------|--------------------------*||
     |  |--------------------------|---------------------------||
      \ |--0--0--0--0--0--0--0--0--|--0--0--0--0--0--0--0--0---||
       P.M.^  ^  ^  ^  ^  ^  ^  ^     ^  ^  ^  ^  ^  ^  ^  ^


|-------|
|-------|
|--5----|
|--3----|
|-------|
|-------|

      /|---------------------------|--------------------------|
     | |---------------------------|--------------------------|
     | |*--------------------------|--------------------------|
     | |*--------------------------|--5--------------------4--|
     | |---5h-7-----7-----7-----7--|--5-----7-----7-----7--4--|
Play | |---------0-----0-----0-----|-----0-----0-----0--------|
four | P.M.      ^     ^     ^           ^     ^     ^
times|
     | |--------------------------|---------------------|
     | |--------------------------|---------------------|
     | |--------------------------|--------------------*|
     | |--------------------------|--------------------*|
     | |-----7-----7-----7--------|-----3--2--0---------|
      \|--0-----0-----0-----3--2--|--0-----------3--0---|
          ^     ^     ^     ^  ^     ^
      /|--------------------|--------------------|
     | |--------------------|--------------------|
     | |*--7----------------|--6--------5--------|
     | |*--5----------------|--4--------3--------|
     | |--------------------|--------------------|
Play | |--------------------|--------------------|
Three|
times| |----------------------------|---------------------------||
     | |----------------------------|---------------------------||
     | |----------------------------|--------------------------*||
     | |----------------------------|--------------------------*||
     | |----------------------------|---------------------------||
      \|----0--0--0--0--0--0--0--0--|--0--0--0--0--0--0--0--0---||
       P.M. ^  ^  ^  ^  ^  ^  ^  ^     ^  ^  ^  ^  ^  ^  ^  ^

      /|---------------------------|--------------------------|
     | |---------------------------|--------------------------|
     | |*--------------------------|--------------------------|
     | |*--------------------------|--5--------------------4--|
     | |---5h-7-----7-----7-----7--|--5-----7-----7-----7--4--|
Play | |---------0-----0-----0-----|-----0-----0-----0--------|
four | P.M.      ^     ^     ^           ^     ^     ^
times|                                                   Last time
     | |--------------------------|---------------------|------------------------|
     | |--------------------------|---------------------|------------------------|
     | |--------------------------|--------------------*|------------------------|
     | |--------------------------|--------------------*|------------------------|
     | |-----7-----7-----7--------|-----3--2--0---------|-----------3--2—0-------|
      \|--0-----0-----0-----3--2--|--0-----------3--0---|--3--2----0--------3--0-|
          ^     ^     ^     ^  ^     ^

|-------|
|-------|
|---7---|
|---5---|
|-------|
|-------|


  Play eight times
E||-----------------------------|---------------------||
B||-----------------------------|---------------------||
G||*--------7h8-7---------------|--------------5-----*||
D||*------------------7h8-7-----|--------5--------7--*||
A||---0--0---------0---------0--|--8--7-----7---------||
E||-----------------------------|---------------------||
 P.M. ^  ^         ^         ^     ^  ^

|--------------------------|
|--------------------------|
|--9--7-----7--------------|
|--------9-----9--8--7/-5--|
|--------------------------|
|--------------------------|


Play four times
|---------------------------|---------------------------||
|---------------------------|---------------------------||
|*--------------------------|--------------------------*||
|*--------------5--7--5--7--|--------------------------*||
|---------------5--7--5--7--|--------------7--5---------||
|---0--0--0--0--------------|--0--0--0--0--------7--6---||
p.m.^  ^  ^  ^                 ^  ^  ^  ^

Play four times
|---------------------------|---------------------|
|---------------------------|---------------------|
|*--------------------------|--------------------*|
|*--------------------------|--------------5-----*|
|---------------------------|-----------------7---|
|---0--0--0--0--0--0--0--0--|--0--0--7--6---------|
p.m.^  ^  ^  ^  ^  ^  ^  ^     ^  ^  ^  ^

Play three times             Play last time
|---------------------------||--------------------------|
|---------------------------||--------------------------|
|*-------------------------*||--7--5--------------------|
|*--------------5\-7/-5----*||--------7--6--5-----------|
|---------------3\-5/-3-----||-----------------7--6--5--|
|---0--0--0--0--------------||--------------------------|
P.M.^  ^  ^  ^

Play three times             Play twice last times
|---------------------------||----------------------------|
|---------------------------||----------------------------|
|*-------------------------*||*--9--7-----7---------------|
|*--------------5/-7/-5----*||*--------9-----9--8--7------|
|---------------3/-5/-3-----||------------------------10--|
|---0--0--0--0--------------||----------------------------|
P.M.^  ^  ^  ^


      / |--------------------|--------------------|
     |  |--------------------|--------------------|
     |  |*--7----------------|--6--------5--------|
     |  |*--5----------------|--4--------3--------|
     |  |--------------------|--------------------|
play |  |--------------------|--------------------|
four |
times|  |--------------------------|---------------------------||
     |  |--------------------------|---------------------------||
     |  |--------------------------|--------------------------*||
     |  |--------------------------|--------------------------*||
     |  |--------------------------|---------------------------||
      \ |--0--0--0--0--0--0--0--0--|--0--0--0--0--0--0--0--0---||
       P.M.^  ^  ^  ^  ^  ^  ^  ^     ^  ^  ^  ^  ^  ^  ^  ^


        / |----------------------------|---------------------------|
       |  |----------------------------|---------------------------|
       |  |*---------------------------|---------------------------|
       |  |*--------------12--11-------|--11--10-------10--9-------|
       |  |---------------10--9--------|--9---8--------8---7-------|
 play  |  |---0--0--0--0---------0--0--|---------0--0--------0--0--|
 four  |  p.m.^  ^  ^  ^         ^  ^            ^  ^        ^  ^
 times |
       |  |--------------------------------|---------------|
       |  |--------------------------------|---------------|
       |  |----------------------------- --|--------------*|
       |  |------------12--11-------11--7- |--------7--5--*|
       |  |------------10--9--------9---5--|--------5--7---|
        \ |0--0--0--0---------0--0---------|--0--0---------|
       P.M.^  ^  ^  ^         ^  ^            ^  ^


|-----------------|
|-----------------|
|-----------------|
|-----------------|
|-----------------|
|---0--0--0--0----|
P.M.^  ^  ^  ^

Play eight times
|---------------------------||------------------------|
|---------------------------||------------------------|
|*--------------------------||-----------------------*|
|*--------------------------||-----------------------*|
|---------2--------5--------||--4--------5-----7--5---|
|---0--0--0--0--0--3--0--0--||--2--0--0--3--0--5--3---|
P.M.^  ^     ^  ^     ^  ^         ^  ^     ^

Play three times              Play last time
|----------------------------||-----------------||
|----------------------------||-----------------||
|*--9--7-----7--------------*||-----------------||
|*--------9-----9--8--7/-5--*||-----------------||
|----------------------------||--------------9--||
|----------------------------||--0--0--0--0--7--||
                             P.M.^  ^  ^

9.WELCOME HOME(SANITARIUM)

-------<12>---------3---353-2---|-------<12>---------2---2-----3-|
-----------<12>-----------------|-----------<12>---------0-------|
--------------------------------|--------------------------------|
--------------------------------|--------------------------------|
--------------------------------|--------------------------------|
0-------------------------------|0-------------------------------|

0------<12>---------------------|-------<12>---------------------|
-----------<12>-----------------|-----------<12>-----------------|
--------------------------------|--------------------------------|
--------------------------------|--------------------------------|
--------------------------------|--------------------------------|
0-------------------------------|0-------------------------------|

-------<12>---------------------|-------<12>---------------------|
-----------<12>-----------------|-----------<12>-----------------|
--------------------------------|---------------<12>-------------|
--------------------------------|--------------------------------|
--------------------------------|--------------------------------|
0-------------------------------|0-------------------------------|

Rhy. Fig. 1 (8th=--)
----------------|----------------|----------|   Repeat this figure 4 times
----------------|----------------|----------|   alone, then 4 times under
------0-------0-|------0---------|----------|   the solo and 6 times under
----4-------5---|----7-------0---|--0-------|   the verse. The notes with
--2-------3-----|--5-------4-----|2-----0---|   a ~ under them are cue notes.
0-------0-------|0-------5---5s3-|--3s5-----|   They hardly take time to sound
                             ~      ~
Now comes solo 1. Timing isn't always exact but is close.
------------------------------|--------10-s12--15-s17--17----|----------------|
------------------------------|10-s12------------------------|----------------|
--------11--12--9---------12--|------------------------------|----------------|
----9-------------------------|------------------------------|----------------|
7-----------------------------|------------------------------|----------------|
------------------------------|------------------------------|----------------|

--15--15--12--12s14---12^-r---|---12---------------__3___----|----------------|
------------------------------|15-----15--13--13---121312----|----------------|
------------------------------|--------------------------14--|12-s11----------|
------------------------------|------------------------------|--------12------|
------------------------------|------------------------------|------------14--|
------------------------------|------------------------------|----------------|

------------------------------|----19-----19-------------17--|171514----------|
------------------------------|--17---------17---------------|------171514----|
12s14-------------------------|16-------------16-s14-14------|------------1614|
------------------------------|------------------------------|----------------|
------------------------------|------------------------------|----------------|
------------------------------|------------------------------|----------------|

                               __3___
----------------------------12|101210----------------5-------|----3-----------|
--------------------------13--|------13--12------------------|----------------|
12^-----r---------------14----|------------------6-----------|4-----------6---|
----------------------14------|-------------/7----------/5---|-------/7-------|
------------------------------|------------------------------|----------------|
------------------------------|------------------------------|----------------|

Verses:  (with Rhy. Fig. 1)
1. Welcome to where time stands still, noone lives and noone will
Moon is full never seems to change, just labeled mentally deranged
Dream the sane thing every night, I see our freedom in my sight
No locked doors, no windows barred , no things to make my brain seem scared

2. Build my fear of what's out there, cannot breath the open air
Whisper things into my brain, assuring me that I'm insane
They think our heads are in their hands, but violent use brings violent plans
Keep him tied, it makes him well, he's getting better can't you tell?

1.Sleep my friend and you will see that dream is my reality
2.No more can they keep us in, listen *** it we will win
----------------|----------------|--------|
----------------|----------------|--------|
----------------|----------------|--------| 8th=--
----------------|----------------|--------|
----2-2-----3-3-|----5-5---------|--------|
0-0-----0-0-----|0-0-----5-5-5-3-|3-3-5-3-|

1.Keep me locked up in this cage, can't they see it's why my brain says rage?
2.They see it right, they see it well, but they think this saves from our hell
----------------|----------------|--------|
----------------|----------------|--------|
----------------|----------------|--------| 8th=--
----------------|----------------|--------|
----2-2-----3-3-|----5-5---------|--------|
0-0-----0-0-----|0-0-----5-5-5-3-|3-3-5-3-|

CHORUS                                            Sa   -    ni   -
--------------------------------|--------------------------------|
--------------------------------|--------------------------------|
--------------------5s4-----5s4-|----------------_3_-------------|
------------5s4-----5s4-----5s4-|----------------020-------------|
------------5s4-----3s2-----3s2-|--------------------3-2---------|
0-------x-x-3s2-x-x-----x-x-----|------------------------5-3-2-3-|

tarium                                           leave   me
--------------------------------|--------------------------------|
--------------------------------|--------------------------------|
--------------------5s4-----5s4-|--------------------------------|
------------5s4-----5s4-----5s4-|--------------------------------|
------------5s4-----3s2-----3s2-|----2-2-2-2-2-2-3-2-------x-3---|
0-------x-x-3s2-x-x-----x-x-----|--------------------3-----x-1---|

be                                               Sa   -   ni    -
--------------------------------|--------------------------------|
--------------------------------|--------------------------------|
--------------------5s4-----5s4-|----------------_3_-------------|
------------5s4-----5s4-----5s4-|----------------020-------------|
------------5s4-----3s2-----3s2-|--------------------3-2---------|
0-------x-x-3s2-x-x-----x-x-----|------------------------5-3-2-3-|

tarium                                  just leave me alone
--------------------------------|----------------------------------| 1st time
--------------------------------|----------------------------------| go on with
--------------------5s4-----5---|4---------------------------------| the solo
------------5s4-----5s4-----5---|4---------------------------------| 2nd time
------------5s4-----3s2-----3---|2---------------------------------| skip to
0-------x-x-3s2-x-x-----x-x-----|----------------------------------| CODA

Now comes the second solo. The backing guitar plays a B chord for
the next line and then goes on 4 times with the backing rhythm
of solo 1.

 ----------------------------------------------------------------|
 --------------------------------------------------------10------|
 ----------------------------------------7---7---9--s11----------|
 ------------------------7---7--s9-------------------------------|
 --------5---5---7--s9-------------------------------------------|
/7---------------------------------------------------------------|

For the next two lines we have two guitars soloing together.
For two notes they play on the same string (high E). In this
case the highest note is indicated above the tablature.

                22      22
--------15--17--19------19------19------------------------------|
17--19--------------------------17------------------------------|
----------------------------------------------------------------|
----------------------------------------------------------------|
----------------------------------------------------------------|
----------------------------------------------------------------|

17-h19-p17------15------17-h19--17--------------17--19p17 17------|
19-h20-p19------17------19-h20--19------19------19--20p19 17------|
----------------------------------------19------------ -- --------|
------------------------------------------------------ -- --------|
------------------------------------------------------ -- --------|
------------------------------------------------------ -- --------|

15------------------------------|
--------------------------------|
16------------------------------|
--------------------------------|
--------------------------------|
--------------------------------|

14^---------------------r-------------------------------14--15--|
15^---------------------r-------15------------------------------|
----------------------------------------------------------------|
----------------------------------------------------------------|
----------------------------------------------------------------|
----------------------------------------------------------------|
                ___3____
17--15--14--15--14h15p14  ----14---------------- -- --------------------|
--------------------      17------17--17--14--15p14 16--14--------------|
--------------------      ---------------------- -- --------16--14-s12--|
--------------------      ---------------------- -- --------------------|
--------------------      ---------------------- -- --------------------|
--------------------      ---------------------- -- --------------------|

--------------------------------|
--------------------------------|
14-p12------12------------------|
--------16------16--14--12------|
----------------------------16--|
--------------------------------|

--------------------------------------------------------17------|
------------------------------------------------17-s15------15-s|
----------------------------------------------------------------|
12-h14----------------------------------------------------------|
----------------------------------------------------------------|
----------------------------------------------------------------|

----15----------14----------12----------10----------7-----------|
14------14-s12------12-s10------10-s8-------8-s-7-------7-------|
------------------------------------------------------------7---|
----------------------------------------------------------------|
----------------------------------------------------------------|
----------------------------------------------------------------|

--------------------------------|
--------------------------------|
----7---9-----9s11------9-------|
9-------------~-----------------|
--------------------------------|
--------------------------------|

----------------------------------------------------------------|
----------------------------------------------------------------|
9---------------------------------------9---9---9-------9-------|
----------------------------------------------------------------|
----------------------------------------------------------------|
----------------------------------------------------------------|

------------------------------------------------5---------------|
----------------------------------------------------------------|
9-------7-------------------------------6-----------------------|
----------------5--------------/7----------------------/5-------|
----------------------------------------------------------------|
----------------------------------------------------------------|

--------3-----------------------|
--------------------------------|
4-----------------------6-------| Now go back and play verse 2.
---------------/7---------------|
--------------------------------|
--------------------------------|

CODA
----------------|--------------------------------|
----------------|--------------------------------|
_3_-------------|--------------------5s4-----5---|
020-------------|------------5s4-----5s4-----5---|
----3-2---------|------------5s4-----3s2-----3---|
--------5-3-2-3-|0-------x-x-3s2-x-x-----x-x-----|

--------------------------------|----------------|----------|
--------------------------------|----------------|----------|
4-------------------------------|_3_-------------|----------|
4-------------------------------|020-------------|2---------|
2-------------------------------|----3-2---------|2---------|
--------------------------------|--------5-3-2-3-|0---------|

This last E chord lasts rather long for Metallica, while the song
doubles its tempo and the lyrics go "Just leave me alone".
Then you make a pick slide down the neck and you go:

----------------|----------------|----------------|----------------|
----------------|----------------|----------------|----------------|
----------------|----------------|----------------|----------------|
----------------|----------------|----------------|----------------|
----------------|----------------|----------------|----------------|
0-0-0-0-0-0-0-0-|0-0-0-0-0-0-0-0-|0-0-0-0-0-0-0-0-|0-0-0-0-0-0-0-0-|

----------------|----------------|----------------|----------------|
----------------|----------------|----------------|----------------|
----------------|----------------|----------------|----------------|
0h2---0h2-------|----------------|0h1---0h1---0h1-|--0h2-----------|
0h2---0h2-------|----------------|0h1---0h1---0h1-|--0h2-----------|
----------0-0-0-|0-0-0-0-0-0-0-0-|----------------|------0-0-0-0-0-|

Rhy. Fig. 2                                         (end Rhy.Fig. 2)
----------------|----------------|----------------|----------------|
----------------|----------------|----------------|----------------| Repeat
----------------|----------------|----------------|----------------| this
0h1---0h1-------|----------------|0h1---0h1---0h1-|--0h2-----------| line
0h1---0h1-------|----------------|0h1---0h1---0h1-|--0h2-----------| 3 times
----------0-0-0-|0-0-0-0-0-0-0-0-|----------------|------0-0-0-0-0-|

             Fear of living on               Natives getting rest-
--------------------------------|--------------------------------|
--------------------------------|--------------------------------|
--------------------------------|------7-7-----------------------|
0-2---2-2-----------------------|0-2---7-7-----------------------|
0-2---2-2-----------------------|0-2---5-5-----------------------|
------0-0-----------------------|--------------------------------|

less now       mutiny in the air              got some death to do
--------------------------------|--------------------------------|
--------------------------------|--------------------------------|
--------------------------------|------5-5-------------4-4-------|
0-2---3-3-----------------------|0-2---5-5-------5-4---4-4-------|
0-2---3-3-----------------------|0-2---3-3-------3-2---2-2-------|
------1-1-----------------------|--------------------------------|

         Mirror stares back hard        "Kill" it's such a friend-
--------------------------------|--------------------------------|
--------------------------------|--------------------------------|
--------------------------------|------7-7-----------------------|
0-2---2-2-----------------------|0-2---7-7-----------------------|
0-2---2-2-----------------------|0-2---5-5-----------------------|
------0-0-----------------------|--------------------------------|

ly word       Seems the only way            for reaching out again
--------------------------------|--------------------------------|
--------------------------------|--------------------------------|
--------------------------------|------5-5-------------4-4-------|
0-2---3-3-----------------------|0-2---5-5-------5-4---4-4-------|
0-2---3-3-----------------------|0-2---3-3-------3-2---2-2-------|
------1-1-----------------------|--------------------------------|

--------------------------------|
--------------------------------|
--------------------------------|
--------------------------------|
--------------------------------|
0-0-0-0-0-0-0-0-0-0-0-0-12\-----|

Now we have another solo played over Rhy. Fig. 2 (4 times)
----------------------------------------------------------------|
----------------------------------------------------------------|
12--12--12--12--12--12--12--12--12--12--12--12--12--12--12--12--|
----------------------------------------------------------------|
----------------------------------------------------------------|
----------------------------------------------------------------|

----------------------------------------------------------------|
----------------------------------------------------------------|
16--12--12--12--12--12--12--12--12--12--12--12--12--12--12--12--|
----------------------------------------------------------------|
----------------------------------------------------------------|
----------------------------------------------------------------|

------------------------------------------------------------12--|
--------------------------------13--12--12--12--15--12--12------|
14--12--12--12--16--12--12--12----------------------------------|
----------------------------------------------------------------|
----------------------------------------------------------------|
----------------------------------------------------------------|
                ______3_______
13--12--12--12--15----12----12--17\---------------------12------|
-----------------------------------------------/12--------------|
----------------------------------------------------------------|
----------------------------------------------------------------|
----------------------------------------------------------------|
----------------------------------------------------------------|

17-p15-p12--------------12------17-p15-p12----------------------|
----------------17-p15--------------------------17-p15-p12------|
----------------------------------------------------------------|
----------------------------------------------------------------|
----------------------------------------------------------------|
----------------------------------------------------------------|

17-p15-p12--------------12------17-p15-p12--------------12------|
----------------17-p15--------------------------15-p12----------|
----------------------------------------------------------------|
----------------------------------------------------------------|
----------------------------------------------------------------|
----------------------------------------------------------------|
                                                ______3_______
17^---------------------r-------^---------------------17----15--|
------------------------------------------------17--------------|
----------------------------------------------------------------|
----------------------------------------------------------------|
----------------------------------------------------------------|
----------------------------------------------------------------|

14--------------14----------------------------------------------|
--------15--------------15--------------------------------------|
------------------------------------------------2---------------|
--------------------------------------------------------4-------|
----------------------------------------------------------------|
----------------------------------------------------------------|

----------------------------------------------------------------|
----------------------------------------------------------------|
----------------4-------2---------------2-------4---2-----------|
4^------------------------------4-----------------------4-------|
----------------------------------------------------------------|
----------------------------------------------------------------|

----------------------------------------------------------------|
----------------------------------------------------------------|
--------------------------------------------------------4-------|
3-------2---------------2^--------------------------------------|
----------------5-----------------------------------------------|
----------------------------------------------------------------|

----------------------------------------------------------------|
----------------5-----------------------5---------------5-------|
7^----------------------7^----------------------7^--------------|
----------------------------------------------------------------|
----------------------------------------------------------------|
----------------------------------------------------------------|

----------------------------------------------------------------|
--------5---------------5-------------------------------12------|
7^--------------7^--------------7\--------------14--------------|
----------------------------------------------------------------|
----------------------------------------------------------------|
----------------------------------------------------------------|
____________3__________         ___________3___________
--------------------------------15^--------15--------14---------|
15^--------15--------12-----------------------------------------|
----------------------------------------------------------------|
----------------------------------------------------------------|
----------------------------------------------------------------|
----------------------------------------------------------------|
____________3__________
12-------------------12-----------------------------------------|
-----------15-------------------15^---------------------17--17--|
----------------------------------------------------------------|
----------------------------------------------------------------|
----------------------------------------------------------------|
----------------------------------------------------------------|

15----------15--17--15------15--19--17-(15)--s--21------19--22--|
----17--18--------------19--------------------------------------|
----------------------------------------------------------------|
----------------------------------------------------------------|
----------------------------------------------------------------|
----------------------------------------------------------------|

22--19------22--22^-------------22^-----------------------------|
--------x-------------------------------------------------------|
-------------------------------------------End of solo 3--------|
----------------------------------------------------------------|
----------------------------------------------------------------|
----------------------------------------------------------------|

--------------------------------|--------------------------------|
--------------------------------|--------------------------------|
--------------------R-----------|------7-7-------7---R-----------|
0-2---2-2-------2---E-----------|0-2---7-7-------7---E-----------|
0-2---2-2-------2---S-----------|0-2---5-5-------5---S-----------|
------0-0-------0---T-----------|--------------------T-----------|

For the next part of the song there are 4 guitars playing from time
to time. We are going to use the following:
Rhy. Fig. 3
--------------------------------|--------------------------------|
--------------------------------|--------------------------------|
--------------------------------|------7-7-----------------------|
0-2---2-2-----------------------|0-2---7-7-----------------------|
0-2---2-2-----------------------|0-2---5-5-----------------------|
------0-0-----------------------|--------------------------------|

                                                 (end Rhy. Fig. 3)
--------------------------------|--------------------------------|
--------------------------------|--------------------------------|
--------------------------------|------5-5-------------4-4-------|
0-2---3-3-----------------------|0-2---5-5-------5-4---4-4-------|
0-2---3-3-----------------------|0-2---3-3-------3-2---2-2-------|
------1-1-----------------------|--------------------------------|

Riff 1
--------------------------------|--------------------------------|
--------------------------------|--------------------------------|
--------------------------------|2---------------2-2-2-----2-----|
(5)-------------5-5-5-4---5-----|----------------------5---------|
(7)-------------7-7-7-6---7-----|9---------------9-9-9-7---9-----|
--------------------------------|--------------------------------|

                                                      (end Riff 1)
--------------------------------|--------------------------------|
--------------------------+-----|--------------------------------|
----4-5---------5-5-5-7---5-----|--------------------------4-----|
5-----------------------------5-|----------------4-4-4-5-------5-|
10--9-8---------8-8-8-10--8---7-|----------------6-6-6-7---9---7-|
--------------------------+-----|--------------------------------|

Until the end of solo 4 one guitar plays Rhy. Fig. 3, another one
plays the following line...
--------------------------------|--------------------------------|
--------------------------------|--------------------------------|
--------------------------------|--------------------------------|
--------------------------------|--------------------------------|
------------5-s-7-7-7-5---7-----|9---------------9-9-9-7---9-----|
--------------------------------|--------------------------------|

--------------------------------|--------------------------------|
--------------------------------|--------------------------------|
--------------------------------|--------------------------------|
--------------------------------|--------------------------------|
10--9-8---------8-8-8-10--8---7-|----------------6-6-6-7---9-----|
--------------------------+-----|--------------------------------|

--------------------------------|--------------------------------|
--------------------------------|--------------------------------|
--------------------------------|--------------------------------|
--------------------------------|--------------------------------|
7---------------7-7-7-5---7-----|9---------------9-9-9-7---9---9-|
--------------------------------|--------------------------------|

--------------------------------|--------------------------------|
--------------------------------|--------------------------------|
--------------------------------|--------------------------------|
--------------------------------|------------------------------5-|
10--9-8---------8-8-8-10--8---7-|----------------6-6-6-7---9---7-|
--------------------------+-----|--------------------------------|

This last note on 5th fret of D string belongs to another guitar
whose line is tabbed in the upper part of Riff 1. All three
guitars play together Rhy. Fig. 3 and Riff 1 for 2 times, and then
continue for 2 times under the following solo 4.

 ----------------------------------------------------------------|
 ----------------------------------------------------------------|
 ----------------------------------------------------------------|
 ----------------------------------------------------------------|
 -------------------------------7---7---7---6-------7------------|
/7---------------------------------------------------------------|

----------------------------------------------------------------|
----------------------------------------------------------------|
----------------------------------------------------------------|
----------------------------------------------------------------|
9-------10--12------------------12--12--12--10------12----------|
----------------------------------------------------------------|

----------------------------------------------------------------|
----------------------------------------------------------------|
--------12--------------12------14^---------14^---------14^-----|
------------14------14------------------------------------------|
12-s14----------------------------------------------------------|
----------------------------------------------------------------|

----------------------------------------------------------------|
--------------------------------12----------12------------------|
12------------------------------12----------12------------------|
----14------------------14--14------14--14--------------14--14--|
----------------------------------------------------------------|
----------------------------------------------------------------|

----------------------------------------------------------------|
12----------12------------------__3___------------------12------|
12----------12----------12--14--14^r12--14--14------14----------|
----14--14----------14------------------------------------------|
----------------------------------------------------------------|
----------------------------------------------------------------|
                                                        ___3____
----12----------------------12--15^---------r-----------12h15p12|
--------12--15^---------15--------------------------------------|
14^-------------------------------------------------------------|
----------------------------------------------------------------|
----------------------------------------------------------------|
----------------------------------------------------------------|
___3____
15p12h15-------------------------------- ------------ ------------|
--------12------------------------------ ------------ ------------|
------------14--12------12--14^-r----p12 14--14^-rp12 14--14^-rp12|
--------------------14------------------ ------------ ------------|
---------------------------------------- ------------ ------------|
---------------------------------------- ------------ ------------|

----------------------------------------------------------------|
----------------------------------------------------------------|
14--14^-rp1214--14^-------------11--11--11--12------14---s--16--|
----------------------------------------------------------------|
----------------------------------------------------------------|
----------------------------------------------------------------|

----------------------------------------------------------------|
12-----s----17--17----------------------------------------------|
----------------------------------------------------------------|
------------------------------------End of solo 4---------------|
----------------------------------------------------------------|
----------------------------------------------------------------|

Together with the note on 12th fret of B string the backing guitars
go as follows until the end of the song.
--------------------------------|--------------------------------|
--------------------------------|--------------------------------|
--------------------------------|------7-7-----------------------|
0-2---2-2-----------------------|0-2---7-7-----------------------|
0-2---2-2--------------(8)\-----|0-2---5-5--------------(8)\-----|
------0-0--------------(6)\-----|-----------------------(6)\-----|

--------------------------------|--------------------------------|
--------------------------------|--------------------------------|
--------------------------------|------5-5-------------4-4-------|
0-2---3-3-----------------------|0-2---5-5-------5-4---4-4-------|
0-2---3-3--------------(8)\-----|0-2---3-3-------3-2---2-2-------|
------1-1--------------(6)\-----|--------------------------------|

--------------------------------|--------------------------------|
--------------------------------|----------------___3___---------|
----------------___3___---------|------7-7-------7--7--7-7-------|
0-2---2-2-------2--2--2-2-------|0-2---7-7-------7--7--7-7-------|
0-2---2-2-------2--2--2-2-------|0-2---5-5-------5--5--5-5-------|
------0-0-------0--0--0-0-------|--------------------------------|

--------------------------------|--------------------------------|
--------------------------------|----------------___3___---------|
----------------___3___---------|------5-5-------4--4--4-4-------|
0-2---3-3-------3--3--3-3-------|0-2---5-5-------4--4--4-4-------|
0-2---3-3-------3--3--3-3-------|0-2---3-3-------2--2--2-2-------|
------1-1-------1--1--1-1-------|--------------------------------|

--------------------------------|--------------------------------|
___3___---------___3___---------|--------------------------------|
4--4--4-4-------4--4--4-4-------|4-------2-----------------------|
4--4--4-4-------4--4--4-4-------|4-------2-------5-------4-------|
2--2--2-2-------2--2--2-2-------|2-------0-------5-------4-------|
--------------------------------|----------------3-------2-------|

--------------------------------|--------------------------------|----|
--------------------------------|--------------------------------|----|
--------------------------------|--------------------------------|----|
2-------------------------------|--------------------------------|2\--|
2-------------------------------|--------------------------------|2\--|
0-------------------------------|--------------------------------|0\--|

10.FOR WHOM THE BELL TOLLS

gtr.1
|-------------------------------------|
|-------------------------------------|
|-------------------------------------|
|-4-4----4-4---2----------------------|         5x
|-4-4----4-4---2----------------------|
|-2-2----2-2---0----------------------|

|-----------------------|
|-----------------------|
|-----------------------|
|--4-4----2-------------|        8x
|--4-4----2-------------|
|--2-2----0-------------|

gtr2 does this  all 5 times with the first bit then does it only 4 times with the second bit.
(he does this right after the first gtr  but youll figure it out if you've heard it)
THIS PART HERE IS REALLY BASS BUT THIS IS IT TABBED OUT FOR GUITAR IF YOUR PLAYIN ALONE.
|---------------------------------------------|
|---------------------------------------------|
|---------------------------------------------|
|-12--11--10--9-------------12----------------|so that would make it  9x RIGHT?
|---------------------10--9-------------------|
|---------------------------------------10--9-|
gtr 2

Ok for this part you do the chord 5&7 in that bar the first time and for 2nd time
you do it with the
2&4 chord at the end of it instead of the 7&5.and the alternate
|---------------------------------------------------------|
|---------------------------------------------------------|
|---------------------------------------------------------|
|----------------------------------------------|---|-4----|
|--2--5--4--3--2--5--4--3--2--5--4--3--2--5--4-|-7-|-2----|
|--0--3--2--1--0--3--2--1--0--3--2--1--0--3--2-|-5-|------|

this part is the 1st guitar and it comes rite after the second guitar is done that last riff
so listen or yull miss it!!
gtr1
|---------------------------------------|
|---------------------------------------|
|---------------------------------------|
|-2-----5----2----5----9--7-------------|        2x letting it RING OUT
|-2-----5----2----5----9--7-------------|
|-0-----3----0----3----7--5-------------|


gtr2 plys this along with gtr 1
|----------------------------------------------------------------------------------------------|
|--8----7--------7-8-----7---------------------------------------------------------------------|
|-----9----7--9-------9-----7-9-------ok you play this monster 16x FAST along wit that last 1--|
|----------------------------------------------------------------------------------------------|
|----------------------------------------------------------------------------------------------|
|----------------------------------------------------------------------------------------------|

gtr 1
(this is the chorus too but for now u just play it through)
|-------------------------------------------------------|
|-------------------------------------------------------|
|---------------------------------------3---------------|
|---------5-----------7-----------5-----3----4----------|
|---------5-----------7-----------5-----1----4----------|
|---0-0-0-3-----0-0-0-5-----0-0-0-3----------2----------|

|---------------------------------------------|
|---------------------------------------------|
|------------------------------------3--------|
|---------5------7----------5--------3-4-3----|        ok alternate these ones 2x each
|---------5------7----------5--------1-4-3----|
|--0-0-0--3--0-0-5----0-0-0-3--0-0-0---2-1----|

Verse let ring out and each chord changes at the first of every line of lyrics
|-----------------------------|------------------------------------|
|-----------------------------|------------------------------------|
|-odd line of lyrics----------|2nd line,and 4th,8th you know-------|
|-2-----------------5---------|---2--------5-------10-----7--------|
|-2-----------------5---------|---2--------5-------10-----7--------|
|-0-----------------3---------|---0--------3-------8------5--------|
DO CHORUS,THEN,
this part is between the 1st and 2nd verse im workin on gtr 2 but this is
gtr1
|--------------------------------------------------------------------------------------|
|--------------------------------------------------------------------------------------|
|--------------------------------------------------------------------------------------|
|-2----2----2----5--5-5-5-5--5-5-5-2----9----2----2----2----5--5-5-5-5--5-5-5-2-----5--|
|-2----2----2----5--5-5-5-5--5-5-5-2----9----2----2----2----5--5-5-5-5--5-5-5-2-----5--|
|-0----0----0----3--3-3-3-3--3-3-3-0----7----0----0----0----3--3-3-3-3--3-3-3-0-----7--|
GO RIGHT INTO VERSE 2 AND THEN DO THE CHORUS AGAIN.THEN,

outro
|-----------------------------------------------------|
|-----------------------------------------------------|
|-----------------------------------------------------|
|-9----11--11------9----11---11---12---12-------------|
|-7-----9---9------7----9----9----10---10-------------|
|-0----------------0----------------------------------|

11.NO REMORSE

||-------------------------|-----------------------|------------------------|
||*------------------------|-----------------------|------------------------|
||-------------------------|------------------2----|------------------------|
||-------------------------|------------------2----|------------------------|
||*--2/4--------4----------|--2/4--------4----0----|--2/4--------4----------|
||---0h2--2--2--2p0--0--0--|--0h2--2--2--2p0-------|--0h2--2--2--2p0--0--0--|
          PM..       PM..          PM..                    PM..       PM..


            end Rhy Fig 1
|------------------------||
|-----------------------*||
|------------------4-----||
|------------------4-----||
|--2/4--------4----2----*||
|--0h2--2--2--2p0--------||
        PM..


 SOLO 1 w/ Rhy fig 1 (6 times)

 w/wah

|-14----14----14----14----14----14----|-14----14----14----14----14------14--|
|-17b19-17b19-17b19-17b19-17b19-17b19-|-17b19-17b19-17b19-17b19-17b19-------|
|-------------------------------------|-------------------------------------|
|-------------------------------------|-------------------------------------|
|-------------------------------------|-------------------------------------|
|-------------------------------------|-------------------------------------|
 bend lower note to pitch of higher note (unison bends)


|--17p14------14--17p14--17p14------14--17p14--17p14------14--|
|---------17--------------------17--------------------17------|
|-------------------------------------------------------------|
|-------------------------------------------------------------|
|-------------------------------------------------------------|
|-------------------------------------------------------------|

|--17p14--17p14------14--17p14--17p14------14--17p14h17--|
|----------------17--------------------17----------------|
|--------------------------------------------------------|
|--------------------------------------------------------|
|--------------------------------------------------------|
|--------------------------------------------------------|

|-19b21----19----b21-~--17--14-|-17p14------14--17p14----------------------------|
|------------------------------|--------17-------------17--14--17p14-------------|
|------------------------------|--------------------------------------16--14-----|
|------------------------------|----------------------------------------------16-|
|------------------------------|-------------------------------------------------|
|------------------------------|-------------------------------------------------|

|------------------14-----------------17--14--17--14--|
|------------------14--17p14------14--17--14--17--14--|
|--14--16b19--r16-------------16----------------------|
|-----------------------------------------------------|
|-----------------------------------------------------|
|-----------------------------------------------------|

|----------------------------------------|-------------------------------------|
|--17--14--17p14-------------------------|--2--5p2-----2--5p2--5p2--5p2--2--2--|
|-----------------16--14--\----2--4b6----|----------4--------------------------|
|----------------------------------------|-------------------------------------|
|----------------------------------------|-------------------------------------|
|----------------------------------------|-------------------------------------|

|---------------------------------|----------------------------|
|--5p2----------------------------|----------------------------|
|-------4--2-----2--4--4b6--r4p2--|-----2--4p2-----------------|
|-------------4-------------------|--4----------4--2-----------|
|---------------------------------|-------------------4--2-----|
|---------------------------------|-------------------------5--|
                                                     PM.......


|-------------------------|--------------------------|----------5tr(2)--|
|-------------------------|--------------------------|--5tr(2)----------|
|-------------------------|------------------4tr(2)--|------------------|
|--------------2-~-~---2--|--4tr(2)--4tr(2)----------|------------------|
|--------2--4--------4----|--------------------------|------------------|
|--2--5-------------------|--------------------------|------------------|
  PM.........|

12.METAL MILITIA

Rhythm Fig.1

|------------|----------------||--------------------------------------------|
|------------|----------------||*-------------------------------------------|
|------------|----------------||--------------------------------------------|
|------------|----------------||--------------------------------------------|
|--------3/--|--8----8--7--5--||*-----------------------------------5----7--|
|--------1/--|--6----6--5--3--||---0--0--0--0--0--0--0--0--0--0--0--3----5--|

				  PM..............................]

|-------------------------------------------|-------------------------------------------|
|-------------------------------------------|-------------------------------------------|
|-------------------------------------------|-------------------------------------------|
|-------------------------------------------|-------------------------------------------|
|-----------------------------------8----7--|-----------------------------------5----7--|
|--0--0--0--0--0--0--0--0--0--0--0--6----5--|--0--0--0--0--0--0--0--0--0--0--0--3----5--|

  PM..............................]           PM..............................]

|-------------------------------------------|------------------------------------||
|-------------------------------------------|-----------------------------------*||
|-------------------------------------------|------------------------------------||
|-------------------------------------------|------------------------------------||
|-----------------------------------5----7--|--------------------------8--7--5--*||
|--0--0--0--0--0--0--0--0--0--0--0--3----5--|--3--3--3--3--3--3--3--3--6--5--3---||

  PM..............................]           PM.....................]


							 ___________________
 w/ Rhy.Fig.1(4 times) (4th time 1st 3 bars only)       | 1.2.3.            |

||----------------|------------------|------------------|-------------------||
||*---------------|------------------|------------------|------------------*||
||----------------|------------------|------------------|-------------------||
||----------------|------------------|------------------|-------------------||
||*---------------|------------------|------------------|------------------*||
||----------------|------------------|------------------|-------------------||

 4.

|--------------------------|--------------------|---------------|
|--------------------------|--------------------|---------------|
|--------------------------|--------------------|---------------|
|--------------------------|--------------------|---------------|
|--------------------------|--8--7--5--8--7--5--|--7--------12\-|
|--0--0--0--0--0--0--0--0--|--6--5--3--6--5--3--|--5------------|

  PM......................]


  Rhythm Fig. 2      play 3 times          end Rhy. Fig. 2                     play 3 times

||-------------------------------||-----------------------||-------------------------------||
||*-----------------------------*||-----------------------||*-----------------------------*||
||-------------------------------||-----------------------||-------------------------------||
||-----7-----5-----2-----1----0--||--8\3--5---------------||-----7-----5-----2-----1----0--||
||*-0-----0-----0-----0---------*||--6\1-----3---5--7--8--||*-0-----0-----0-----0---------*||
||-------------------------------||--------------3--5--6--||-------------------------------||


			   $
                           w/ Rhy. Fig. 2

||-----------------------||-------------|------------|------------|-------------|
||-----------------------||*------------|------------|------------|------------*|
||-----------------------||-------------|------------|------------|-------------|
||--8\3----5-------------||-------------|------------|------------|-------------|
||--6\1----3----5--7--8--||*------------|------------|------------|------------*|
||--------------3--5--6--||-------------|------------|------------|-------------|

 w/ Rhy. Fig. 2

|---------|---------|---------|---------|---------|---------|---------|---------|--------|
|---------|---------|---------|---------|---------|---------|---------|---------|--------|
|---------|---------|---------|---------|---------|---------|---------|---------|--------|
|---------|---------|---------|---------|---------|---------|---------|---------|--------|
|---------|---------|---------|---------|---------|---------|---------|---------|--------|
|---------|---------|---------|---------|---------|---------|---------|---------|--------|
1. Thunder...       Senseless...         Victims...          Running...         Stabbing..

|---------|---------|---------|---------|---------|---------|---------|
|---------|---------|---------|---------|---------|---------|---------|
|---------|---------|---------|---------|---------|---------|---------|
|---------|---------|---------|---------|---------|---------|---------|
|---------|---------|---------|---------|---------|---------|---------|
|---------|---------|---------|---------|---------|---------|---------|
          Leaving...           Suicide...          Ripping...


 Pre-Chorus

|-------------------|----------------|-----------|-------------|
|-------------------|----------------|-----------|-------------|
|-------------------|----------------|-----------|-------------|
|--7--7------7------|--5----3--2--2--|--7--------|--5----3--5--|
|--5--5------5------|--3----1--0--0--|--5--------|--3----1--3--|
|-------------------|----------------|-----------|-------------|
 Oh!

 Chorus
 Rhy. Fig. 3

|-------------------------------------------|-------------------------------------------|
|-------------------------------------------|-------------------------------------------|
|-------------------------------------------|-------------------------------------------|
|-----------------------------------3----7--|-----------------------------------8----7--|
|--0--0--0--0--0--0--0--0--0--0--0--1----5--|--0--0--0--0--0--0--0--0--0--0--0--6----5--|
|-------------------------------------------|-------------------------------------------|

  PM..............................]	      PM..............................]


							      3rd time to CODA 2
                                                                  end Rhy. Fig.3

|-------------------------------------------|-----------------------------------|
|-------------------------------------------|-----------------------------------|
|-------------------------------------------|-----------------------------------|
|-----------------------------------3----7--|--------------------------8--7--5--|
|--0--0--0--0--0--0--0--0--0--0--0--1----5--|--0--0--0--0--0--0--0--0--6--5--3--|
|-------------------------------------------|-----------------------------------|

  PM..............................]           PM.....................]


                                       4th time to CODA 1  __________________
 w/ Rhy. Fig.3(3 times) (3rd time 1st 3 bars only)        | 1.2.             |

||------------------|------------------|------------------|------------------||
||*-----------------|------------------|------------------|-----------------*||
||------------------|------------------|------------------|------------------||
||------------------|------------------|------------------|------------------||
||*-----------------|------------------|------------------|-----------------*||
||------------------|------------------|------------------|------------------||


 Rhy. Fig. 4				        end Rhy. Fig.4
 3.

|--------------------------|--------------------|------------|
|--------------------------|--------------------|------------|
|--------------------------|--------------------|------------|
|--------------------------|--8--7--5--8--7--5--|--7---------|
|--0--0--0--0--0--0--0--0--|--6--5--3--6--5--3--|--5---------|
|--------------------------|--------------------|------------|

  PM.....................]


 CODA 1
 w/ Rhy. Fig.4

|-------------|-------------|------------|
|-------------|-------------|------------|
|-------------|-------------|------------|
|-------------|-------------|------------|
|-------------|-------------|------------|
|-------------|-------------|------------|


 Solo

|--------------------------------|----8---------------------8--------7--|
|---------12--------10--------9--|--8b9-------r8----b9----8b9-----------|
|-----10------8--9---------8-----|--------------------------------------|
|--9--------------------7--------|--------------------------------------|
|--------------------------------|--------------------------------------|
|--------------------------------|--------------------------------------|

|--10p7------7--10p7---------------------------------|
|--------10-----------10--7--7--7--10p7--------------|
|----------------------------------------9--7-----7--|
|----------------------------------------------9-----|
|----------------------------------------------------|
|----------------------------------------------------|

|---------------------------------------------|--------------------------------|
|---------------------------------------------|--------------------------------|
|--9--7-----7--9--7---------------------------|--------------------------------|
|--------9-----------9--7--9p7-----7--9p7-----|--------------------------------|
|-------------------------------9----------9--|--9\7--5----7--5-------5-~------|
|---------------------------------------------|------------------7-------------|



|--------------------------------------|------------------------10p7--------------------|
|--------------------------------------|----------------7--10p7------10--7------7--10p7-|
|---------------------------------7--9-|-9p7---7--9b11----------------------10----------|
|--------------X--7--9p7----7--9-------|-----9------------------------------------------|
|------5--5/9------------9-------------|------------------------------------------------|
|-5h7----------------------------------|------------------------------------------------|

|--10p7--------------------------------------------|
|--------10--7------7--10p7------------------------|
|---------------10-----------9--7-----{9}b11------r|
|----------------------------------9---------------|
|--------------------------------------------------|
|--------------------------------------------------|

|------------------------------------------7--|
|------------------------------------/7-------|
|--{9}b11----9b11----9b11-~------r9--/7-------|
|---------------------------------------------|
|---------------------------------------------|
|---------------------------------------------|

|--9--7--7--9--10--10--9--10--12--12--10--12--14--14--12--13--15--|
|-----------------------------------------------------------------|
|-----------------------------------------------------------------|
|-----------------------------------------------------------------|
|-----------------------------------------------------------------|
|-----------------------------------------------------------------|

|--15--14--14--15--17----16--17--19----17--19--20----19----|
|----------------------------------------------------------|
|----------------------------------------------------------|
|----------------------------------------------------------|
|----------------------------------------------------------|
|----------------------------------------------------------|

|--22b24----r--b24--22b24------22b25--|--22b25---r--19h22p19----19--19--|
|-------------------------------------|---------------------------------|
|-------------------------------------|---------------------------------|
|-------------------------------------|---------------------------------|
|-------------------------------------|---------------------------------|
|-------------------------------------|---------------------------------|


|--22p19------19--22p19-------------------------19h22p19----------|
|---------22-------------22--19------19--22p19------------22--19--|
|--------------------------------22-------------------------------|
|-----------------------------------------------------------------|
|-----------------------------------------------------------------|
|-----------------------------------------------------------------|

|-----------------19h22p19---------------------------------------|
|------19--22p19------------22--19--19--22p19---------19--22p19--|
|--22------------------------------------------21b23-------------|
|----------------------------------------------------------------|
|----------------------------------------------------------------|
|----------------------------------------------------------------|

|--------------------22p19\18---------------------------22p19\18---------|
|---------19--22p19------------22p19---------19--22p19------------22p19--|
|--21b23------------------------------21b23------------------------------|
|------------------------------------------------------------------------|
|------------------------------------------------------------------------|
|------------------------------------------------------------------------|

|-----------------------------------|-------------------------------------------------|
|---------19--22p19------19--22p19--|--22b24---22b24---22b24---22b24---22b24---22b24--|
|--21b23-------------21-------------|-------------------------------------------------|
|-----------------------------------|-------------------------------------------------|
|-----------------------------------|-------------------------------------------------|
|-----------------------------------|-------------------------------------------------|

|-------------------|
|--22b24-~----------|
|-------------------|
|-------------------|
|-------------------|
|-------------------|



 Interlude

|-----------|----------|--------------------------------------------------|
|-----------|----------|--------------------------------------------------|
|-----------|----------|--------------------------------------------------|
|--2--------|----------|--------------------------------------------------|
|--0--------|----------|--0--0--0--0--0--0--0--0--0--0--0--0--0--0--0--0--|
|-----------|----------|--------------------------------------------------|

			 PM.............................................]

                                                                     play 4 times

|--------------------------------------------------||-------------------------------||
|--------------------------------------------------||*-----------------------------*||
|--------------------------------------------------||-------------------------------||
|--------------------------------------------------||---8----3----5-----------------||
|--0--0--0--0--0--0--0--0--0--0--0--0--0--0--0--0--||*--6----1----3----5--5--7--3--*||
|--------------------------------------------------||------------------3--3--5--1---||

  PM.............................................]

                        play 4 times

||-----------------------------------||-----------------------------------||
||*---------------------------------*||*---------------------------------*||
||-----------------------------------||-----------------------------------||
||--------5----7------------4--------||--------6----8----3--3----5--------||
||*--3----3----5----7--7----2----5--*||*--4----4----6----1--1----3----6--*||
||---1--------------5--5---------3---||---2---------------------------4---||

||-------------------------------------||-------------------------------------------|
||*-----------------------------------*||-------------------------------------------|
||-------------------------------------||-------------------------------------------|
||----------7---------4--4----6--------||-------------------------------------------|
||*--5------5----2----2--2----4----7--*||--7--7----5--5-----------------------------|
||---3-----------0-----------------5---||------------------8--8----7--7----5--7--8--|

                                            D.S.al CODA 2

|-------------------------------------------|-----------|
|-------------------------------------------|-----------|
|-------------------------------------------|-----------|
|-------------------------------------------|-----------|
|-------------------------------------------|--2--------|
|--8--8----7--7----5--5----3--3----2--3--5--|--0--------|

 CODA 2
 w/ Rhy. Fig. 3		      Repeat and fade

|----------|----------|----------|----------||
|*---------|----------|----------|---------*||
|----------|----------|----------|----------||
|----------|----------|----------|----------||
|*---------|----------|----------|---------*||
|----------|----------|----------|----------||

ENJOY!!!!RIP:CLIFF BURTON
comments
print report bad tab
9 comments total. Showing first comments.
0 reply
EarthAD wrote on December 9 2004, 12:00 am

solo from seek and destroy is missing....

0 reply
EarthAD wrote on December 9 2004, 12:00 am

but then again i could just go look at another tab for it... good job. I hope you didnt just copy paste all this

0 reply
samuellae wrote on February 12 2005, 12:00 am

what about the solo before Four Horsemen?

I want to post or [tab]
guest
You may want to rate the tab now too:
select rating
Please do not post tabs as comments. Select "correction" instead!