Oops, an error
Loading. Please wait.

Cunning Stunts Bass Tab

ver1
ver1

Album

Solo

Whole song

More versions @911Tabs.com
6,215 views 1 this week
1 commentread comment
1 2 3 4 5
excellent!
x 2
Autoscroll
+/-
esc
set tempo
stop
Hey! There's an official Ultimate Guitar app which is ideal
for learning songs when you're away from computer. Get the app
WARNING: You are trying to view
                                    content from Ultimate-Guitar.com
                                    in an unauthorized application,
                                    which is prohibited.

                                    Please use an official Ultimate
                                    Guitar Tabs application for iPhone,
                                    iPad or Android to access legitimate
                                    chords, guitar, bass, and drum tabs
                                    from Ultimate-Guitar.com database.

                                    Type "ultimate guitar tabs" in Apple
                                    App Store's or Android Market's
                                    search to find the application.
Metallica
Cunning Stunts

So What
Intro:
|--------------------------------|--------------------------------|
|-------------Guitar-------------|--------------------------------|
|---------------x4---------------|--------------------------------|
|--------------------------------|14-------------(14)------------|

|--------------------------------|--------------------------------|
|--------------------------------|--------------------------------|
|--------------------------------|--------------------------------|
|-5-------5---5---5---0---3---5--|-5-------5---5---5---0---3---5--|

|--------------------------------|--------------------------------|
|--------------------------------|--------------------------------|
|--------------------------------|-----------------------------3--|
|-5---0---3---5---5---0---3---5--|-5-------5---5---5-------5------|

Verse 1, 2, 3, 4:
|--------------------------------|--------------------------------|
|*-------------------------------|--------------------------------|
|*5-------5---5---5---5---5---5--|-5---5---5---5---5---5---5---5--|
|--------------------------------|--------------------------------|

|--------------------------------|--------------------------------|
|--------------------------------|--------------------------------|
|-5---5---5---5---5---5---5---5--|-5---5---5---5---5---5---3---3--|
|--------------------------------|--------------------------------|

|--------------------------------|--------------------------------|
|--------------------------------|--------------------------------|
|--------------------------------|--------------------------------|
|-5-------5---5---5---0---3---5--|-5-------5---5---5---0---3---5--|

|--------------------------------|--------------------------------|
|--------------------------------|--------------------------------|
|--------------------------------|-----------------------------3--|
|-5---0---3---5---5---0---3---5--|-5-------5---5---5-------5------|

|--------------------------------|--------------------------------|
|--------------------------------|--------------------------------|
|-5-------5---5---5---5---5---5--|-5---5---5---5---5---5---5---5--|
|--------------------------------|--------------------------------|

|--------------------------------|--------------------------------|
|--------------------------------|--------------------------------|
|-5---5---5---5---5---5---5---5--|-5---5---5---5---5---5---3---3--|
|--------------------------------|--------------------------------|

|--------------------------------|--------------------------------|
|--------------------------------|--------------------------------|
|--------------------------------|--------------------------------|
|-5-------5---5---5---0---3---5--|-5-------5---5---5---0---3---5--|

|--------------------------------|--------------------------------|
|--------------------------------|--------------------------------|
|--------------------------------|--------------------------------|
|-5---0---3---5---5---0---3---5--|-5-------5---5---5---5---5-----|

|--------------------------------|--------------------------------|
|--------------------------------|--------------------------------|
|--------------------------------|--------------------------------|
|-1-------1---1---1---1---1---3--|-6---6---6---6---6---6---6---6--|

|--------------------------------|--------------------------------|
|--------------------------------|--------------------------------|
|--------------------------------|--------------------------------|
|-5---5---5---5---5---0---3---5--|-5---5---5---5---5-------5---3--|

|--------------------------------|--------------------------------|
|--------------------------------|--------------------------------|
|--------------------------------|--------------------------------|
|-1-------1---1---1---1---1---3--|-6---6---6---6---6---6---6---6--|

|--------------------------------|--------------------------------|
|--------------------------------|--------------------------------|
|--------------------------------|--------------------------------|
|-5-------5---5---5---0---3---5--|-5-------5---5---5---0---3---5--|

                                  1. 2. * to Coda
|--------------------------------|--------------------------------|
|--------------------------------|-------------------------------*|
|--------------------------------|---------------------------3/7-*|
|-5---0---3---5---5---0---3---5--|-5-------5---5---5---5---5------|

                                  3.
                                 |--------------------------------|
                                 |--------------------------------|
                                 |-----------------5---7---9---7--|
                                 |-5-------5---5------------------|

Guitar Solo:
|--------------------------------|--------------------------------|
|--------------------------------|*------------------------------*|x 3
|-5-------5---5---5---5---5---5--|*5---5---5---5---5---5---5---5-*|
|--------------------------------|--------------------------------|

|--------------------------------|--------------------------------|
|--------------------------------|--------------------------------|
|--------------------------------|--------------------------------|
|-5-------5---5---5---0---3---5--|-5-------5---5---5---0---3---5--|

|--------------------------------|--------------------------------|
|--------------------------------|--------------------------------|
|--------------------------------|-----------------------------3--|
|-5---0---3---5---5---0---3---5--|-5-------5---5---5-------5------|

|--------------------------------|--------------------------------|
|--------------------------------|-----------------3---3---5---5--|
|-5-------5---5---5---5---5---5--|-5---5---5---5------------------|
|--------------------------------|--------------------------------|

|-------------------------5---5--|-7---7---7---7---7---7---------|
|-3---3---5---5---7---7----------|--------------------------------|
|--------------------------------|--------------------------------|
|--------------------------------|--------------------------------|

|--------------------------------|--------------------------------|
|--------------------------------|--------------------------------|
|--------------------------------|--------------------------------|
|-5-------5---5---5---0---3---5--|-5-------5---5---5---0---3---5--|

|--------------------------------|--------------------------------|
|--------------------------------|--------------------------------|
|--------------------------------|--------------------------------|
|-5---0---3---5---5---0---3---5--|-5-------5---5---5---5---5-----|

|--------------------------------|--------------------------------|
|--------------------------------|--------------------------------|
|--------------------------------|--------------------------------|
|-1-------1---1---1---1---1---3--|-6---6---6---6---6---6---6---6--|

|--------------------------------|--------------------------------|
|--------------------------------|--------------------------------|
|--------------------------------|--------------------------------|
|-5---5---5---5---5---0---3---5--|-5---5---5---5---5---0---3---5--|

|--------------------------------|--------------------------------|
|--------------------------------|--------------------------------|
|--------------------------------|-----------------------------7--|
|-5---0---3---5---5---0---3---5--|-5---5---5---5---5---5---5---0--|


Coda:
|--------------------------------|--------------------------------|
|--------------------------------|--------------------------------|
|--------------------------------|--------------------------------|
|-5---0---3---5------------------|(5)-----------------------------|

|--------------------------------|--------------------------------|
|--------------------------------|--------------------------------|
|--------------------------------|--------------------------------|
|(5)-----------------------------|(5)-----------------------------|

|--------------------------------|
|--------------------------------|
|--------------------------------|
|-5---/--12---------------------| End

Creeping Death
Time 4/4
beat 184    

Intro:

|Fig.1
|--------------------------------|--------------------------------|
|*-------------------------------|--------------------------------|
|*------------------------7------|(7)-----------------------------|
|-0---0---0---0---0--------------|--------------------------------|

                                                         end Fig.1|
|--------------------------------|--------------------------------|
|--------------------------------|-------------------------------*|
|-------------------------7---5--|(5)----------------------------*|
|-0---0---0---0---0--------------|--------------------------------|

|Fig.1A
|--------------------------------|--------------------------------|
|*-------------------------------|--------------------------------|
|*------------------------7------|(7)--------------7--------------|
|-0---0---0---0---0--------------|--------------------------------|

                                                        end Fig.1A|
|--------------------------------|--------------------------------|
|--------------------------------|-------------------------------*|
|-------------------------7---5--|(5)--------------5-------------*|
|-0---0---0---0---0--------------|--------------------------------|

|--------------------------------|--------------------------------|
|--------------------------------|--------------------------------|
|--------------------------------|--------------------------------|
|---------5-------3-------2------|-0------------------------------|

|--------------------------------|--------------------16--17--16-|
|------------- x 6 --------------|--------------------------------|
|--------------------------------|--------------------------------|
|--------------------------------|--------------------------------|

|Fig.2                                                   end Fig.2|
|--------------------------------|--------------------------------|
|*-------------------------------|-------------------------------*|x 4
|*-------------------------------|-----------------2---3---2---0-*|
|-0---0---0---0---0---0---0---0--|-0---0---0---0------------------|

|Fig.3                                                   end Fig.3|
|--------------------------------|--------------------------------|
|*-------------------------------|-------------------------------*|x 4
|*-------------------------------|-------------------------------*|
|-0---0---3-------0---0---3------|-0---0---2---2---2---2---2---2--|

|--------------------------------|--------------------------------|
|*-------------------------------|-------------------------------*|
|*-------------------------------|-----------------2---3---2---0-*|
|-0---0---0---0---0---0---0---0--|-0---0---0---0------------------|

|Fig.4                                                   
|--------------------------------|--------------------------------|
|--------------------------------|--------------------------------|
|---------7---------------7------|-----7---5-----------7---5---7--|
|-0---------------0---0-------0--|(0)-----------------------------|

                                                         end Fig.4|
|--------------------------------|--------------------------------|
|--------------------------------|--------------------------------|
|-5---7---5-------4-------0------|-2-------2-------4--------------|
|--------------------------------|-------------------------2------|

Verse 1, 2, 3:

   Repeat Fig.2 x 8
   Repeat Fig.3 x 4

Chorus:

|Fig.5
|--------------------------------|--------------------------------|
|--------------------------------|--------------------------------|
|--------------------------------|---------------------3-------5--|
|-0-------0-------0---0---0---0--|(0)--0---0---0---0--------------|

|--------------------------------|--------------------------------|
|--------------------------------|--------------------------------|
|(5)------5-------5---5---5---5--|-5---5---5---5---8-------8------|
|--------------------------------|--------------------------------|

|--------------------------------|--------------------------------|
|--------------------------------|--------------------------------|
|-7-------7-------7---7---7---7--|(7)--7---7---7---7---3-------5--|
|--------------------------------|--------------------------------|

|--------------------------------|--------------------------------|
|--------------------------------|--------------------------------|
|(5)------5-------5---5---5---5--|--------------------------------|
|--------------------------------|-1---1---1---1---3---3---3-----|

|--------------------------------|--------------------------------|
|--------------------------------|--------------------------------|
|--------------------------------|---------------------3-------5--|
|-0-------0-------0---0---0---0--|(0)--0---0---0---0--------------|

|--------------------------------|--------------------------------|
|--------------------------------|--------------------------------|
|(5)------5-------5---5---5---5--|-5---5---5---5---8-------8------|
|--------------------------------|--------------------------------|

|--------------------------------|--------------------------------|
|--------------------------------|--------------------------------|
|-7-------7-------7---7---7---7--|(7)--7---7---7---7---3-------5--|
|--------------------------------|--------------------------------|

                                                         end Fig.5|
|--------------------------------|--------------------------------|3rd	
|--------------------------------|--------------------------------|Time
|(5)------5---5---5---5---5---5--|-5-------2-------4--------------|to 
|--------------------------------|-------------------------2------|Coda

Repeat Fig.2 x 2
Repeat Fig.4

Guitar Solo:
|--------------------------------|--------------------------------|
|*-------------------------------|--------------------------------|
|*-------------------------------|-----------------2---3---2---0--|
|-0---0---0---0---0---0---0---0--|-0---0---0---0------------------|

|--------------------------------|--------------------------------|
|--------------------------------|-------------------------------*|x 4
|-0---0---0---0---0---0---0---0--|-0---0---0---0---0-------3-----*|
|--------------------------------|--------------------------------|

Repeat Fig.3 x 4
Repeat Fig.5 

|--------------------------------|
|--------------------------------|
|--------------------------------|
|-0------------------------------|

Bridge:
 half-time
|Fig.6
|--------------------------------|--------------------------------|
|*-------------------------------|--------------------------------|
|*----------------7---7---7---7--|-8---8---8-------5--------------|
|-0------------------------------|--------------------------------|

                                                         end Fig.6|
|--------------------------------|--------------------------------|
|--------------------------------|-------------------------------*|x 6
|-7------------------------------|-------------------------------*|
|-----------------0---0---0---0--|-3-------3---3---1-------1------|

Repeat Fig.2 x 2

|--------------------------------|--------------------------------|
|--------------------------------|--------------------------------|
|--------------------------------|-----------------5----------(5)|
|-0------------------------------|-0-----1-----3------------------|

Coda:
|--------------------------------|--------------------------------|
|*----------------------------2--|(2)-----------------------------|
|*----------------------------2--|(2)-----------------------------|
|-0---0---0---0---0---0---0------|---------0---0---0---0---3---2--|

|--------------------------------|--------------------------------|
|-----------------------------3--|(3)----------------------------*|x 6
|-----------------------------3--|(3)------3---3---3---3---5---5-*|
|-0---0---0---0---0---0---0------|--------------------------------|

|--------------------------------|--------------------------------|
|--------------------------------|--------------------------------|
|---------7-------5-------3---2--|(2)-----------------------------|
|-0---0--------------------------|--------------------------------|

|--------------------------------|--------------------------------|
|--------------------------------|--------------------------------|
|(2)------3-------2-------0---3--|(3)-----------------------------|
|--------------------------------|--------------------------------|

|--------------------------------|--------------------------------|
|*-------------------------------|--------------------------------|
|*(3)-----7-------5-------3---2--|(2)-----------------------------|
|--------------------------------|--------------------------------|

                                 1. 2. 3.
|--------------------------------|--------------------------------|
|--------------------------------|-------------------------------*|
|(2)------3-------2-------0---3--|(3)----------------------------*|
|--------------------------------|--------------------------------|

Repeat Fig.1
Repeat Fig.1A
                                
|--------------------------------|--------------------------------|
|--------------------------------|--------------------------------|
|--------------------------------|--------------------------------|
|-----------------5--------------|-3---------------2--------------|

|--------------------------------|--------------------------------|
|--------------------------------|--------------------------------|
|--------------------------------|--------------------------------|
|-0------------------------------|(0)-----------------------------|

|--------------------------------|--------------------------------|
|--------------------------------|--------------------------------|
|--------------------------------|--------------------------------|
|(0)-----------------------------|(0)-----------------------------|

|--------------------------------|--------------------------------|
|--------------------------------|--------------------------------|
|--------------------------------|--------------------------------|
|(0)-----------------------------|(0)----------------------0------|

|--------------------------------:
|--------------------------------:
|--------------------------------:
|-0------------------------------: End.

Sad But True
F:------------------------------------|-------------------------------------|
C:------------------------------------|-------------------------------------|
G:--0----------0--0--0--1----------1--|--0-----------0--0--0--1-------------|
D:------------------------------------|-------------------------------------|

F:-----------------------------------------|-------------------------|------|
C:---------------------------------8--5----|-------------------------|------|
G:--0----------0--0--0--1---------------8--|--0----------0--0--0--1--|-Rest-|
D:-----------------------------------------|-------------------------|------|
               Riff 1.                    (x3) Bass Fill 1.
F:-----------|-------------------------------|-----------------------------|
C:-----------|*-----------------------------*|--------------------~~~~~~~--|
G:-Drum-Fill-|---------------5p0--1p0--------|--------------5-0-5-5--------|
D:-----------|*--0-----0--0------------3p0--*|--0-----0--0-----------------|

F:--------------|----------------------|-------------|---------------|
C:--------------|----------------------|-------------|---------------|
G:-Riff-1-(x3)--|---------------rest---|--Drum-Fill--|--Riff-1-(x2)--|
D:--------------|--0-----0--0----------|-------------|---------------|

   Bass Riff 2. (Verse)                              (x4)
F:--------------------------------------------------------|
C:*------------------------------------------------------*|
G:------------5-------------------------------------------|
D:*-0--0--0-0----0--0--R--0-0--0--0--0--6--0--0--R--0-0--*|

   Bass Riff 3. (Chorus)
F:---------------------------------------------------------------------------|
C:*--------------------------------------------------------------------------|
G:------------5--------------------------5-----------------------------------|
D:*-0--0--1-1----1--0--0--0-0--0--0--1-1----1--5--5--5-5-5--5-5-5-4-3--5--3--|

                                  (x2)
F:------------------------------------|-------------|--------------|
C:-----------------------------------*|-------------|--------------|
G:--------------3-3-3-3-------2-3-5---|-Riff-1-(x3)-|-Bass-Fill-1--|
D:3--3-3--3--3-----------0--X--------*|-------------|--------------|

                                                 *2nd Verse
F:---------|---------------------|-------------|---------------------|
C:---------|---------------------|-------------|---------------------|
G:-Riff-1--|---------------Rest--|--Drum-Fill--|--Bass-Riff-2.-(x4)--|
D:---------|--0-----0--0---------|-------------|---------------------|

   *2nd Chorus                            Bass Fill 2.
F:---------------------|----------------|----------------------------|
C:---------------------|----------------|----------------------------|
G:--Bass-Riff-3.-(x2)--|--Riff-1.-(x2)--|------------------0h1p0-----|
D:---------------------|----------------|--0-----0--0--0-3-------3---|

                                         (x4)
F:-------------------------------------------|--------------|
C:-------------------------------------------|--------------|
G:--0---------0-----0--1------------1--1--1--|--Rest,-Drums-|
D:---------------3---------------------------|--------------|

  Gtr. Solo 1
F:----------------|---------------------------|----------|---------|
C:----------------|---------------------------|----------|---------|
G:--Riff-1.-(x3)--|--------------5-0----------|--Riff-1--|-Fill-2--|
D:----------------|--0-----0--0------0-0-3-5--|----------|---------|

                           (x4)  *3rd Chorus     Gtr Solo 2
F:-----------------------------|---------------|----------|----------|
C:-----------------------------|---------------|----------|----------|
G:--0--0--1-1----1--0--0--0-0--|--Riff-3-(x2)--|--Riff-1--|--Fill-2--|
D:------------3----------------|---------------|----------|----------|

                                                            *3rd Verse
F:----------|---------|---------------------|-------------|---------------|
C:----------|---------|---------------------|-------------|---------------|
G:--Riff-1--|-Fill-2--|---------------Rest--|--Drum-Fill--|--Riff-2-(x4)--|
D:----------|---------|--0-----0--0---------|-------------|---------------|

    *4th Chorus                         (x2)
F:---------------|--------------------------|--------------------------|
C:---------------|--------------------------|--------------------------|
G:--Riff-3-(x2)--|--------------------------|--------------------------|
D:---------------|--0--0--0--0--0--0--0--0--|--0--0--12---0--0--0--0--|

F:------------------------|--------------|-------------------------||
C:------------------------|--------------|-------------------------||
G:------------------------|--Gtr,-Drums--|------------Rest.--------||
D:--0--0--0--0--0---Rest--|--------------|--0----------------------||
                                          
             accent                      accent

Ain't My Bitch
|-----------------------------------------------------------| 
|-----------------------------------------------------------| 
|-----------------------------------------------------------| 
|-0-0-(0)-0-3---0-0----------------------0-0-(0)-0-0-3---0--| 

  BASS FIG 1                                          END FIG 1 
|--------------------------|-%---|------------------------------| 
|--------------------------|--%--|------------------------------| 
|--------------------------|-%---|------------------------------| 
|-0--0--0--0--0--0--0--0-0-|--%--|-0-0-0-0-0-0-0-(0)-0-3---5-3--| 

|----------------------------------------------------------------------- 
|----------------------------------------------------------------------- 
|-----------0-2/5--7-7-7-7-7-7-7-7-7--7-7-7-7-7-7-7-7-7-7-7-7-7---7----- 
|-(0)-0-3-------------------------------------------------------0---0-3- 

------------------------------------------------------------------------ 
------------------------------------------------------------------------ 
----------------7---7---7---------7---7---7------7-7-7-7-7-7--7--------- 
-3--3--5-3--0-0---0---0---0-0-0-0---0---0---0--0-------------0--0-3-3-3- 

---------| 
---------| 
---------| 
-/7-5-3--| 

  1,2,3 VERSES W/BASS FIG 1 

|----------------------------------------------------------------------- 
|----------------------------------------------------------------------- 
|----------------------------------------------------------------------- 
|-(0)-0-3---3-3-5-3-5-5-5-5-5-5-5-3-3-5-5-5-5-5-5-5-5-3-3-5-5-5-5-5-5-0- 

------------------------------------------------------------------------ 
------------------------------------------------------------------------ 
----------------------------------------------------------7------------- 
-5---5-3---3---0-------0------0--------0---0---------0---0-----7------ 

                                     CHORUS  & BASS FIG 2        
-----------------------------------|------------------------------------ 
-----------------------------------|------------------------------------ 
-----------------------------------|------------------------------------ 
-0-0-0-0-0-0-0-0-0-0-0-0-0-0-0-0-7-|-7-7-7-7-7-0-0-5-5-5-5-5---5-0-0-3-- 
                                            END FIG 2    
------------------------------------------------|--%---|---------------- 
------------------------------------------------|---&--|---------------- 
------------------------------------------------|--^---|---------------- 
-3-3-3-3-3-2-1--0-0-0-0-3P0-0-0-0-0-3P0-0-0-3P0-|---$--|-7--7-7-7-7-7-7- 

------------------------------------------------------------------------ 
------------------------------------------------------------------------ 
------------------------------------------------------------------------ 
-5-5-5-5-5-5-5-5-3-3-3-3-3-3-2-1-0----0-0-0-0-0-0-0-0-0-0-0-0-0-0-0-0-0- 

------------------------------------------------------------------------ 
------------------------------------------------------------------------ 
----------------0-2/5--7-7-7-7-7-7-7-7-7-7-7---7---7---7---------7-7-7-- 
-0-0-(0)-0-3---------------------------------0---0---0---0-0-0-0-------- 

------------------------------------------------------------------------ 
------------------------------------------------------------------------ 
-----7------------------------------------------------------------------ 
-0-0---0-3-----(3)--/7-5-3-----------0-0-(0)-0-3-----(3)-0---0-0-0-0-0-- 

------------------------------------------------------------------------ 
------------------------------------------------------------------------ 
-------------------------------------7---------------------------------- 
-0-0-0-------------0-0-0-0-0-0-0-0-0-0--0-0-0-0-0-0-0-0-0-0-0-0-0-0-0-0- 

------------------------------------------------------------------------ 
------------------------------------------------------------------------ 
--------------------7--------7-------7---------7-----7----7----7---7--7- 
-0-0-0-3--3/5-3-0-0---0-0-0-0--0-0-0---0-0-0-0---0-0---0-0--0-0--0---0-- 

                     GUITAR SOLO 
-------------------|---------------------------------------------------- 
-------------------|-----4---------4-----------------------------4----4- 
-----7-7-7-7-5-----|---------------------------------------------------- 
-0-0-----------7-5-|-2-2---2-2-2-2----2------2-2-5-5-5-5-7-0-2-2---2-2-- 

------------------------------------------------| 
---4-------4-4-4-4---4--------------------------| 
------------------------------------------------| 
-2---2-2-2---------2---2--------2-2-5-5-5-5-7-0-| 

|----------------------------------------------------------------------- 
|-----6-----6------------------6----6-----------------------------6----6 
|----------------------------------------------------------------------- 
|-4-4---4-4---4-4-4--------4-4---4-4--4-4-4-4--4-4-4-7--7-9P7-4-4--4-4- 

------------------------------------------------------------------------ 
------------------------------------------------------------------------ 
------------------------------------------------------------------------ 
-4-4-4-----------------7-7-7-7-0--(0)--(0)--(0)--(0)--(0)--(0)--(0)-(0) 

------------------------------------------------------------------------ 
-------------------------------------------------4---------3--3--------- 
--------7-------7-7----------------5-5---------------------------------- 
-/12---0-----0-----3-------3-5/7-------7--2--2-2--2--1-1-1--1--1-0-0-0- 

-----------|---&---| 
-----------|--@----| 
-----------|---#---| 
-0-0-0-0-0-|--*----| 

     CHORUS W/BASS FIG 2 (4X's) 

    BASS FIG 3                                          END FIG 3 
|------------------------------------------------------------------| 
|------------------------------------------------------------------| 
|------------------------------------------------------------------| 
|-7-7-7-7-7-7-0-0-5-5-5-5-5--5-0-0-3-3-3-3-3-3-2-1-0-0-0-0-0-0-0-0-| 

  BASS FIG 3 (2 1/2X's) 

|-----------------------------------------------------------------| 
|-----------------------------------------------------------------| 
|-----------------------------------------------------------------| 
|-3-3-3-3-3-3-3-2-1-0-3-2-1-0-3-2-1-0-3-2-1--------0-0-(0)-0-3-0--| 

Hero of the Day
Intro:

7 bars guitar only

:--------------------------------|--------------------------------:
:--------------------------------|--------------------------------:
:-----------------------------7--|-7---7---7---7---7---7---7---7--:
:--------------------------------|--------------------------------:

Verse 1:
|--------------------------------|--------------------------------|
|-7-------7--(7)/-9---9------(9)/|11--11-----(11)/12--12-(12)----|
|-----0-------0---0-------0---0--|-0-------0---0---0-------0---0--|
|--------------------------------|--------------------------------|

|--------------------------------|--------------------------------|
|--------------------------------|--------------------------------|
|--------------------------------|--------------------------------|
|-0---0---0---0---0---0---0---0--|-0---0---0---0---0---0---0---0--|

Fig.1
|--------------------------------|--------------------------------|
|-----7------(7)/-9---9------(9)/|11--11-----(11)/12--12-(12)----|
|-0-------0---0---0-------0---0--|-0-------0---0---0-------0---0--|
|--------------------------------|--------------------------------|

                                                          end Fig.1
|--------------------------------|--------------------------------|
|--------------------------------|--------------------------------|
|--------------------------------|--------------------------------|
|-0---0---0---0---0---0---0---0--|-0---0---0---0---0---0---0---0--|

Fig.2
|--------------------------------|--------------------------------|
|-----7------(7)/-9---9------(9)/|11--11-----(11)/12--12-(12)----|
|-0-------0---0---0-------0---0--|-0-------0---0---0-------0---0--|
|--------------------------------|--------------------------------|

                                                          end Fig.2
|--------------------------------|--------------------------------|
|--------------------------------|--------------------------------|
|--------------------------------|-------------------------0------|
|-0---0---0---0---0---0---0---0--|-0---0---0---0---0---2-------2--|

Repeat Fig.2 x 1

Fig.3
|--------------------------------|--------------------------------|
|--------------------------------|--------------------------------|
|-0---0---0---0---2---2---2---2--|-4---4---4---4---5---5---4---5--|
|--------------------------------|--------------------------------|

                                                          end Fig.3
|--------------------------------|--------------------------------|
|--------------------------------|--------------------------------|
|-5/7-----------------7-------5--|(5)--7-------------------0------|
|---------0---0---0-------0------|---------0---0---0---2-------2--|

Repeat Fig.3 x 1
Repeat Fig.1 x 2
End Verse 1

Verse 2:

Repeat Fig.1 x 2
Repeat Fig.3 x 4

End Verse 2

Chorus:
Fig.4                                                     end Fig.4
|--------------------------------|--------------------------------|
|--------------------------------|--------------------------------|
|->------->------->------->------|->------->------->------->------|
|-2-2-2-2-2-2-2-2-2-2-2-2-2-2-2-2|-2-2-2-2-2-2-2-2-2---0-2-3-3-0-2|
           
Fig.4A                                                   end Fig.4A
|--------------------------------|--------------------------------|
|--------------------------------|--------------------------------|
|->------->------->------->------|->------->------->------->------|
|-3-3-2-2-2-2-2-2-2-2-2-2-2-2-2-2|-2-2-2-2-2-2-2-2-2---0-2-3-3-0-2|

Repeat Fig.4A x 4

End Chorus

Guitar Solo:

Repeat Fig.3 x 2

End Guitar Solo

Verse 3:

Repeat Fig.3 x 2

End Verse 3

Chorus:

Repeat Fig.4
Repeat Fig.4A x 5

End Chorus

Outro:

Fig.5
|--------------------------------|--------------------------------|
|--------------------------------|--------------------------------|
|--------------------------------|--------------------------------|
|-2-2-2-2-2-2-2-2-2-2-2-2-2-2-2-2|-4-4-4-4-4-4-4-4-4-4-4-4-4-4-4-4|

                                                          end Fig.5
|--------------------------------|--------------------------------|
|--------------------------------|--------------------------------|
|--------------------------------|--------------------------------|
|-5-5-5-5-5-5-5-5-5-5-5-5-5-5-5-5|-7-7-7-7-7-7-7-7-7-7-7-7-7-7-7-7|

Repeat Fig.5 x 3

|--------------------------------|--------------------------------:
|--------------------------------|--------------------------------:
|--------------------------------|--------------------------------:
|-3---2-------2------------------|(2)-----------------------------: End

King Nothing
Intro
=====           Bass Fig.1                                           (8x)
.|G|----10-----|-----------------------|------------------------|
4|D||=========||*----------------5-----|-------5--------8---7--*|
4|A|--guitar---|*---5-6-7----5/7----7--|---5/7----7-----------*|
.|E|-----------|--0-------0------------|-0-----------/6---5-----|

  Bass Fig.2                                (4x)
G|-----------------------|----------------------|
D|*----------------------|--------------8---7--*|
A|*---5-6-7----7--------|---------------------*|
E|--0-------------0-3-0--|--0-0-3-0--/6---5-----|

  Bass Fig.3
G|--------------------|------------------|------------------|
D|*-------------------|------------------|------------------|
A|*-------------------|------------------|------------------|
E|--X-0-3-0--/6-6-5-X-|-1-0-3-0-/6-6-5-X-|-1-0-3-0-/6-6-5-X-|

     (end Bass Fig.3)
G|-------------------|------------------|------------------|
D|-------------------|------------------|------------------|
A|-------------------|------------------|------------------|
E|-1-0-3-0-/6-6-5-3--|-0-0-3-0-/6-6-5-X-|-1-0-3-0-/6-6-5-X-|

                                        Bass Fig.4
G|------------------|------------------|-----------------------|
D|------------------|------------------|--------7-----7--------|
A|------------------|------------------|-0--0-0----0----0-0-0--|
E|-1-0-3-0-/6-6-5-X-|-1-0-3-0-/6-6-5-3-|-----------------------|

        (end Bass Fig.4)
G|----------------------|-----------------------|----------------|
D|-----7----------------|--------7-----7--------|----7-----------|
A|-(0)---7-6---5^6-5^6-|-0--0-0----0----0-0-0--|(0)---7-6----6/-|
E|----------------------|-----------------------|----------------|

  %
G|---------------------|--------------------------|---------------------------|
D|---------------------|--------------------------|---------------------------|
A|----7--7-7----7---7--|--------------------------|---------------------------|
E|-0----------0---0----|-8--8-8--8--8----8-8-8-8--|-7--7-7--7--7----7-7-7-75-|


G|----------------------|----------------------|-------------------------|
D|----------------------|----------------------|-------------------------|
A|---------------7-7----|------7--7-7----7---7-|-------------------------|
E|-5-5-3-2--1--0------5|-0--0---------0---0---|-3--3-3--3--3----3-3-5-3-|

                                              Bass Fill 1
G|------------------------|------------------|-------------------|
D|------------------------|------------------|-------------------|
A|------------------------|------------------|-------------------|
E|--2--2-2-2--2---2-2-3-2-|-1-1-1-1--1-1-1-1-|-1---------------X-|
  ____________________________________________________  ____________
  w/Bass Fig.2(4x)                                    |/2.
G|-----------------|-------------------|------6-------|---------------|
D|-------===-------|--------===--------||===========|*|-w/Bass Fill 1-|
A|-------===-------|--------===--------|-------------*|---------------|
E|-----------------|-------------------|--------------|---------------|
  __________________________________________________________
  w/Bass Fig.2(4x)
G|-----------------|-----------|-----------|----------------|
D|-------===-------|----===----|----===----|-------===------|
A|-------===-------|----===----|----===----|-------===------|
E|-----------------|-----------|-----------|----------------|
                             HALF TIME FEEL
  ____________               w/Bass Fig.4
G|------------|------3------|-------------|------------------|
D|-----===----|-|=========|-|-----===-----|--------===-------|
A|-----===----|-------------|-----===-----|--------===-------|
E|------------|-------------|-------------|------------------|

               w/Bass Fill 2  (end 1/2 time feel) w/Bass Fig.3    w/Bass Fill 3
G|------------|----------------------X---------|--------4-------|--------r------|
D|----===-----|------7---------------X---------||==============||--------e------|
A|----===-----|----------7---6-------X---------|----------------|--------s------|
E|------------|-(0)------------------X---------|----------------|-0------t------|

  w/Bass Fig.1(4x)             w/Bass Fig.1(4x)
G|--------7--------|----------|-------------------|------------------|
D||===============||----==----|--------===--------|--------===-------|
A|-----------------|----==----|--------===--------|--------===-------|
E|-----------------|----------|-------------------|------------------|


G|-------------------|-----------------|------------|-----------------|
D|-------====--------|-------====------|----====----|-------===-------|
A|-------====--------|-------====------|----====----|-------===-------|
E|-------------------|-----------------|------------|-----------------|


G|-------------------|-----------------|------------|-----------------|
D|-------====--------|-------====------|----====----|-------===-------|
A|-------====--------|-------====------|----====----|-------===-------|
E|-------------------|-----------------|------------|-----------------|

  w/Bass Fig.2(4x)
G|------------------|-----------------|------------------|
D|-------===--------|-------===-------|--------===-------|
A|-------===--------|-------===-------|--------===-------|
E|------------------|-----------------|------------------|


G|------------------|-----------------|------------------|
D|-------===--------|-------===-------|--------===-------|
A|-------===--------|-------===-------|--------===-------|
E|------------------|-----------------|------------------|

                                                  D.S. Al Coda %
G|---------------------------|----------------------------------|
D|----------=====------------|---------------====---------------|
A|----------=====------------|---------------====---------------|
E|---------------------------|----------------------------------|
   |
  -0-To Coda
   |
G|---------------------|--------|-------|-------|----------------|
D|---------------------|--------|-------|-------|----------------|
A|---------------------|--------|-------|-------|----------------|
E|1------------------X-|-0------|(0)----|(0)----|(0)-----X-X-----|
 
  Outro
  w/Bass Fig.2(4x)
G|------------------|-----------------|-----------|-----------------|
D|------=====-------|------=====------|----===----|-------===-------|
A|------=====-------|------=====------|----===----|-------===-------|
E|------------------|-----------------|-----------|-----------------|


G|------------------|---------------|-----------|-----------------|
D|------=====-------|----=====------|----===----|-------====------|
A|------=====-------|----=====------|----===----|-------====------|
E|------------------|---------------|-----------|-----------------|


G|-------------|-----------------|-----------------|------------------||
D|-------------|-----------------|-----------------|------------------||
A|-------------|-----------------|-----------------|------------------||
E|-0-----------|(0)--------------|(0)--------------|(0)---------------||

One
|----------|------------|------|------------|-----------------||----4-------|
|----------|------------|------|------------|-----------------||------------|
|----------|------------|------|------------|---2---2---2---2-||-2----2-3-2-|
|----------|------------|------|------------|-----------------||------------|


|------------|----4---------|------------|
|------------|--------------|------------|
|------------|-2----2-2h3-2-|------------|
|-3----3-0-2-|--------------|-3----3-0-2-|


  
|----4---------|---------------|---------------|
|--------------|--------7-5----|---------------|
|-2----2-2h3-2-|-0----0-----7-|---------------|
|--------------|---------------|-3----3-0-2-3--|


|------------|------------||-------7-------|
|------------|------------||---7-----------|
|----------4-|----5-----7-||-5---5---/7----|
|-0----0-2---|-3----3-5---||------------8-|


|------------|------------|--------------|
|----5-------|----3---3---|-----2---2----|
|------------|------------|---2---2---2/-|
|-3----3-5-3-|-1----1---1-|-0------------|


   
|--------7-------|------------|------------|
|----7-----------|----4-------|----3---3---|
|-/5---5---/7----|------------|------------|
|-------------8-|-3----3-5-3-|-1----1---1-|


                 1st, 2nd Verses
  
|-------------||-------4-----|-------------|
|-------------||o------------|-------------|
|--------2h3--||o-2------3-2-|-------------|
|-0----0------||-------------|-2----3-0-2--|



|---4--------|-------------|--------------|---------------|--------------|
|------------|-------------|--------------|--------7-5----|--------------|
|-2----2-3-2-|--------2h5--|-2----2-2h3-2-|-0----0-----7-|--------------|
|------------|-3--3-0------|--------------|---------------|-3----3-0-2-3-|



|-------------|------4-----|------------|--------------|--------------|
|-------------|------------|------------|--------------|--------------|
|---2-----2---|-2------3-2-|------------|-2----2-2h3-2-|--------0-2h5-|
|-0-----2-----|------------|-2----3-0-2-|--------------|-3----3-------|



  
|--------------|---------------|--------------|--------||---------------------|
|--------------|--------7-5----|--------------|--------||---------------------|
|-2----2-2h3-2-|-0----0-----7-|--------------|--------||--------2-------2----|
|--------------|---------------|-3----3-0-2-3-|-0--2-0-||-3----5---5-3-2------|



|-----------------------||--------------|
|-----------------5---6-||-----7--------|
|------2-4-2----3---4---||--5----5s7----|
|-5----------5----------||-----------8-|


 
|------------|------------|-------------|
|----5-------|----3---3---|-----2---2---|
|------------|------------|---2---2---2-|
|-3----3-5-3-|-1----1---1-|-0-----------|


  
|-------7-------|-------------|------------|--------------||-------7--------|
|---7-----------|-----5-------|----3---3---|-------------o||---7------------|
|-5---5---/7----|-------------|------------|--------2h3--o||-5---5---/7-----|
|------------8-|-3----3-5-3-|-1----1---1-|-0----0-------||------------8--|


  
|------------|------------|-------------|-------7-------|
|----5-------|----3---3---|-----2---2---|---7-----------|
|------------|------------|---2---2---2-|-5---5---/7----|
|-3----3-5-3-|-1----1---1-|-0-----------|------------8-|


  
|------------|------------|---------------|
|----5-------|----3---3---|-----2---2-----|
|------------|------------|---2---2---2---|
|-3----3-5-3-|-1----1---1-|-0-------------|



|---------------------|---------------------|---------------------|
|---------------------|---------------------|---------------------|
|--------2---------3--|------2-4-2----2--4--|--------2---------2--|
|-3----3---5-3--3-----|-3----------5--------|-3----3---5-3--2-----|


  
|---------------------|-----------------------||
|---------------------|-----------------------||
|------2-4-2----2--4--|--------2---------2----||
|-5----------5--------|-3----5---5-3--2-------||



|------------|-------------|------------|------------|-------------|
|------------|-------------|------------|------------|-------------|
|----5-----5-|-------5-----|-2--2---2---|-3--3---3---|-----5---5---|
|-5----5-5---|-3-3-3---3-0-|------0---0-|------1---0-|-5-5---5---5-|


  
|-------------|------------|---------------|-------------|-------------|
|-------------|------------|---------------|-----7-------|-------------|
|-------------|-2--2---2-0-|-3-3-3-3---3---|---5---5-----|-------5-----|
|-3-3-3-5-3-0-|------0-----|---------1---0-|-5-------5-0-|-3-3-3---3-0-|


 
|------------|-------------|-------------|-------------|-------------|
|------------|-------------|-----7-------|-------------|-------------|
|-2--2---2---|-3-3-3---3---|---5---5-----|-------------|-2--2---2-0--|
|------0---0-|-------1---0-|-5-------5-0-|-3-3-3-5-3-0-|------0------|


 
|--------------|-------------|-------------|------------|--------------|
|--------------|-------7-----|-------7-----|------------|--------------|
|-3-3-3-3---3/-|-7-7-7---7-0-|-5-5-5---5--|-2------2-0-|-3-3-3---3/---|
|---------1----|-------------|-------------|------0-----|-------1------|


      
|--------------|-------------|------------|---------------|----------|--------||
|--------7-----|-------7-----|------------|---------------|----------|--------||
|-/7-7-7---7-0-|-5-5-5---5--|-2--2-0-2-0-|-3-3-3-3---3---|-7--------|-(7)----||
|--------------|-------------|------------|---------1---0-|-0--------|-(0)----||


 
|---------------------------------|
|---------------------------------|
|-------------7---------------7---|
|-0-0-0-0-0-0-0---0-0-0-0-0-0-0---|


  
|---------------------------------|--------------------------------||
|---------------------------------|--------------------------------||
|-------------7---------------7---|-------------7--------------7---||
|-0-0-0-0-0-0-0---0-0-0-0-0-0-0---|-0-0-0-0-0-0-0--0-0-0-0-0-0-0---||


    
||----------------------------------||-|
||o--------------------------------o||-|
||o-------------7------------------o||-|
||--0-0-0-0-0-0-0--0-0-0-0-0-0-0-1--||-|



||----------------------------------|-----------------------------------|
||o---------------------------------|-----------------------------------|
||o-------------7---------------7---|-------------7---------------7-----|
||--0-0-0-0-0-0-0---0-0-0-0-0-0-0---|-0-0-0-0-0-0-0---0-0-0-0-0-0-0-----|


  
|---------------------------------|
|---------------------------------|
|-------------7---------------7---|
|-0-0-0-0-0-0-0---0-0-0-0-0-0-0---|


                                  
|---------------------------------|--------------------------------|
|---------------------------------|--------------------------------|
|-------------7-------------------|-------------7--------------7s8-|
|-0-0-0-0-0-0-0---0-0-0-0-0-0-0-1-|-0-0-0-0-0-0----0-0-0-0-0-0-----|


    
|--------------------------------|--------------------------------|
|--------------------------------|--------------------------------|
|-------------5--------------5s8-|-------------7--------------7s8-|
|-0-0-0-0-0-0----0-0-0-0-0-0-----|-0-0-0-0-0-0----0-0-0-0-0-0-----|



|---------------------------------||
|--------------------------------o||
|-------------5--------------2---o||
|-0-0-0-0-0-0----0-0-0-0-0-0---1--||


    
||-----------------------|-------------------|
||o----------------------|-------------------|
||o-------------2--------|-------2--------3--|
||--0-0-0-0-0-0----0-0-0-|-0-0-0----0-0-0----|


  
|----------------------|--------------------|
|----------------------|--------------------|
|-------------2--------|-------2--------3---|
|-0-0-0-0-0-0----0-0-0-|-0-0-0----0-0-0-----|



|----------------------|-------------------|
|----------------------|-------------------|
|-------------2--------|-------2--------3--|
|-0-0-0-0-0-0----0-0-0-|-0-0-0----0-0-0----|



|----------------------|---------------------|
|----------------------|---------------------|
|-------------2--------|-------2--------3----|
|-0-0-0-0-0-0----0-0-0-|-0-0-0----0-0-0------|


 
|-----------------------|-----------------------|------------------------||
|-----------------------|-----------------------|-----------------------o||
|-7-7-7-7-7-7-7---7-7-7-|-7-7-7-7-7-7-7---7-7-7-|-7-7-7-7-7-7-7---7-7-7-o||
|-0-0-0-0-0-0-0---0-0-0-|-0-0-0-0-0-0-0---0-0-0-|-0-0-0-0-0-0-0---0-0-0--||


   Guitar Solo lardey dar dey dar
    4x
||-----------------------|--------------------||-|
||o----------------------|-------------------o||-|
||o-------------2--------|-------2--------3--o||-|
||--0-0-0-0-0-0----0-0-0-|-0-0-0----0-0-0-----||-|


    
||------------------------|-----------------------||
||o-----------------------|----------------------o||
||o-7-7-7-7-7-7-7---7-7-7-|-7-7-7-7-7-7-7---7-7-7o||
||--0-0-0-0-0-0-0---0-0-0-|-0-0-0-0-0-0-0---0-0-0-||


  
||--------------------|-------------------|
||o-------------------|-------------------|
||o-------------7--7--|-------------7--7--|
||--0-0-0-0-0-0-0--0--|-0-0-0-0-0-0-0--0--|


  
|-------------------|--------------------||
|-------------------|-------------------o||
|-------------------|-------------------o||
|-0-0-0-0-0-0-0--1--|-3-3-3-3-3-3-3--3---||


    
||--------------------|-------------------|
||o-------------------|-------------------|
||o-------------5--5--|-------------5--5--|
||--3-3-3-3-3-3-------|-3-3-3-3-3-3-------|



|-------------------|--------------------||
|-------------------|-------------------o||
|-------------5--5--|-------------------o||
|-3-3-3-3-3-3-------|-1-1-1-1-1-1-1--1---||


     
||----------------|---------------|-------------------|-------------------||
||o---------------|---------------|-------------------|------------------o||
||o---------------|---------------|-------------------|------------------o||
||--0-0-3--0-0-3--|-0-0-3--0-0-3--|-1-1-1-1-1-1-1--1--|-1-1-1-1-1-1-1--1--||



|-----------------------|-------------------------|
|-----------------------|-------------------------|
|-----------------5-5-5-|-5-5-5-4-4-4-3-3-3-2-2-2-|
|-3-3-3-3-3-3-3---------|-------------------------|


    4x
||-----------------------|--------------------||
||o----------------------|-------------------o||
||o-------------2--------|-------2--------3--o||
||--0-0-0-0-0-0----0-0-0-|-0-0-0----0-0-0-----||



|-----------------------|-------------------------|
|-----------------------|-------------------------|
|-7-7-7-7-7-7-7---5-5-5-|-5-5-5-4-4-4-3-3-3-2-2-2-|
|-----------------------|-------------------------|


   4x
||-----------------------|--------------------||
||o----------------------|-------------------o||
||o-------------2--------|-------2--------3--o||
||--0-0-0-0-0-0----0-0-0-|-0-0-0----0-0-0-----||


  
|---------------|---------------|---------------|
|---------------|---------------|---------------|
|---------------|---------------|---------------|
|-0-0-3--0-0-3--|-0-0-3--0-0-3--|-0-0-3--0-0-3--|



||--------------------|-----------------||
||o-------------------|----------------o||
||o-------------7--7--|----------------o||
||--0-0-0-0-0-0-0--0--|-1-1-1--1-1-1----||



|---------------|---------------|----------------------|
|---------------|---------------|----------------------|
|---------------|---------------|-------------2--------|
|-3-3-3--3-3-3--|-3-3-3--3-3-3--|-0-0-0-0-0-0----0-0-0-|


 

|-------------------|--------------------------|--------------------*|
|-------------------|--------------------------|--------------------*|
|-------2--------3--|-7-7-7-7-7-7-7---19-19-19-|-19-19-19-19--------*|
|-0-0-0----0-0-0----|-0-0-0-0-0-0-0----0--0--0-|--0--0--0--0--------*|

Fuel
Time 4/4
beat 208

Gimme Fuel, Gimme Fire, gimme that wich I desire, ohoo. Eb:-0-

Fig.1
                                                     1.  
Gb:-------------------------------------------------|-----------------:
Db:-------------------------------------------------|-----------------:
Ab:-------------------------------------------------|-----------------:
Eb:-3p0-0-3p0-0-3p0-3p0-0-3p0-0-3p0-3p0-0-3p0-0-3p0-|-3/5-5-5-5-3-3h5-:

						     2.	
						    |-----------------:
						    |-----------------:
						    |-----------------:
						    |-3/5-5-5-5-3-0-3-:
                                                              end Fig.1

Fig.2:
:--------------------------------------------------------:
:--------------------------------------------------------:
:--------------------------------------------------------:
:-5-5--5-5-5--5-5-5--5-5-5--5-5-5--5-5-5--5-5-5--5-5-5-3-: end Fig.2

Riff.1:
:---------------------------------:
:---------------------------------:
:---------------------------------:
:-3p0-0-3p0-0-3p0-3p0-0-3p0-0-3p0-: end Riff.1
             Yeah...

1° and 3° Verses:
:--------------------------------|--------------------------------|
:--------------------------------|--------------------------------|
:--------------------------------|--------------------------------|
:-0------------------------------|-3--------------------------(3)/|

|--------------------------------|--------------------------------|
|--------------------------------|--------------------------------|
|---------------------7---5------|(5)-----------------------------|
|-0---------------0--------------|-------------6--5-------3------|

|--------------------------------|--------------------------------|
|--------------------------------|--------------------------------|
|--------------------------------|---------------------5----------|
|-0---------------------------3-/|-7---------------7-------7---7--|

|--------------------------------|--------------------------------|
|--------------------------------|--------------------------------|
|---------------------4----------|--------------------------------|
|-6---------------6-------6---6--|-5---5-------5---5---0---3---0--|

|--------------------------------|--------------------------------|
|--------------------------------|--------------------------------|
|--------------------------------|--------------------------------|
|-5---5-------5---5---5-------5--|-5---5-------5---5---5-------5--|

|--------------------------------|--------------------------------|
|--------------------------------|--------------------------------|
|--------------------------------|--------------------------------|
|-5---5-------5---5---5-------5--|-5-------5-------5---5---3---0--|

|--------------------------------|--------------------------------:
|--------------------------------|--------------------------------:
|--------------------------------|--------------------------------:
|-3-p-0---0---3-p-0---0---3-p-0--|-3-p-0---0---3-p-0---0---3-p-0--:

2° and 4° Verses:
:--------------------------------|--------------------------------|
:--------------------------------|--------------------------------|
:--------------------------------|--------------------------------|
:-0------------------------------|-3--------------------------(3)|

|--------------------------------|--------------------------------|
|--------------------------------|--------------------------------|
|--------------------------------|--------------------------------|
|-0-----------------------0---0--|-0---0-------0-------0---5-h-7--|

|--------------------------------|--------------------------------|
|--------------------------------|--------------------------------|
|--------------------------------|---------------------5----------|
|-0---------------------------3-/|-7---------------7-------7---7--|

|--------------------------------|--------------------------------|
|--------------------------------|--------------------------------|
|---------------------4----------|--------------------------------|
|-6---------------6-------6---6--|-5---5-------5---5---0---3---0--|

|--------------------------------|--------------------------------|
|--------------------------------|--------------------------------|
|--------------------------------|--------------------------------|
|-5---5-------5---5---5-------5--|-5---5-------5---5---5-------5--|

|--------------------------------|--------------------------------|
|--------------------------------|--------------------------------|
|--------------------------------|--------------------------------|
|-5---5-------5---5---5-------5--|-5---5-------5---5---5-------5--|

|--------------------------------|--------------------------------|
|--------------------------------|--------------------------------|
|--------------------------------|--------------------------------|
|-3-p-0---0---3-p-0---0---3-p-0--|-3-p-0---0---3-p-0---0---3-p-0--|

|--------------------------------|--------------------------------:
|--------------------------------|--------------------------------:
|--------------------------------|--------------------------------:
|-3-p-0---0---3-p-0---0---3-p-0--|-3---4---5---6---7---7---7---7--:

Chorus (Start Fig.3):
:--------------------------------|--------------------------------|
:--------------------------------|--------------------------------|
:--------------------------------|--------------------------------|
:-0---0---0---0---0---0---0---0--|-0---0---0---0---0---0---3---4--|

|--------------------------------|--------------------------------|
|--------------------------------|--------------------------------|
|--------------------------------|--------------------------------|
|-5---5---5---5---5---5---5---5--|-5---5---5---5---5---5---5---0--|

|--------------------------------|--------------------------------|
|--------------------------------|--------------------------------|
|--------------------------------|--------------------------------|
|-3---3---3---3---3---3---3---3--|-3---3---3---3---3---3---3---4--|

|--------------------------------|--------------------------------|
|--------------------------------|--------------------------------|
|--------------------------------|--------------------------------|
|-5---5---5---5---5---5---5---5--|-5---5---5---5---5---5---3---3--|

|--------------------------------|--------------------------------|
|--------------------------------|--------------------------------|
|--------------------------------|--------------------------------|
|-0---0---0---0---0---0---0---0--|-0---0---0---0---0---0---3---4--|

|--------------------------------|--------------------------------|
|--------------------------------|--------------------------------|
|--------------------------------|--------------------------------|
|-5---5---5---5---5---5---5---5--|-5---5---5---5---5---5---6---7--|

|--------------------------------|--------------------------------|
|--------------------------------|--------------------------------|
|--------------------------------|--------------------------------|
|-8---8---8---8---8---8---7---7--|-8---8---8---8---8---8---7---7--|

                      (end Fig.3)
|--------------------------------|--------------------------------|
|--------------------------------|--------------------------------|
|-5---5---5---5---5---5---5---5--|-5---5---5---5---5---5---5---5--|
|--------------------------------|--------------------------------|

|--------------------------------|--------------------------------|
|--------------------------------|--------------------------------|
|--------------------------------|--------------------------------|
|-3-p-0---0---3-p-0---0---3-p-0--|-3-p-0---0---3-p-0---0---3-p-0--|
                                                           So gimme

|--------------------------------|--------------------------------:
|--------------------------------|--------------------------------:
|--------------------------------|--------------------------------:
|-0------------------------------|--------------------------------:
 fuel,     gimme    fire,   gimme that wich I desire.

Coda 1:
:--------------------------------|--------------------------------|
:--------------------------------|--------------------------------|
:--------------------------------|--------------------------------|
:-0------------------------------|--------------------------------|

 Repeat Fig.1
 Repeat Fig.2
 Repeat Riff.1     End Coda 1


Verse 3
Verse 4
Repeat Chorus until Coda 1 (excluded)

Substitute Coda 1 with:

Coda 2:
:--------------------------------|--------------------------------|
:--------------------------------|--------------------------------|
:--------------------------------|--------------------------------|
:--------------------------------|--------------------------------|
 Ooh,                             Yeah.
 
|--------------------------------|--------------------------------|
|*-------------------------------|--------------------------------|
|*-------------------------------|--------------------------------|
|-0---0---0---3-----------0------|-0-------0-------0-------0------|

                                                           4 times
|--------------------------------|--------------------------------|
|--------------------------------|-------------------------------*|
|--------------------------------|----------------->-------------*|
|-0---0---0---3-----------0------|-0-------0-------3--------------|

|--------------------------------|--------------------------------|
|*-------------------------------|--------------------------------|
|*-------------------------------|--------------------------------|
|-5---5---5---3-----------0---0--|-3-------0---0---0-------0------|

                                  1.2.3.
|--------------------------------|--------------------------------|
|--------------------------------|-------------------------------*|
|--------------------------------|-------------------------------*|
|-5---5---5---3-----------0---0--|-3-----------3---3-------0------|

                                  4.
                                 |--------------------------------|
                                 |--------------------------------|
                                 |--------------------------------|
                                 |-3-----------------------0---0--|

|--------------------------------|--------------------------------|
|--------------------------------|--------------------------------|
|--------------------------------|--------------------------------|
|-5---5-------5---5---5-------5--|-5---5-------5---5---5-------5--|

                                                               (4)
|--------------------------------|--------------------------------|
|--------------------------------|-------------------------------*|
|--------------------------------|-------------------------------*|
|-5---5-------5---5---5-------5--|-5---5---5---5---5---5---3---3--|

|--------------------------------|--------------------------------|
|*-------------------------------|--------------------------------|
|*-------------------------------|--------------------------------|
|-3-p-0---0---3-p-0---0---3-p-0--|-3-p-0---0---3-p-0---0---3-p-0--|

|--------------------------------|--------------------------------|
|--------------------------------|-------------------------------*|
|--------------------------------|-------------------------------*|
|-3-p-0---0---3-p-0---0---3-p-0--|-3-/-5---5---5---5---3---3-h-5--|

|--------------------------------|--------------------------------|
|*-------------------------------|--------------------------------|
|*-------------------------------|--------------------------------|
|-0---0---0---3-----------3---3--|-0---0---0---3-----------3---3--|

                                  1.
|--------------------------------|--------------------------------|
|--------------------------------|-------------------------------*|
|--------------------------------|-------------------------------*|
|-0---0---0---3-------3---3---3--|-3-/-5---5---5---5---3---3-h-5--|

                                  2.
                                 |--------------------------------|
                                 |--------------------------------|
                                 |--------------------------------|
                                 |-3-----------2-----------1------|

|--------------------------------|--------------------------------|
|--------------------------------|--------------------------------|
|--------------------------------|--------------------------------|
|-3-p-0---0---3-p-0---0---3-p-0--|-3-p-0---0---3-p-0---0---3-p-0--|

|--------------------------------|--------------------------------|
|--------------------------------|-------------------------------*|
|--------------------------------|-------------------------------*|
|-3-p-0---0---3-p-0---0---3-p-0--|-3-/-5---5---5---5---3---3-h-5--|

Repeat Fig.3
Repeat Fig.3 (first 12 bars) then:

|--------------------------------|--------------------------------|
|--------------------------------|--------------------------------|
|--------------------------------|--------------------------------|
|-8---8---8---8---8---8---7---7--|-8---8---7---7---8-------7-h-8--|

|--------------------------------|--------------------------------|
|--------------------------------|--------------------------------|
|-5---5---5---5---7-p-5---5---7-p|-5---7-p-5---5---5---5---5---5--|
|--------------------------------|--------------------------------|

|--------------------------------|--------------------------------|
|--------------------------------|--------------------------------|
|--------------------------------|--------------------------------|
|-3-p-0---0---3-p-0---0---3-p-0--|-3-p-0---0---3-p-0---0---3-p-0--|

|--------------------------------|--------------------------------|
|--------------------------------|--------------------------------|
|--------------------------------|--------------------------------|
|-0------------------------------|--------------------------------|

|--------------------------------|--------------------------------|
|--------------------------------|--------------------------------|
|--------------------------------|--------------------------------|
|-3-p-0---0---3-p-0---0---3-p-0--|-3-p-0---0---3-p-0---0---3-p-0--|

|--------------------------------|--------------------------------|
|--------------------------------|--------------------------------|
|--------------------------------|--------------------------------|
|-3-p-0---0---3-p-0---0---3-p-0--|-3-/-5---5---5---5---3---3-h-5--|

|--------------------------------|--------------------------------|
|--------------------------------|--------------------------------|
|--------------------------------|--------------------------------|
|-5---5-------5---5---5-------5--|-5---5-------5---5---5-------5--|

|--------------------------------|--------------------------------|
|--------------------------------|--------------------------------|
|--------------------------------|--------------------------------|
|-5---5-------5---5---5-------5--|-5---5-------5---5---5-------3--|

|--------------------------------:
|--------------------------------:
|--------------------------------:
|-0------------------------------: End.

Bass Guitar Doodle
G||--------14--16--14--13------|--14--16--14--13----13h14-13------|
D||*---------------------------|------------------------------16--|
A||*---------------------------|----------------------------------|
E||---0------------------------|----------------------------------|

------------------------------|--------------------------||
--14----------19--------------|----------19-------------*||
------16------------16--------|----16----------16-------*||
----------17--------------17--|----------------------0---||

------------11-----------11--|---------11---------11---------|
-----12-----------12---------|--12---------12---------12-----|
--0------0------------0------|------0----------0----------0--|
-----------------------------|-------------------------------|

-------------12---------|-------------12--------|------------11---------11--|
--------9----------9----|--------9--------------|----------------12---------|
--10--------------------|--10-------------------|--0--0--------------0------|
------------------------|-----------------------|---------------------------|

---------11---------11---------|-------------12---------|
--12---------12---------12-----|--------9----------9----|
------0----------0----------0--|--10--------------------|
-------------------------------|------------------------|

-------------12---------||---------14--16--14--13------|
--------9----------9----||*----------------------------|
--10--------------------||*----------------------------|
------------------------||---0--0----------------------|

--14--16--14--13----13h14-13------|------------------------------|
------------------------------16--|--14----------19--------------|
----------------------------------|------16------------16--------|
----------------------------------|----------17--------------17--|

--------------------------||------------11-----------11--|
----------19-------------*||-----12-----------12---------|
----16----------16-------*||--0------0------------0------|
----------------------0---||-----------------------------|

---------11---------11---------|-------------12---------|
--12---------12---------12-----|--------9----------9----|
------0----------0----------0--|--10--------------------|
-------------------------------|------------------------|

-------------12--------|------------11---------11--|
--------9--------------|----------------12---------|
--10-------------------|--0--0--------------0------|
-----------------------|---------------------------|

---------11---------11---------|-------------12---------|--12----------------|
--12---------12---------12-----|--------9----------9----|--9-----------------|
------0----------0----------0--|--10--------------------|--10----------------|
-------------------------------|------------------------|--------------------|

-----10---------10---------10--|--14---------12---------10-----|
---------12---------12---------|------12---------12------------|
--0----------0----------0------|----------0----------0------0--|
-------------------------------|-------------------------------|

-----9---------9---------9--|--12---------10---------9-----|
--------10--------10--------|------10---------10-----------|
--0---------0---------0-----|----------0----------0-----0--|
----------------------------|------------------------------|

-----10---------10---------10--|--14---------12---------10-----|
---------12---------12---------|------12---------12------------|
--0----------0----------0------|----------0----------0------0--|
-------------------------------|-------------------------------|

-----9---------9---------9--|--12---------10---------9-----|
--------10--------10--------|------10---------10-----------|
--0---------0---------0-----|----------0----------0-----0--|
----------------------------|------------------------------|

-----10---------10---------10--|--14---------12---------10-----|
---------12---------12---------|------12---------12------------|
--0----------0----------0------|----------0----------0------0--|
-------------------------------|-------------------------------|

-----9---------9---------9--|--12---------10---------9-----|
--------10--------10--------|------10---------10-----------|
--0---------0---------0-----|----------0----------0-----0--|
----------------------------|------------------------------|

-----10---------10---------10--|--14---------12---------10-----|
---------12---------12---------|------12---------12------------|
--0----------0----------0------|----------0----------0------0--|
-------------------------------|-------------------------------|

-----9---------9---------9--|--12---------10---------9-----|
--------10--------10--------|------10---------10-----------|
--0---------0---------0-----|----------0----------0-----0--|
----------------------------|------------------------------|

--------7-----4--------5--|----------5--------5-----|--------7-----4--------5--|
-----5-----5-----5--------|----7--------7--------7--|-----5-----5-----5--------|
--0-----------------0-----|-------0--------0--------|--0-----------------0-----|
--------------------------|-------------------------|--------------------------|

----------5--------5-----|--------7-----4--------5--|----------5--------5-----|
----7--------7--------7--|-----5-----5-----5--------|----7--------7--------7--|
-------0--------0--------|--0-----------------0-----|-------0--------0--------|
-------------------------|--------------------------|-------------------------|

--------7-----4--------5--|----------7--------9------||
-----5-----5-----5--------|----7--------9--------10--||
--0-----------------0-----|-------0--------0---------||
--------------------------|--------------------------||

Nothing Else Matters
Bass enters at 1.04
Verse
G-----------------------------------------------------------------------
D------------------------------------------------------------------------
A--5/7--5-3----------5/7--5-3---------5/7--5-3------2-----5/77----------
E------------3-2-0------------3-2-0------------2-3-----0------3-2-0-----

Verse Variation (Played At 2:29)
G-----------------------------------------------------------------------
D-----------------------------------------------------------------------
A--5/7--5-3----------5/7--5-/--10---------5/7--5-3------2---5/77--------
E------------3-2-0----------------3-2-0-------------2-3---0-------3-2-0-

Chorus
G------------------------------------
D------------------------------------
A--3-0--5~---3-0--5~---3-0--5--5/7---
E-------------------------------------

Interlude (3:07)
G------------------5------9------------------------------------------9----------------
D--------9-------------------------------------------------------------9--------------
A--7-77----7-77-----7-77----7--------------3--33-0-3-5--5-5-5h7-----------7-----------
E0----------------------------75--5-5---5------------------------0--------0---3-2-0--

Interlude Second Time Round
G------------------5---------9---------------------------5------------7---------------
D----------9---------------------------------7----------------------------------------
A----7-77----7-77-----7-77----7-------7-------------3-3----0-3-5---5-----5----7~------
E--0-----------------------------75------5----5---5----------------------------3-2-0-
-
Play During Solo.Note: You Could Play Open E on the build up at (4:57)
G-------------------------------------------------------------------------
D-------------------------------------------------------------------------
A--5/7--5-3----------5/7--5-3---------5/7--5-3------2---------------------
E------------3-2-0------------3-2-0-------------2-3-----0~--------------End

Until It Sleeps
Intro  (fretless bass)

Gb------------------|----------------------------|---------|
Db-------7----------|--7/10------9-------(9)\----|--7------|
Ab---7--------------|-------------------------7--|---------|
Eb------------------|----------------------------|---------|

Gb---------------------------------|
Db-----7/10------------------------|
Ab-----------------8-------(8)\7---|
Eb---------------------------------|

Verse (same all three verses)

Gb------------------|-----------------------|--------------|
Db------------------|-----------------------|--7-----------|
Ab-0----------------|(0)-----------------7--|--------------|
Eb------------------|-----------------------|--------------|

     Where do I take this pain of mine?

Gb-------------------------------------------|
Db-----7/10---------9-----------(9)\---------|
Ab------------------------------------7------|
Eb-------------------------------------------|

Gb-----------------|----------------|----------------------|
Db---7-------------|--(7)-----------|--7-------------7/10--|
Ab---0-------------|--(0)-----------|----------------------|
Eb-----------------|----------------|----------------------|

        I run but it stays right by my side

Gb-----------------------------|
Db-----------------------------|
Ab------8----------------------|
Eb--------------3----3----1----|

Chorus

Gb------------------------------|--------------------------|
Db------------------------------|--------------------------|
Ab------------------------------|--------------------------|
Eb--5---5---5---5---5---5----3--|--3---3---3---1--------1--|

            So tear me open.....

Gb---------------------------------|-----------------------|
Db---------------------------------|-----------------------|
Ab---------------------------------|-----------------------|
Eb--1---3/5---5---5---5---5---5\3--|---(3)---3---3/8-----8-|

          p   p
Gb-------------------|-------------------------------|
Db-------------------|-------------------------------|
Ab-------------------|-------------------------------|
Eb---8---8--7--5\-3--|-5---5---5---5---5---5-----3---|


Gb------------------------------------|--------------------|
Db------------------------------------|--------------------|
Ab-----3------------------------------|--------------------|
Eb-3-------3---1---------1---1---3/-5-|--5---5---5---5---5-|


Gb---------|--------------------------------------|--------|
Db---------|--------------------------------------|--7-----|
Ab---------|-----------------------------------7--|--0-----|
Eb----3----|--(3)---3---3---7--------8------------|--------|
 								     
                                                 
Gb-----------------------------------|---------------------|
Db----7/-10---------9-------(9)\-----|--7------------------|
Ab--------------------------------7--|---------------------|
Eb-----------------------------------|---------------------|


Gb---------------------------------------|
Db---------------------------------------|
Ab---7/-10----------8-----------(8)\--7--|
Eb---------------------------------------|


Gb------------------------------|--------------------------|
Db------------------------------|--------------------------|
Ab------------------------------|-------------------7------|
Eb-/5--5--5--5-5-5--5--5-5-3----|-3--3--3-/8-----7-----7---|

Bridge
                                              h
Gb-------------------------------------------------|
Db------------------------------------------5---7--|
Ab--------7-------7-----------5------6-------------|
Eb---0----0---0---0---0---0---0------0-------------|

          It grips you, so hold me......

Gb---------------------------------------|----------------|
Db---------------------------------------|----------------|
Ab---7\-5/-7---------------5-----6-----7-|-7\----7-----5--|
Eb---0--0--0---0--5--0--0--0--0--0--0--0-|-0--0--0--0--0--|

             h
Gb--------------|
Db---------5--7-|
Ab-----6--------|
Eb-----0--------|


Gb---------------------------------------|
Db---------------------------------------|
Ab---7\-5/-7---------------5-----6-----7-|
Eb---0--0--0---0--5--0--0--0--0--0--0--0-|


                      h    h
Gb-----------------------------------------------------|
Db-----------------------------------------------------|
Ab----7\------------------5--7-----5-------6-------7---|
Eb----0------0---0---5--7------0---0---0---0---0---0---|

Gb---------------------------------------|
Db---------------------------------------|
Ab---7\-5/-7---------------5-----6-----7-|
Eb---0--0--0---0--0--0--0--0--0--0--0--0-|


                     h    h
Gb-----------------------------------------------------|
Db-----------------------------------------------------|
Ab----7\------------------5--7-----5-------6-------7---|
Eb----0------0---0---5--7------0---0---0---0---0---0---|


Gb---------------------------------------------------|-----|
Db------------------------------5-------7-------7----|--7--|
Ab--7\--------------------------7-------7-------7----|--0--|
Eb--0---0---0---0---0---0---0-------0-------0--------|-----|


Gb-----------------------------------|---------------------|
Db----7/-10---------9-------(9)\-----|--7------------------|
Ab--------------------------------7--|---------------------|
Eb-----------------------------------|---------------------|


Gb---------------------------------------|
Db---------------------------------------|
Ab---7/-10----------8-----------(8)\--7--|
Eb---------------------------------------|

Interlude
           h
Gb------------------------------------------------|
Db--7-----5--7/-10---------9-------(9)\-----------|
Ab---------------------------------------7----0---|
Eb------------------------------------------------|


Gb------------------------/12------------|
Db---------/14---12-----------------14---|
Ab----(0)--------------------------------|
Eb---------------------------------------|


Gb-----------------------------------------------------|
Db-------------7/10------9---(9)\7---------------------|
Ab---0------------------------------7----0-------------|
Eb-----------------------------------------------------|


Gb-----------------------------------------------------|
Db-----------------------------------------------------|
Ab---(0)-----------------------------------------------|
Eb---------------3---3---3/---8---------------(8)------|


Gb------------------------------------------------------|
Db------------------------------------------------------|
Ab------------------------------------------------------|
Eb--------3-----3/--8---------3---3/--8-------------8\--|


Gb-------------------------|-------------------------|
Db-------------------------|-------------------------|
Ab-------------------------|-------------------------|
Eb-\5--5--5--5--5--5--5--5-|-5--5--5--5--5--3--3--1--|

Chorus

Gb-------------------------|----------------------------|
Db-------------------------|----------------------------|
Ab-------------------------|----8--0--------------------|
Eb--5--5--5--5--5--5--5--5-|/8--------1-----1--1--1--3/-|

         So tear me open, pull me out......

Gb--------------------------------|---------------------|
Db--------------------------------|---------------------|
Ab--------------------------------|---------------------|
Eb--/5---5---5---5---5---5-----3--|-(3)---3---3---3/8---|


          p  p
Gb------------------|--------------------------------|
Db------------------|--------------------------------|
Ab------------------|--------------------------------|
Eb---8---8--7--5\3--|-5---5---5---5---5---5------3---|


Gb----------------------------------|----------------------|
Db----------------------------------|----------------------|
Ab--------3-------------------------|----------------------|
Eb--(3)-------3---1-------1---1---3/|-5---5--5--5--5--5--5-|


Gb--------------------|----------------------------|
Db--------------------|----------------------------|
Ab--------------------|----3-----3---3-------------|
Eb-5---5--5--5--5--3--|-3-----3----------0---12\---|


Gb-----------------------------------|
Db---14--14--12--14------14------12--|
Ab---0---0---0---0---0---0---0---0---|
Eb-----------------------------------|


Gb-----------------------------------|
Db------14--12--15------15------12---|
Ab--0---0---0---0---0---0---0---0----|
Eb-----------------------------------|


Gb-----------------------------------|
Db---14--14--12--14------14------14--|
Ab---0---0---0---0---0---0---0---0---|
Eb-----------------------------------|


Gb-----------------------------------|
Db------12------15------15------12---|
Ab--0---0---0---0---0---0---0---0----|
Eb-----------------------------------|


Gb-----------------------------------|
Db---14--14--12--14------14------12--|
Ab---0---0---0---0---0---0---0---0---|
Eb-----------------------------------|


Gb-----------------------------------|
Db------14--12--15------15-----------|
Ab--0---0---0---0---0---0---0---0----|
Eb-----------------------------------|


Gb-----------------------------------|
Db---14--14--12--14------14------14--|
Ab---0---0---0---0---0---0---0---0---|
Eb-----------------------------------|


                             h
Gb-----------------------------------|---------------------|
Db------12------15------15--------5--|--7---------------7/-|
Ab--0---0---0---0---0---0---5--7-----|---------------------|
Eb-----------------------------------|---------------------|


Gb--------------------------|---------|
Db-/10------9-------(9)\----|--7------|
Ab-----------------------7--|---------|
Eb--------------------------|---------|

Gb---------------------------------|----------------------|
Db-----7/10------------------------|--7---------------7/--|
Ab-----------------8-------(8)\7---|----------------------|
Eb---------------------------------|----------------------|


Gb--------------------------|---------|
Db-/10------9-------(9)\----|--7------|
Ab-----------------------7--|---------|
Eb--------------------------|---------|


Gb----------------------------------|-----------------|
Db----------------------------------|-----------------|
Ab-----7/10--------------8-------7\-|--0--------------|
Eb----------------------------------|-----------------|

For Whom the Bell Tolls
beat 120

Intro:
4/4                              
:--------------------------------|--------------------------------|
:--------------------------------|--------------------------------|
:--------------------------------|--------------------------------|
:--------------------------------|-----------------2-2-----2-2----|

There are two basses, the first plays the higher note and starting E.
The second plays ending F#.

With distortion and wah wah
|--------19-18-17-16-------19p16-|--------19----------------------|
|*-------------------------------|17--16-------------------------*|x 8
|*-------------------------------|------------17--16--------(16)*|
|-0------------------------------|(0)--------------2--2----2--2---|

Normal Bass
|--------------------------------|--------------------------------|
|*-------------------------------|--------------------------------|
|*-------------------------------|-----------------------------0--|
|-0---3---2---1---0---3---2---1--|-0---3---2---1---0---2---3------|

|--------------------------------|--------------------------------|
|--------------------------------|-------------------------------*|x 4
|--------------------------------|-----------------------------2-*|
|-0---3---2---1---0---3---2---1--|-0---3---2---1---0---2---3------|

|--------------------------------|--------------------------------|
|--------------------------------|--------------------------------|
|--------------------------------|--------------------------------|
|-0------------------------------|(0)-----------------------------|

|Fig.1
|--------------------------------|--------------------------------|
|*----------tripl-----------tripl|-----------tripl-----------tripl|
|*>------------------------------|--------------------------------|
|-0---------0-0-0-0---------0-0-0|-0---------0-0-0-0---------0-0-0|

|--------------------------------|--------------------------------|
|-----------tripl-----------tripl|--------------------------------|
|->------------------------------|->------------------------------|
|-3---------3-3-3-3---------3-3-3|-3-------------------------12--|

|--------------------------------|--------------------------------|
|-----------tripl-----------tripl|-----------tripl-----------tripl|
|->------------------------------|--------------------------------|
|-0---------0-0-0-0---------0-0-0|-0---------0-0-0-0---------0-0-0|

                                  1.                           (1)
|--------------------------------|-tripl-----------tripl----------|
|-----------tripl-----------tripl|------->--------------->-------*|
|->------------------------------|-3-3-3-3---------0-0-0-0-------*|
|-3---------3-3-3-3---------3-3-3|--------------------------------|

                                  2.                  (2) end Fig.1
                                 |---tripl-----------tripl--------|
                                 |->------------------------------|
                                 |-3-3-3-3---------0-0-0-12------|
                                 |--------------------------------|

|Fig.2
|--------------------------------|--------------------------------|
|*tripl-----------tripl----------|-tripl--------------------------|
|*------>--------------->--------|------->--------->------->------|
|-0-0-0-3---------0-0-0-5--------|-0-0-0-3-------0-6-------2------|

                                                         end Fig.2|
|--------------------------------|--------------------------------|
|-tripl-----------tripl----------|-tripl--tripl------------------*|
|------->--------------->--------|-------->-------->------>----->*|
|-0-0-0-3---------0-0-0-5--------|-0-0-0--3-0-0----6------2-----1-|

Verse 1, 2:

   Repeat Fig.1

End Verse

Chorus:

   Repeat Fig.2 x 2  (To Coda at the end of second chorus)

End Chorus

Interlude (between first chorus and second verse):
:--------------------------------|--------------------------------|
:*----------tripl-----------tripl|-----------tripl-----------tripl|
:*>------------------------------|--------------------------------|
:-0---------0-0-0-0---------0-0-0|-0---------0-0-0-0---------0-0-0|

|--------------------------------|--------------------------------|
|-----------tripl----------------|-----------tripl-----------tripl|
|->------------------------------|->------------------------------|
|-0---------0-0-0-0---------/12-|-3---------3-3-3-3---------3-3-3|

                                  1.                           (1)
|--------------------------------|-----------tripl----------------|
|-----------tripl-----------tripl|->-----------------------------*|
|->------------------------------|-2---------2-2-2-2---------/14*|
|-0---------0-0-0-0---------0-0-0|--------------------------------|

                                  2.                           (2)
                                 |-----------tripl----------------:
                                 |->------------------------------:
                                 |-2---------2-2-2-2-----------2-:
                                 |--------------------------------:

Coda:
|--------------------------------|--------------------------------|
|*-------------------------------|--------------------------------|
|*-------------------------------|--------------------------------|
|-0---------------2---2----------|-0---------------2---2----------|

2/4
|--------------------------------:
|-------------------------------*:
|-------------------------------*:
|-3---3--------------------------: End (fade out)

Wherever I May Roam
intro (sitar)                                                       
G--------------|----------|
D--4:----------|----------|
A--4:----------|----------|
E--------------|----------|
                                                                    
                                                                        
G---------------------------|-------------|
D---------------------------|-------------|
A---------------------------|---7---------|
E-----------------/12------|---0---------|
                                                                        
                                                                        
G------------|----------------------------|
D------------|----------------------------|
A------------|----------------------------|
E------------|-----(0)--------------------|
                                                                        
                                                                        
G----------------------------|-------------------|
D----------------------------|-------------------|
A----------7-----------------|-------------------|
E----------0-----------------|--------0----------|
                                                                        
                                                                        
G----------------|----------------|-----------------------|
D----------------|----------------|--2:-------------------|
A----------------|----------------|--4:-------------------|
E---0------------|----0-----------|------------(0)--------|
                                                                        
                                                           
G---------------------|
D---------------------|
A---------------------|
E------5--6--7--8-----|


  bass figure 1
G-------------------------------|----------------------------|
D-------------------------------|----------------------------|
A-------7-----------------------|----------------------------|
E-------0-0--0--0--0--0--0--0---|--0--0--0--0--0--0--1--1----|

                                                       
G-------------------------|--------------------------|
D-------------------------|--------------------------|
A-------------------------|--------------------------|
E-0--0--0--0--0--0--0--0--|--5--5--6--6--7--7--8--8--|
                                                                        
                                                                        
G--------------------------|--------------------------|
D--------------------------|--------------------------|
A--7-----------------------|--------------------------|
E--0--0--0--0--0--0--0--0--|--0--0--0--0--3--5--1--1--|
                                                                        
                                         end bass fig 1                  
G--------------------------|--------------------------|
D--------------------------|--------------------------|
A--------------------------|--------------------------|
E--0--0--0--0--0--1--0--0--|--5--5--6--6--7--7--8--8--|
                                                                        

 riff 1                                                
G-----------------------------|--------------------------|
D-----------------------------|--------------------------|
A--5--6--7--8- ---7-----------|--------------------------|
E--------------0--0--0--0--0--|--0--0--0--0--0--0--1--1--|
                                                                        
                                                                        
G------------------------|--------------------------|
D------------------------|--------------------------|
A------------------------|--------------------------|
E--0--0---0--0--0--0--0--|--5--5--6--6--7--7--8--8--|
                                                                        
                                                                       

 bass fill 1 ---|                      
G------------------|
D------------------|
A--------5---------|
E------------------|
 
                                                                      
riff 2    let ring                      let ring
G---------------------------------|--------------------------|
D---------------------------------|--------------------------|
A-----------------7-----(7)------|--------------7-----(7)--|
E--------0---------------------0--|--0--0--------------------|
                                                               
                                                               
G-------------|------------------------|
D-------------|------------------------|
A-------------|------------------------|
E--1--1----0--|--1--0--1---1--1h3---1--|
                                                                        

  bass figure 2            let ring                          
G--------------------|---------------------------|
D--------------------|---------------------------|
A--------------------|----------------7----(7)--|
E--0--0--0--0--0--0--|--0---0--0-----------------|
                                                                        
                       end bass fig 2                       
G---------------------|------------------|
D---------------------|------------------|
A---------------------|------------------|
E--1---1--1--1--1--1--|--1--0--1--1--8--|
                                                                        
 
 1st, 2nd verses           
G-----------------|-----------------|--------------------|
D-----------------|-----------------|--------------------|
A-----------------|--------------0--|--1--1--1--1--1--1--|
E--0--0--0--0--0--|--0--0--0--3-----|--------------------|
                                                                        
                                                                      
G-----------|-------------------------|-------------------|
D-----------|-------------------------|-------------------|
A--1--1--1--|--0---0---0---0----0--0--|--0--0---0---0--0--|
E-----------|-------------------------|-------------------|
                                                                        
                                                                        
G-----------------------|---------------------|
D-----------------------|---------------------|
A--1----1--1--1---1--1--|--1--1----1----------|
E-----------------------|--------------x---x--|

                                                                        
G----------------------|--------------------|
D----------------------|--------------------|
A----------------------|-----------------0--|
E--0----0----0--0---0--|--0---0---0---3-----|
                                                                       
                                                                        
G-----------------------|-------------------|---------------------|
D-----------------------|-------------------|---------------------|
A--1---1--1--1----1--1--|--1--1---1---1--1--|---------------------|
E-----------------------|-------------------|--3---3--3--3--3--3--|
                                                                        
                                                                        
G--------------------|-----------------------|
D--------------------|-----------------------|
A--------------------|--1--1--1--1--1--1--1--|
E--3---3---3---3--3--|-----------------------|
                                                                        
                                                                        
G--------------|-----------------|
D--------------|-----------------|
A--1--1--1--1--|--1---1---2---3--|
E--------------|-----------------|
                                                                        
  pm---------------|                                      
G------------------------|------------------------|
D------------------------|------------------------|
A--5--6--7--7--7--8--7--|------------------------|
E------------------------|--0---0--0--3--5--1--1--|
                                                                        
                                                                       
G------------------------|--------------------------|
D------------------------|--------------------------|
A------------------------|--------------------------|
E--0---0--0--0--1--0--0--|--5--5--6--6--7--7--8--9--|
                                                                        

 bass fig 3          
G--------------------------|--------------------------|
D--------------------------|--------------------------|
A--------------------------|--------------------------|
E--1--1--1--1--1--1--1--1--|--1--1--1--1--1--3--1--1--|
                                                                       
                                                                       
G--------------------------|--------------------------|
D--------------------------|--------------------------|
A--------------------------|--------------------------|
E--0--0--0--0--0--0--0--0--|--0--0--0--0--0--0--3--5--|
                                                                        
                                        end bass fig 3                                         
G--------------------------|--------------------------|
D--------------------------|--------------------------|
A--------------------------|--------------------------|
E--6--6--6--6--6--6--6--6--|--6--6--6--6--6--6--6--6--|
                                                                        

  bass fig 4                     end bass fig 4                                       
G--------------------|-------------------------|
D--------------------|-------------------------|
A--------------------|---------------3---------|
E--5--5--3--5--5--3--|--5--5--3---5-----5---0--|
                                                                        
  riff 3       
G---------------------|-----------------------|
D---------------------|-----------------------|
A---------------------|-----------------------|
E--3--3--3--3---3--3--|--0--3--0--3--3--3--3--|
                                                                        
                                                                      
 interlude                      
G--------------------------|-----------------------------|
D--------------------------|-----------------------------|
A--------------------------|-----------------------3-----|
E--0--0--0--0--0--0--0--0--|--0--0--0--0--1--1--0-----1--|
                                                                        
                                                                        
G--------------------------|
D--------------------------|
A--------------------------|
E--0--0--0--0--0--0--0--0--|
                                                                        
                 end inter.                                  
G--------------------------|
D-----------------------1--|
A--------------------------|
E--0--0--0--0---2---3------|
                                                                        
 riff 4                                                             
G--------------------------|--------------------------|
D--------------------------|--------------------------|
A--------------------------|--------------------------|
E--0--0--0--0--0--0--0--0--|--0--0--0--0--0--1--3--1--|
                                                                        
                                                                        
G--------------------------|------------------------|
D--------------------------|---------------------1--|
A--------------------------|--7--7------------------|
E--0--0--0--0--0--0--0--0--|--0--0--0--0--2--3------|
                                                                        
                                                                      
  riff 5                                                
G-----|---------------------|---------------------|
D-----|---------------------|---------------------|
A--5--|------------7--------|------------7-----0--|
E-----|--0---0--0-----0--0--|--0---0--0-----3-----|
                                                                        
                                                                        
G-----------------|--------------------|-------------------|
D-----------------|--------------------|-------------------|
A--1--1--1--1--0--|--1--0--1--1--1--1--|-------------------|
E-----------------|--------------------|--3---3---3--3--0--|
                                                                        
                                                                        
G------------------|----------------------|-------------------|
D------------------|----------------------|-------------------|
A---------------0--|--1--1--1--1---1---0--|--1--0--1--1--1p0--|
E--3---3-----3-----|----------------------|-------------------|
                                                                        
             pm----------|                                                            
G---------------------------------|
D---------------------------------|
A--1--1--2--5--6--7--7--7--8--7--|
E---------------------------------|
                                                                        
                                                  
G--------------------------|--------------------------|
D--------------------------|--------------------------|
A--------------------------|--------------------------|
E--0-----0--0--3--5--1--1--|--0-----0--0--3--5--1--1--|
                                                                        
                                                                      
G--------------------------|--------------------------|
D--------------------------|--------------------------|
A--------------------------|--------------------------|
E--0--0--0--0--0--1--0--0--|--5--5--6--6--7--7--8--8--|
                                                                        
 
       bass fill 2                             
G-----|---------------
D-----|---------------
A--5--|---------------
E-----|--3---3--0--3--
                                                                        
                                                                        
G---|----------------|
D---|----------------|
A---|----------------|
E3--|--3----3--2--1--|
                                                                        
  pre-chorus                                                          
G--------------------------|----------------------------|
D--------------------------|----------------------------|
A--------------------------|----------------------------|
E--1--1--1--1--1--1--1--1--|--1----1--1--1--1--1--3--1--|
                                                                        
                                                                        
G--------------------------|-----------------------|
D--------------------------|-----------------------|
A--------------------------|---------------------0-|
E--0--0--0--0--0--0--0--0--|--0--0--0---0--1--3----|


G-------------------------|------|
D-------------------------|------|
A-1--1--1--1--1--1--3--1--|------|
E-------------------------|------|


chorus
G----------------------|------------------------|
D----------------------|------------------------|
A----------------------|---------------3--------|
E--5---5--3--5---5--3--|--5---5--3--5-----5--0--|


G----------------|--------------------------|----------------|
D----------------|--------------------------|----------------|
A----------------|--------------------------|--3---0--3---0--|
E--3---0--3---0--|--0--3--3--0--0--3--0--0--|----------------|


G---------------|--------------------------|--------------------|
D---------------|--------------------------|--------------------|
A--3--3---5--3--|--2--2--2--2--2--2--2--2--|-1--1---1-----------|
E---------------|--------------------------|-----------0--3--1--|


  outro
G--------------------------|--------------------------|
D--------------------------|--------------------------|
A--------------------------|--------------------------|
E--0--0--0--0--0--1--0--0--|--0--0--0--0--3--0--1--1--|


G--------------------------|--------------------------|
D--------------------------|--------------------------|
A--------------------------|--------------------------|
E--0--0--0--0--0--1--0--0--|--5--5--6--6--7--7--8--8--|


bass fig 5
G-----------------------|--------------------------|
D-----------------------|--------------------------|
A--5--6--7--7-----------|--------------------------|
E--------------0--1--0--|--0--0--0--0--3--5--1--1--|


G--------------------------|--------------------------|
D--------------------------|--------------------------|
A--------------------------|--------------------------|
E--0--0--0--0--0--1--0--0--|--5--5--6--6--7--7--8--8--|

Fade To Black
Time 4/4
beat 116	

Intro:
:----|----|----|-----------------|-----------------|----|----|
:----|----|----|-----------------|-----------------|----|----|
:----|----|----|-----------------|-----------------|----|----|
:----|----|----|---------------5-|-7---------------|----|----|

|----------------|-----------------|----------------|-----------------|
|----------------|-----------------|----------------|-----------------|
|----------------|-----------------|--------------5-|-----------------|
|--------------5-|-7---------------|----------------|-7---------------|

|-----------------|-----------------|----|----|
|-----------------|-----------------|----|----|
|-----------------|-----------------|----|----|
|---------------5-|-7---------------|----|----|

|-----------------|-----------------|----|----|----|
|-----------------|-----------------|----|----|----|
|-----------------|-----------------|----|----|----|
|---------------5-|-7---------------|----|----|----|

|--------------------------------|--------------------------------|
|--------------------------------|--------------------------------|
|--------------------------------|-2-----------2------------------|
|-1-----------1---4-----------4--|-----------------0--------------|

|--------------------------------|----|----|
|--------------------------------|----|----|
|-0------------------------------|----|----|
|--------------------------------|----|----|

|--------------------------------|
|--------------------------------|
|--------------------------------|
|-----------------3-----/----7---|

|--------------------------------|----|----|----|
|--------------------------------|----|----|----|
|-0------------------------------|----|----|----|
|--------------------------------|----|----|----|

(Drum Enter)
|--------------------------------|--------------------------------|
|--------------------------------|--------------------------------|
|-0-----------------------0---2--|-3-----------------------3---2--|
|--------------------------------|--------------------------------|

|--------------------------------|--------------------------------|
|--------------------------------|--------------------------------|
|-------------------------3---2--|-----------------2---/---7-----|
|-3------------------------------|-0------------------------------|

|--------------------------------|--------------------------------|
|--------------------------------|--------------------------------|
|-0-----------------------0---2--|-3---------------------------5--|
|--------------------------------|------------------------5/7-----|

|--------------------------------|--------------------------------:
|--------------------------------|--------------------------------:
|--------------------------------|-----------------7-------------:
|-3-----------------------5---3--|-0---------------------------0--:

Verse 1:
:--------------------------------|--------------------------------|
:--------------------------------|--------------------------------|
:-0-----------------------0---2--|-3-----------3---3-----2h3---2--|
:--------------------------------|--------------------------------|

|--------------------------------|--------------------------------|
|--------------------------------|--------------------------------|
|--------------------------------|---------------------5---7------|
|-3-----------------------5---3--|-0-------0---0-/-7--------------|

|--------------------------------|--------------------------------|
|--------------------------------|--------------------------------|
|-0-----------------------0---2--|-3---------------------------5--|
|--------------------------------|------------------------5/7-----|

|--------------------------------|--------------------------------|
|--------------------------------|--------------------------------|
|--------------------------------|--------------------------------|
|-3-----------------------5---3--|-0---------------3-----/----7---|

|--------------------------------|--------------------------------|
|--------------------------------|--------------------------------|
|-0-----------------------0---2--|-3-----------3---3-----2h3---2--|
|--------------------------------|--------------------------------|

|--------------------------------|--------------------------------|
|--------------------------------|--------------------------------|
|-------------------------3---2--|-----------------7-------7------|
|-3------------------------------|-0------------------------------|

|--------------------------------|--------------------------------|
|--------------------------------|-----------------------5h7p5----|
|-0-----------------------0---2--|-3-----------------/-7-------7--|
|--------------------------------|--------------------------------|

|--------------------------------|--------------------------------:
|-5-----------------------5h7-5--|--------------------------------:
|---------------------5h7--------|-7---7---7---7---7---7---7---7--:
|--------------------------------|--------------------------------:

Chorus:
|Fig.1
:--------------------------------|--------------------------------|
:*-------------------------------|--------------------------------|
:*----------------------------5--|-3-----------3---3-----------5--|
:-5-----------5---5---0-0-3------|---------------------0-0-3------|

|--------------------------------|--------------------------------|
|--------------------------------|--------------------------------|
|-------------------------5------|-7------------------------------|
|-5-----------5---5--------------|-------------0---0---0-0-8---7--|

|--------------------------------|--------------------------------|
|--------------------------------|--------------------------------|
|-----------------------------5--|-3-----------3---3-----------5--|
|-5-----------5---5---0-0-3------|---------------------0-0-3------|

                                                         end Fig.1|
|--------------------------------|--------------------------------:
|--------------------------------|-------------------------------*:
|--------------------------------|-------------------------------*:
|-5-----------5---5-------3---2--|-0------------------------------:

Interlude:
:--------------------------------|--------------------------------|
:--------------------------------|--------------------------------|
:-0-----------------------0---2--|-3---------------------------5--|
:--------------------------------|------------------------5/7-----|

|--------------------------------|--------------------------------|
|--------------------------------|--------------------------------|
|--------------------------------|-----------------------/-7-----|
|-3-----------------------5---3--|-0------------------------------|

|--------------------------------|--------------------------------|
|--------------------------------|--------------------------------|
|-0-----------------------0---2--|-3-------3-------3--------0-3-5-|
|--------------------------------|--------------------------------|

|--------------------------------|--------------------------------:
|--------------------------------|--------------------------------:
|--------------------------------|--------------------------------:
|-3-------3-------3-------5---3--|-0---------------------/-7------:

Verse 2:
:--------------------------------|--------------------------------|
:--------------------------------|--------------------------------|
:-0-----------0---0-------0-3h5--|-3-----------3---3-------5------|
:--------------------------------|-----------------------------7--|

|--------------------------------|--------------------------------|
|--------------------------------|--------------------------------|
|--------------------------------|-------------------------2---/--|
|-3---------------5-----------3--|-0-----------0---0--------------|

|--------------------------------|--------------------------------|
|--------------------------------|--------------------------------|
|-0-----------------------0---2--|-3-----------------------3---5--|
|--------------------------------|--------------------------------|

|--------------------------------|--------------------------------|
|--------------------------------|--------------------------------|
|--------------------------------|--------------------------------|
|-3-------3-----------3---5---3--|-0---------------0-------5/7----|

|--------------------------------|--------------------------------|
|--------------------------------|--------------------------------|
|-0---------------0-------0---2--|-3-----------3---3-----2h3---2--|
|--------------------------------|--------------------------------|

|--------------------------------|--------------------------------|
|--------------------------------|--------------------------------|
|--------------------------------|---------7-------7--------------|
|-3-----------3---3-------5---3--|-0-----------0-----------5/7----|

|--------------------------------|--------------------------------|
|--------------------------------|------------------------5h7p5---|
|-0---------------0-------0---2--|-3-----------3---3---5h7-----7--|
|--------------------------------|--------------------------------|

|--------------------------------|--------------------------------:
|-5----------------------5h7p5---|--------------------------------:
|--------------------------------|-7---7---7---7---7---7---7---7--:
|--------------------------------|--------------------------------:

Chorus:

Repeat Fig.1 (x2) then

|--------------------------------|--------------------------------|
|--------------------------------|--------------------------------|
|--------------------------------|--------------------------------|
|(0)-----------------------------|(0)-----------------------------|

|--------------------------------|--------------------------------|
|--------------------------------|--------------------------------|
|--------------------------------|--------------------------------|
|(0)-----------------------------|-0------------------------------|

|--------------------------------|--------------------------------|
|--------------------------------|-----------------------------9-9|
|--------------------------------|--------------------------------|
|(0)-----------------------------|(0)-----------------------------|

|--------------------------------:
|-9---7-7-7---5-5-5---4-4-4---5--:
|--------------------------------:
|--------------------------------:

Bridge:
|Fig. 2
:--------------------------------|--------------------------------|
:--------------------------------|-----------------5---4/12-------|
:-5---7-----------7--------------|-5---7--------------------------|
:---------0---0-----------0---0--|---------0---0------------------|

|--------------------------------|-----------------------------4--|
|-----------------------------9-9|-9---7-7-7---5-5-5---4-4-4------|
|-----5-------5---5--------------|--------------------------------|
|--------------------------------|--------------------------------|

|--------------------------------|--------------------------------|
|--------------------------------|-----------------5---4/12-------|
|-5---7-----------7--------------|-5---7--------------------------|
|---------0---0-----------0---0--|---------0---0------------------|
   
                                                         end Fig.2| 
|--------------------------------|--------------------------------|
|-----------------------------9-9|-9---7-7-7---5-5-5---4-4-4---5--|
|-----5-------5---5--------------|--------------------------------|
|--------------------------------|--------------------------------|

Repeat Fig.2 x 2

|--------------------------------|--------------------------------|
|--------------------------------|--------------------------------|
|-----------------7--------------|--------------------------------|
|-0---0---0---0------------------|-0---0---0---0---3---2----------|

|--------------------------------|-----------------------------4--|
|-----------------------------9-9|-9---7-7-7---5-5-5---4-4-4------|
|-----------------5--------------|--------------------------------|
|-0---0---0---0------------------|--------------------------------|

|--------------------------------|--------------------------------|
|--------------------------------|--------------------------------|
|-----------------7--------------|--------------------------------|
|-0---0---0---0------------------|-0---0---0---0---3---2----------|

|--------------------------------|--------------------------------|
|-----------------------------9-9|-9---7-7-7---5-5-5---4-4-4---5--|
|-----------------5--------------|--------------------------------|
|-0---0---0---0------------------|--------------------------------|

|--------------------------------|--------------------------------|
|*-------------------------------|--------------------------------|
|*2-----------2-----------2------|(2)--2-----------4---2---0------|
|--------------------------------|-----------------------------2--|

|--------------------------------|--------------------------------|
|--------------------------------|--------------------------------|
|-0-----------0-----------0------|(0)--0-----------0---0---0---0--|
|--------------------------------|--------------------------------|

|--------------------------------|--------------------------------|
|--------------------------------|--------------------------------|
|--------------------------------|--------------------------------|
|-3-----------3-----------3---3--|(3)--3---3---3---3---3---3---3--|

|--------------------------------|--------------------------------|
|--------------------------------|-------------------------2---2-*|
|-0-----------0-----------0------|-0---0-----------0---0---------*|
|--------------------------------|--------------------------------|

|--------------------------------|--------------------------------|
|*-------------------------------|--------------------------------|
|*2-------2---2-------2---2------|-2---2-------2---4---2---0------|
|--------------------------------|-----------------------------2--|

|--------------------------------|--------------------------------|
|--------------------------------|--------------------------------|
|-0---0---0---0-----------0---0--|-0---0-------0---0---0---0---0--|
|--------------------------------|--------------------------------|

|--------------------------------|--------------------------------|
|--------------------------------|--------------------------------|
|--------------------------------|--------------------------------|
|-3---3---3---3-----------3---3--|-3---3-----------3---3---3---3--|

|--------------------------------|--------------------------------|
|--------------------------------|-------------------------2---2-*|
|-0-----------0-----------0---0--|-0---0-----------0---0---------*|
|--------------------------------|--------------------------------|

I haven't heard the kill/ride medley so I don't know which part of
The songs to put in. just have a look at the song tabs. I honestly cant
Be fucked.


Ride The Lightning
beat 152	

Intro:
4/4                                   1.2.3. 
:---|--------------------------------|--------------------------------|
:---|*-------------------------------|-------------------------------*|
:---|*-------------------------------|-------------------------------*|
:-0-|-------------0---------------0--|-------------0---------------0--|

                                      4.
                                     |--------------------------------|
                                     |--------------------------------|
                                     |--------------------------------|
                                     |-------------0--------------12-|

|--------------------------------|--------------------------------|
|--------------------------------|--------------------------------|
|--------------------------------|--------------------------------|
|-------------0---------------0--|-------------0---------------0--|

|--------------------------------|--------------------------------|
|--------------------------------|--------------------------------|
|-------------------------7---7--|-7---7---7---7---7---7---7---7--|
|-------------0------------------|--------------------------------|

                             x 8 |Fig.1                  end fig.1|
|--------------------------------|--------------------------------|
|*>----------->-----------------*|*-------------------->------->-*|x 4
|*1-----------1-----------------*|*>------->-----------0-------3-*|
|-----0---0-------0---0---0---0--|-2-------0-------2-------2------|

3/4
|---------------------:
|--------------->--->-:
|->-------------3---2-:
|-2-------------------:

Verse 1, 2, 3:
4/4
|Fig.2
:--------------------------------|--------------------------------|
:->----------->------------------|->----------->------------------|
:-1-----------1------------------|-1-----------1------------------|
:-----0---0-------0---0---0---0--|-----0---0-------0---0---0---0--|

                                                         end fig.2|
|--------------------------------|--------------------------------|
|->----------->------------------|->----------->------------------|
|-1-----------1------------------|-1-----------1-----------3---2--|
|-----0---0-------0---0---0---0--|-----0---0-------0---0----------|

Repeat Fig.2 x 1

|--------------------------------|--------------------------------|
|--------------------------------|--------------------------------|
|->----------->------------------|->----------->------------------|
|-2---2---2---2---2---2---2---2--|-2---2---2---2---2---2---2---2--|

|--------------------------------|--------------------------------:
|--------------------------------|->----------->------------------:
|->----------->------------------|-2---------2h4------------------:
|-2---2---2---2---2---2---2---2--|-----2---2-------2---2---2---2--:

Chorus:
:--------------------------------|--------------------------------|
:--------------------------------|--------------------------------|
:-4-----------3---2-----------4--|-0---0---0---0---0---0---0---0--|
:--------------------------------|--------------------------------|

|--------------------------------|--------------------------------|
|--------------------------------|--------------------------------|
|-4-----------3---2-----------4--|-0---0---0---0---0---0---2---2--|
|--------------------------------|--------------------------------|

|--------------------------------|--------------------------------|
|--------------------------------|--------------------------------|
|->----------->------------------|->----------->------------------|
|-2---2---2---2---2---2---2---2--|-2---2---2---2---2---2---2---2--|

|--------------------------------|--------------------------------|
|--------------------------------|--------------------------------|
|-4-----------3---2-----------4--|-0---0---0---0---0---0---0---0--|
|--------------------------------|--------------------------------|

                                 |3rd Time to Coda
                                  1.       
|--------------------------------|--------------------------------|
|-3-----------2---1--------------|--------------------------------|
|-----------------------------0--|-0---0---0---0---0---0---0---0--|
|--------------------------------|--------------------------------|
                                  + Fig.1 x 4                   (1)

                                  2.
                                 |--------------------------------|
                                 |--------------------------------|
                                 |-0---0---0---0---0---0---0---0--|
                                 |--------------------------------|

|--------------------------------|--------------------------------|
|--------------------------------|--------------------------------|
|--------------------------------|--------->--------------->------|
|-0--------------------------12-|-0-0-0-0-3---0-0-0-0-0-0-3---0-0|

|Fig. 3                                                  end fig.3|
|--------------------------------|--------------------------------|
|*-------------------------------|-------------------------------*|x 3
|*7---6---5---x---3--------------|--------->--------------->-----*|
|---------------------x---2---3--|-0-0-0-0-3---0-0-0-0-0-0-3---0-0|

Double time
|Fig.4
|--------------------------------|--------------------------------|
|--------------------------------|--------------------------------|
|-3-3-3-3-3-3-3-3-3-3-3-3-3-3-3-3|-2-2-2-2-2-2-2-2-2-2-2-2-2-2-2-2|
|--------------------------------|--------------------------------|

|--------------------------------|--------------------------------|
|--------------------------------|--------------------------------|
|-1-1-1-1-1-1-1-1-1-1-1-1-1-1-1-1|-0-0-0-0-0-0-0-0-0-0-0-0-0-0-0-0|
|--------------------------------|--------------------------------|
 
                                                         end fig.4|
|--------------------------------|--------------------------------|
|--------------------------------|--------------------------------|
|--------------------------------|-----------------1-1-1-1-1-1-1-1|
|-1-1-1-1-1-1-1-1-1-1-1-1-1-1-1-1|-3-3-3-3-3-3-3-3----------------|

Repeat Fig.3 x 3

2/4
|----------------|----------------|----------------|-----4----------|
|----------------|----------------|----------------|---4---4--------|
|-7---6---5---0--|-3----3--3---3--|-3----3--3---0--|-2-------2------|
|----------------|----------------|----------------|----------------|

|----------------|----------------|----------------|----------------|
|----------------|----------------|----------------|-------------7--|
|-2-2-2-2-2-2-2-2|----------------|-3----3-3-3-----|----------------|
|----------------|-0----0--0---0-3|------------0-2-|-3-/-5---5------|

|-9-7------------|----------------|----------------|----------------|
|-----9-7-9-7-9-7|----------------|----------------|----------------|
|----------------|----------------|-3----3-3-3-----|----------------|
|----------------|-0----0--0---0-3|------------0-2-|-3-/-5---5------|

|----------------|
|----------------|
|----------------|
|(5)-------------|

Guitar Solo:
|----------------|----------------|----------------|----------------|
|*---------------|->--------------|----------------|-7-7-7-7-7-7-7-7|x4
|*>--------------|-3----3-3-3-----|->--->--->----7-|---------------*|
|-0----0--0---0-3|------------0-2-|-3-/-5---5------|----------------|

|----------------|----------------|----------------|----------------|
|*---------------|->------->------|----------------|---------------*|x4
|*>------->------|-5---5-5-5-5----|----------------|---------------*|
|-2---2-2-2---2-5|-------------2-4|-5-/-7-7-7---7-7|-7-7-7-7-7-7-7-7|

                                                   3/4 
|----------------|----------------|----------------|----------------|
|----------------|----------------|----------------|----------------|
|->->->----------|->->------------|->--------------|----------------|
|-5-5-5----------|-3-3------------|-1--------------|(1)-------------|

Double time
4/4
|--------------------------------|--------------------------------|
|*-------------------------------|-------------------------------*|x 4
|*-------------------------------|-----------------2---3---2-----*|
|-0-0-0-0-0-0-0-0-0-0-0-0-0-0-0-0|-0-0-0-0-0-0-0-0----------------|

|--------------------------------|--------------------------------|
|*-------------------------------|--------------------------------|
|*3-3-3-3-3-3-3-3-3-3-3-3-3-3-3-3|-2-2-2-2-2-2-2-2-2-2-2-2-2-2-2-2|
|--------------------------------|--------------------------------|

                                  1.
|--------------------------------|--------------------------------|
|--------------------------------|--------------------------------|
|-1-1-1-1-1-1-1-1-1-1-1-1-1-1-1-1|-0-0-0-0-0-0-0-0-0-0-0-0-0-0-0-0|
|--------------------------------|--------------------------------|

                                  2.
                                 |--------------------------------|
                                 |--------------------------------|
                                 |-0-0-0-0-0-0-0-0-0-0-0-0-0-0---8|
                                 |--------------------------------|
                                                                (2)
|--------------------------------|--------------------------------|
|--------------------------------|--------------------------------|
|-8-8-8-8-8-8-8-8-8-8-8-8-8-8-8-8|-5-5-5-5-5-5-5-5----------------|
|--------------------------------|-----------------6-6-6-6-6-6-6-6|

                                  3.
                                 |--------------------------------|
                                 |--------------------------------|
                                 |-0-0-0-0-0-0-0-0-0-0-0-0-0-0-0-0|
                                 |--------------------------------|
                                                                (3)
|--------------------------------|--------------------------------|
|--------------------------------|--------------------------------|
|--------------------------------|-----------------1-1-1-1-1-1-1-1|
|-1-1-1-1-1-1-1-1-1-1-1-1-1-1-1-1|-3-3-3-3-3-3-3-3----------------|

Repeat Fig.3 x 4
Repeat Fig.4
Repeat Fig.3 x 3

2/4              4/4
|----------------|--------------------------------|
|----------------|--------------------------------|
|-7---6---5---0--|-3/-----------------------------|
|----------------|-------------0---------------0--|

|--------------------------------|--------------------------------|
|--------------------------------|--------------------------------|
|--------------------------------|--------------------------------|
|-------------0---------------0--|-------------0---------------0--|

|--------------------------------|--------------------------------|
|--------------------------------|--------------------------------|
|--------------------------------|--------------------------------|
|-------------0--------------12-|-------------0---------------0--|

|--------------------------------|--------------------------------|
|--------------------------------|--------------------------------|
|--------------------------------|-------------------------7---7--|
|-------------0---------------0--|-------------0------------------|

|--------------------------------|--------------------------------|
|--------------------------------|*>----------->-----------------*|x 7
|-7---7---7---7---7---7---7---7--|*1-----------1-----------------*|
|--------------------------------|-----0---0-------0---0---0---0--|

                                 3/4
|--------------------------------|---------------------:
|--------------------------------|->------------>--->--:
|-1-----------1-----------3---2--|-1------------3---2--:
|-----0---0-------0---0----------|---------------------:

Play Verse 3
Play Chorus until To Coda

Coda:
4/4
|--------------------------------|
|--------------------------------|
|-0---0---0---0---0---0---0---0--|
|--------------------------------|

Repeat Fig.1 x 4

|--------------------------------|--------------------------------|
|*-------------------->------->--|--------------------------------|
|*>------->-----------0-------3--|(3)-----------------------------|
|-2-------0-------2-------2------|--------------------------------|

|--------------------------------|--------------------------------|
|--------------------->----------|-------------------------------*|
|->------->-----------0------->--|-------------------------------*|
|-2-------0-------2-------2---0--|(0)-----------------------------|

|--------------------------------|--------------------------------|
|*-------------------->------->--|--------------------------->----|
|*>------->-----------0-------3--|(3)--3-3-3---3-3-3---3-3-3-2----|
|-2-------0-------2-------2------|--------------------------------|

                                  1.
|--------------------------------|--------------------------------|
|--------------------->----------|-------------------------------*|
|->------->-----------0------->--|-------------------------------*|
|-2-------0-------2-------2---0--|(0)--------------0-0-0-0-0-0-0-0|

                                  2.
                                 |--------------------------------|
                                 |--------------------------------|
                                 |--------------------------------|
                                 |(0)--0-0-0-0-0-0-0-0-0-0-0-0-0-0|

|--------------------------------|--------------------------------:
|--------------------------------|--------------------------------:
|--------------------------------|--------------------->--->------:
|-0---------------0--------------|-0-------------------0---0---0--: End

No Remorse
188 bpm                                                             2 times
||-------------------|---------------|-----------------|-----------------||
||-o-----------------|---------------|-----------------|---------------o-||
||-o-----R-------R---|-----R---------|-----R-------R---|-----R---------o-||
||---0h2---2-2p0---0-|-0h2---2-2p0-5-|-0h2---2-2p0---0-|-0h2---2-2p0-7---||
     e e e e e e e e   e e e e e e q   e e e e e e e e   e e e e e e q

Guitar solo I                                                       6 times
||-------------------|---------------|-----------------|-----------------||
||-o-----------------|---------------|-----------------|---------------o-||
||-o-----R-----------|-----R---------|-----R-----------|-----R---------o-||
||---0h2---2-2-0-0-0-|-0h2---2-2-0-5-|-0h2---2-2-0-0-0-|-0h2---2-2-0-7---||
     e e e e e e e e   e e e e e e q   e e e e e e e e   e e e e e e q

                                                       |1.
||-------------------|---------------|-----------------|-----------------||
||-o-----------------|---------------|-----------------|---------------o-||
||-o-----R-------R---|-----R---------|-----R-------R---|-----R---------o-||
||---0h2---2-2p0---0-|-0h2---2-2p0-5-|-0h2---2-2p0---0-|-0h2---2-2p0-7---||
     e e e e e e e e   e e e e e e q   e e e e e e e e   e e e e e e q

|2.                S1
|----------------||-------|------|---|---------|---|------|---|---------||
|----------------||-------|-R----|-R-|-R-------|-R-|-R----|-R-|-R-------||
|-----R----------||---R---|----3-|---|---------|---|----3-|---|---------||
|-0h2---2-2p0-7/-||-0-----|------|---|---5-6-7-|---|------|---|---5-6-7-||
  e e e e e e q     e h..   h. q   w   h e e q   w   h. q   w   h e e q

S2
  fig.1                                                     end fig.1  2 times
||-------------------|---------------|-----------------|-----------------||
||-o-----------------|---------------|-----------------|---------------o-||
||-o-----5h7-----5h7-|-----5h7-----3-|-----5h7-----5h7-|-----5h7-------o-||
||---0-0-----0-0-----|-0-0-----0-0---|-0-0-----0-0-----|-0-0-----5-6-7---||
     e e e e e e e e   e e e e e e q   e e e e e e e e   e e e e e e q

Verse 1,2,3
                     ||---|-------------|-----------------|-----------|
play fig.1  2 times  ||-R-|-------------|-----------------|-----------|
                     ||---|-------------|-----7-5---------|-----------|
                     ||---|-3b1/4-0-3-0-|-3-0-----7-3b1/4-|-(3)-0-3-0-|
                            q     q q q   q q e e e e       (q) q q q

|-----------------|-----------|-----------------|-----------|-----------||
|-----------------|-----------|-----------------|-----------|-----------||
|-----7-5---------|-----------|-----7-5---------|-----------|---------5-||
|-3-0-----7-3b1/4-|-(3)-0-3-0-|-3-0-----7-3b1/4-|-(3)-0-3-0-|-3-0-5-7---||
  q q e e e e       (q) q q q   q q e e e e       (q) q q q   q q e e q

Chorus
||-------------------|-----------------|-----------------|-----------------|
||-o-----------------|-----------------|-----------------|-----------------|
||-o-----------------|-----------------|-----------------|-----------------|
||---0-0-7-0-0-5-0-0-|-3-0-0-2-0-0-2-3-|-0-0-7-0-0-5-0-0-|-3-0-0-2-0-0-2-3-|

                                                                   2 times
                                                                  to coda I
                                                                  to coda II
|-----------------|-----------------|-----------------|-----------------||
|-----------------|-----------------|-----------------|---------------o-||
|-----------------|-----------------|-----7-----------|-3-----2-------o-||
|-0-0-7-0-0-5-0-0-|-3-0-0-2-0-0-2-3-|-0-0---0-0-5-0-0-|---0-0---0-3-2---||

D.S1 al coda I


Coda I                              triplet feel
|---------|---------|---|----------||------|  5  |-9-9-9-9-9-9-9-9-9-9-|
|---------|---------|-9-|-(9)------||----R-|-----|---------------------|
|---------|-----7-7-|-7-|-(7)-72/-||-/7---|-----|---------------------|
|-0-0-0-0-|-0-0-0-0-|-0-|-(0)------||--0---|     |---------------------|
  e e e e   e e e e   w   (h) q q      q h.        e e e e e e e e e e
                                                       [ 3 ]     [ 3 ]

                   3rd time start of Guitar solo II
|------------------||-------------------|-----------------|
|------------------||-o-----------------|-----------------|
|-7-7-7-7-7-7-7-7-||-o---------------7-|---------------5-|
|------------------||---0-0-2-3-2-0-0---|-0-0-2-3-2-0-0---|
  e e e e e e e q       e e e e e e e q   e e e e e e e q
      [ 3 ]                 [ 3 ]             [ 3 ]

                                 6 times
|-----------------|-------------------||-----------------|-----------------|
|-----------------|-----------------o-||-----------------|-----------------|
|---------------3-|---------------5-o-||---------------7-|---------------9-|
|-0-0-2-3-2-0-0---|-0-0-2-3-2-0-0-----||-0-0-2-3-2-0-0---|-0-0-2-3-2-0-0---|
  e e e e e e e q   e e e e e e e q      e e e e e e e q   e e e e e e e q
      [ 3 ]             [ 3 ]                [ 3 ]             [ 3 ]


|------------------|-----------------|-----------------|-----------------|
|------------------|-----------------|-----------------|-----------------|
|---------------10-|---------------9-|---------------7-|---------------5-|
|-0-0-2-3-2-0-0----|-0-0-2-3-2-0-0---|-0-0-2-3-2-0-0---|-0-0-2-3-2-0-0---|
  e e e e e e e q    e e e e e e e q   e e e e e e e q   e e e e e e e q
      [ 3 ]              [ 3 ]             [ 3 ]             [ 3 ]

                                    152 bpm, straight eight feel
|-----------------|-----------------||-7-5-4-5-4---4-----------|---|---|
|-----------------|-----------------||-----------7---7-5-4-5-7-| % | % |
|---------------3-|---------------5-||-------------------------|---|---|
|-0-0-2-3-2-0-0---|-0-0-2-3-2-0-0---||-------------------------|---|---|
  e e e e e e e q   e e e e e e e q    e s s e s s e s s e s s
      [ 3 ]             [ 3 ]

       Tempo I  D. S2 al coda II
|------||
|------||
|-5----||
|----5-||
  h. q

Coda II fig.2
|  4  ||---------------------------------|-------------------------------|
|-----||-o---------------7-7-7-7-7-7-7-7-|---------------7-7-7-7-7-7-7-7-|
|-----||-o-0-0-0-0-0-0-0-----------------|-5-0-0-0-0-0-0-----------------|
|     ||---------------------------------|-------------------------------|
           e s s s s s s s s s s s s s s   e s s s s s s s s s s s s s s

                                              end fig.2  4 times
|-------------------------------|-------------------------||
|---------------7-7-7-7-7-7-7-7-|-----------------------o-||
|-2-0-0-0-0-0-0-----------------|-3-0-0-0-0-0-0-2--3--2-o-||
|-------------------------------|-------------------------||
  e s s s s s s s s s s s s s s   e s s s s s s e. e. e

Bridge   fig.3                                    end fig.3  2 times
||---------------|-------------|-------------|---------------||
||-o-------------|-------------|-------------|-------------o-||
||-o-0-0-0-3-0-0-|-0-0-0-5-3-0-|-0-0-0-3-0-0-|-0-0-0-2-3-2-o-||
||---------------|-------------|-------------|---------------||
     e q e e q e   e q e e q e   e q e e q e   e q e e q e

play fig.2  2 times, play fig.3  2 times, play fig.2  2 times

     Free time
|-----|--------|--------|-------------------------------------|
|-----|--------|-----14-|-12-12-10-10-9-9-7-7-9-9-7-7-5-5-4-4-|
|-3-2-|-----7--|-14-----|-------------------------------------|
|-----|-0------|--------|-------------------------------------|
  h h   h   h    h   h    s  s  s  s  s s s s s s s s s s s s
        /   /    /   /
        /   /    /   /

|---------------------------------|---------------||
|-7-7-5-5-4-4-2-2-5-5-4-4-0-0-2-2-|-2-------------||
|---------------------------------|---------------||
|---------------------------------|-----0-0-0-0-0-||
  s s s s s s s s s s s s s s s s   q   e e e e l
                                    /
                                    /

144 bpm
2/4         4/4 2/4         4/4
|-----------|---|-----------|-----||
|-----------|---|-----------|-----||
|-----------|-5-|-----------|---R-||
|-0-0-2-3-2-|---|-0-0-2-3-2-|-0---||
  q e e e e   w   q e e e e   q h.
  [3] [ 3 ]       [3] [ 3 ]

Hit The Lights
intro 144 bpm

4/4             2/4   4/4
|---|---------|-----|--------|-----|
|---|---------|-----|--------|-----|
|-7-|-7-7-7-7-|-7-7-|-7------|-----|
|-0-|-0-0-0-0-|-0-0-|-0------|-2---|
  l   q q q q   q q   l        l
  /                            /
  /                            /

|---------------------------------------------|-------||
|---------------------------------------------|-------||
|-2-0-2-0---2-0-2-4-4-4-2-4-4-4-4-2-0-0-------|---R---||
|---------2-----------------------------2-----|-------||
  t t t t s t t t t t t t t t t t t t t l

160 bpm                            fig.1
|  4  |------|------|------|------|-------------------------|
|-----|---R--|---R--|---R--|---R--|-------------------------|
|-----|-0----|-0----|-0----|-0----|-0-0-0-0-0-0-0-3-0-5-0-3-|
|     |------|------|------|------|-------------------------|
        e h..  e h..  e h..  e h..  e s s s s s s e s e s e

|---------------------------|-------------------------|
|---------------7-5---5-----|-------------------------|
|-0-0-0-0-0-0-0-----7---6-7-|-0-0-0-0-0-0-0-3-0-5-0-3-|
|---------------------------|-------------------------|
  e s s s s s s s s s e s e   e s s s s s s e s e s e

                            Verse 1
                   end fig.1  fig.2                   end fig.2
|---------------------------||-----------------|---------------|
|---------------------------||-----------------|---------------|
|-0-0-0-0-0-0-0-0-1-2-3-3-4-||-5-5-7-----------|-5-5-5-3--2----|
|---------------------------||-------3-3-3-3-0-|-------------2-|
  e s s s s s s s s s e s e    e q e e s e s e   e q e e. e. e

play fig.1, fig.2, first two bars of fig.1

                                      Chorus
                                      fig.3          7/8    end fig.3
|---------------------|-------------||---------------|---------------|
|---------------------|-------------||---------------|---------------|
|---7-7-7-7-7-7-7-7-7-|-------3-2---||---R-------R---|-----R---3-----|
|-0-------------------|-3-2-3-----3-||-5---5-3-5---5-|-3-5---5----3--|
  e e s s e e s e s e   q q q q q q    e e q s s e q   s s e q e. e.
                        [ 3 ] [ 3 ]

play fig.3 two times more

4/4
|---------------|---||
|---------------|---||
|---R-------R---|-R-||
|-5---5-3-5---5-|---||
  e e q s s q e   w

Interlude : play fig.1

Verse 2 : play fig.2, fig.1, fig.2, first two bars of fig.1

|---------------------|-------------||
|---------------------|-------------||
|---7-7-7-7-----------|-------3-2---||
|-0---------0-0-0-0-0-|-3-2-3-----3-||
  e e s s e e s e s e   q q q q q q
                        [ 3 ] [ 3 ]

Chorus 2 : play fig.3 3 times

|---------------|---||
|---------------|---||
|---R-------R---|-R-||
|-5---5-3-5---5-|---||
  e e q s s q e   w

Interlude 2 : play fig.1

Verse 3 : play fig.2, fig.1, fig.2, first two bars of fig.1

|---------------------|-------------||
|---------------------|-------------||
|---7-7-7-7-----------|-------3-2---||
|-0---------0-0-0-0-0-|-3-2-3-----3-||
  e e s s e e s e s e   q q q q q q
                        [ 3 ] [ 3 ]

Chorus 3 : play fig.3 4 times

        4/4            7/8          4 times
|-----||-------|---|---|-----------------||
|-----||-o-----|---|---|-7--5----------o-||
|-----||-o---R-|-R-|-R-|-------7-6-5---o-||
|-5-3-||---5---|---|---|-------------8---||
  h h      e h.. w   w   e. e. e e e e

Guitar solo
4/4
||-------------------------|---------------------|-----------------------|
||-o-----------------------|---------------------|-----------------------|
||-o---R---R---R-----------|---R---R---R-----7-7-|---R---R---R-----------|
||---7---7---7---7-7-10-10-|-7---7---7---7-7-----|-7---7---7---7-7-10-10-|
     e s e s e s s e e  e    e s e s e s s e e e   e s e s e s s e e  e

7/8            8 times
|------------------||
|-9--7-----------o-||
|-------9-8-7----o-||
|-------------10---||
  e. e. e e e e

 4/4
||-----------------------|---------------------|---------------------|
||-o---------------------|---------------------|---------------------|
||-o---R---R---R---------|---R---R---R-----5-5-|---R---R---R---------|
||---5---5---5---5-5-8-8-|-5---5---5---5-5-----|-5---5---5---5-5-8-8-|
     e s e s e s s e e e   e s e s e s s e e e   e s e s e s s e e e

7/8            2 times
|-----------------||---------------|---------------|
|-7--5----------o-||-7--5----------|-7--5----------|
|-------7-6-5---o-||-------7-6-5---|-------7-6-5---|
|-------------8---||-------------8-|-------------8-|
  e. e. e e e e      e. e. e e e e   e. e. e e e e

|-----|------|-----|-----|-------||
|-----|------|-----|-----|-------||
|-----|------|-----|-----|-----R-||
|-5---|-(5)--|-(5)-|-(5)-|-5-5---||

The Four Horsemen
Intro                                              2 times
|---------||-------|---|---|---------|---|---|-----------||
|---------||-o---R-|-R-|-R-|---------|---|---|---------o-||
|-3---5-3-||-o-7---|---|---|-R---R---|-R-|-R-|-3---5-3-o-||
|---3-----||-------|---|---|---0---0-|---|---|---3-------||
  q q q q      q h.  w   w   q q q q   w   w   q q q q

fig.1
|-----------------|-------------|-----------------|-------------|
|-----------------|-------------|-----------------|-------------|
|-------7-------7-|-------7-5-5-|-------7-------7-|-------7-3-5-|
|-0-0-0---0-0-0---|-0-0-0-------|-0-0-0---0-0-0---|-0-0-0-------|
  e e e q e e e q   e e e q q q   e e e q e e e q   e e e q q q
  [ 3 ]   [ 3 ]     [ 3 ]         [ 3 ]   [ 3 ]     [ 3 ]

                                   end fig.1
|-----------------|-------------|---------||
|-----------------|---------5---|---------||
|-------7-------7-|-------7---7-|-3---5-3-||
|-0-0-0---0-0-0---|-0-0-0-------|---3-----||
  e e e q e e e q   e e e q q q   q q q q
  [ 3 ]   [ 3 ]     [ 3 ]

  Verses 1,2                 Chorus
||--                         |---------------|-----------------|
||-o  play fig.1  2 times    |---------------|-----------------|
||-o                         |-7-7-7-7-0-7-0-|-7-0-7-0-7-0-7-0-|
||--                         |---------------|-----------------|
                               q e e e e e e   e e e e e e e e

|-----------------|-----------------|-----------------|-----------------|
|-----------------|-----------------|-----------------|-----------------|
|-5-5-5-5-5-0-5-0-|-5-0-5-0-5-0-5-0-|-3-3-3-0-3-0-3-0-|-3-0-3-0-3-0-3-0-|
|-----------------|-----------------|-----------------|-----------------|
  e e e e e e e e   e e e e e e e e   e e e e e e e e   e e e e e e e e

|---------|--------------|---------------|-----------------|
|---------|------7-7-8-9-|---------------|-----------------|
|-2-3-5-7-|-9-10---------|-7-7-0-7-0-7-0-|-7-0-7-0-7-0-7-0-|
|---------|--------------|---------------|-----------------|
  q q q q   q q  q e e e   q e e e e e e   e e e e e e e e
                   [ 3 ]

                   2nd & 3rd time fill 1
|-----------------|-----------------|-----------------|---------|
|-----------------|-----------------|-----------------|---------|
|-5-5-5-0-5-0-5-0-|-5-0-5-0-5-0-5-0-|-3-3-3-0-3-0-3-0-|-2-3-2---|
|-----------------|-----------------|-----------------|-------3-|
  e e e e e e e e   e e e e e e e e   e e e e e e e e   q q q q

                   fill 1
                  |-----------------|
                  |-7-------7---7---|
                  |---5-5-5---5---5-|
                  |-----------------|
                    e e e e e e e e

fig.2
|-----------------|-----------------|-----------------|-------------------|
|-----------------|-----------------|-----------------|-----------7-5-----|
|-7-5-7-5-7-5-7-5-|-7-5-7-5-7-5---5-|-7-5-7-5-7-5-7-5-|-----5-7-5-----7-5-|
|-----------------|-------------7---|-----------------|-6-7---------------|
  e e e e e e e e   e e e e e e e e   e e e e e e e e   e e e e e e e e e
                                                        [ 3 ]

                                      end fig.2            3rd time to coda
|-----------------|-----------------|---------|              --||
|-----------------|-----------------|---------|  play fig.2  o-||
|-7-5-7-5-7-5-7-5-|-7-5-7-5-7-5-----|-3---5-3-|              o-||
|-----------------|-------------7-5-|---3-----|              --||
  e e e e e e e e   e e e e e e e e   q q q q

                              fig.3
|---||-----|  6  |-----------||-----------------------|
|---||-----|-----|-R-R-------||-o---------------------|
|-7-||---R-|-----|-----8p7-7-||-o-7---------7---------|
|-0-||-0---|     |-----------||-----0-0-0-0---0-0-0-0-|
  w    e h..       q e e q q      e e e e e e e e e e
                                    [ 3 ]       [ 3 ]

                                             end fig.3 4 times
|------------------|---------------------|-----------------||
|------------------|---------------------|---------------o-||
|-7---------87--7-|-7---------7---------|-7---------8-8-o-||
|---0-0-0-0--------|---0-0-0-0---0-0-0-0-|---0-0-0-0-------||
  e e e e e s e. q   e e e e e e e e e e   e e e e e q q
      [ 3 ]              [ 3 ]     [ 3 ]       [ 3 ]

half time (102 bpm)                      164 bpm straight eights
fill A-------------------| 2/4          4/4
|-9-7---7-----------------|-/9-7---7-----|---R-----------||
|-----9---9-8-7-5-7---5-7-|------9---9-8-|-7-----R---R---||
|-------------------7-----|--------------|-----3---4---5-||
|-------------------------|--------------|---------------||
  e e e e e e e e e e e e    e e e e e e   q e e e e e e
  [ 3 ] [ 3 ] [ 3 ] [ 3 ]    [ 3 ] [ 3 ]

                                   8 times
||-------------------|-------------------||
||-o-----------------|-----------------o-||
||-o---------8-7-5-7-|-------3---4---5-o-||
||---0-0-5-7---------|-0-0-0---0---0-----||
     e e e e e e e e   e e e e e e e e

Bridge                              8 times
||-------------------|-------------------||
||-o-----------------|-----------------o-||
||-o-----------------|-------3---4---5-o-||
||---0-0-0-0-0-0-0-0-|-0-0-0---0---0-----||
     e e e e e e e e   e e e e e e e e

102 bpm
fill A 2 times

90 bpm
|-------------------------|----------------------|-------------------------|
|-------------------------|----------------------|-------------------------|
|-----7-7-7-7-5-5-5-5-7-5-|-3-3-3-3-3-0-2-2-2-9-|-------------------------|
|-0-0---------------------|----------------------|-0-0-0-0-0-0-2-2-3-2-0-2-|
  e e s s s s e e s s s s   e e s s s s e e e e    e e s s s s e e s s s s

|---------------------------|--------------------------|
|---------------------------|--------------------------|
|-----------R-------------5-|-7-7-7-7-7/9-9-9-9-9-9/10-|
|-3-3-3-3-3---7-7-7-7-7-7---|--------------------------|
  e e s s s s s s s s s s e   e e s s s s e e s s s s

|----------------------------------|-------------------------------------|
|----------------------------12----|-14-14-14-14-14-14-16-16-16-16-16-16-|
|-10-10-10-10-10/14-14-14-14----14-|-------------------------------------|
|----------------------------------|-------------------------------------|
  e  e  s  s  s  s  s  s  e  e  e    e  e  s  s  s  s  e  e  s  s  s  s

|-----------------------------------------||
|-17-17-17-17-17/21-21-21-21-21-21-21-21-||
|-----------------------------------------||
|-----------------------------------------||
  e  e  s  s  s  s  s  s  s  s  s  s  e

Guitar solo I
|-----------------------|---------------------|--------------------|
|-------4-5---------4-5-|---------4-5---------|--------------------|
|-----7-----5-5-5-7-----|-3-3-5-7-----2-2-2-2-|-7----7-5-5-7-5-0-5-|
|-0-0-------------------|---------------------|-0--0---------------|
  e e e s s e e s s s s   e e s s s s e e e e   e. s q e e s s s s

|-----------------------|-------------------------|
|-----------------5-4-2-|-2-2-2-2-0-2-4-4-4-4-0-4-|
|-3-3-5-3-0-3-2-2-------|-------------------------|
|-----------------------|-------------------------|
  e e s s s s e e s s e   e e s s s s e e s s s s

|--------------------------|----------------------------|
|-5-5-5-4-2-0--------------|----------------------------|
|-------------2-2-0-2-0-2/-|-/7-----7-7-7-7-5-5-7-5-0-5-|
|--------------------------|--0-0-0---------------------|
  e e s s s s e s s s s e     e s s s s s s e e s s s s

|-----------------------------|---------------------------|
|-----5-4-2-------------------|-2---2-0-2-4-2-4-2-4-2-4-0-|
|-3-3-------5-3-5-3-2-3-2-----|---------------------------|
|-------------------------3-2-|---0-----------------------|
  e e s s s s s s s s s s s s   e e e s s s s s s s s s s

|-------------------------|-----------------------------|
|-------------------------|-----------------------------|
|-3-3-3-5-3-0-3-2-2-2-----|-------7-7-7-7-9-9-9-9-9-9-7-|
|---------------------3-2-|-0-0-0-----------------------|
  e s s s s s s e s s e e   e s s s s s s e s s s s s s

|-----------------------|-------------------------|-------------------------|
|-----5-------------5---|-----------------5-7-----|-----------5-7-----------|
|-3-3---3-0-3-2-2-2---7-|-7---7-7-7-7-5-5-----7-5-|-3-3-3-5-7-----2-2-2-2-2-|
|-----------------------|-0-0---------------------|-------------------------|
  e e s s s s s s e e e   e e s s s s e e s s s s   s s e s s s s s s e e e

                          2/4         4/4
|-------------------------|-----------|-----------------|-----||
|---------------------7---|-----------|-----------------|---R-||
|-7---7-7-7-7-5-5-7-5---5-|-3-3-5-3-5-|-2-3-2-3-2-3-2-3-|-2---||
|---0---------------------|-----------|-----------------|-----||
  e e s s s s e e s s s s   e e s s e   e e e e e e e e   q h.

triplet feel
204 bpm                102 bpm

play fig.3  4 times   |  play fill A 2 times ||

204 bpm
|------|---|---|---------|---|---|---------|---------|---------|---------|
|------|---|---|---------|---|---|---------|---------|---------|---------|
|---R--|-R-|-R-|-R---R---|-R-|-R-|-3---5-3-|---R---R-|---R---R-|---R---R-|
|-0----|---|---|---0---0-|---|---|---3-----|-0---0---|-0---0---|-0---0---|
  e h..  w   w   q q q q   w   w   q q q q   q q q q   q q q q   q q q q

|---------|---------|---------|---------||
|---------|---------|---------|---------||
|---R---R-|---R---R-|---R---R-|-3---5-3-||
|-0---0---|-0---0---|-0---0---|---3-----||
  q q q q   q q q q   q q q q   q q q q

D.S. Verse 3 al Coda

Coda                         Guitar solo II
|---||                      ||                     ||-----------------|
|-R-|| play fig.3  4 times  || play fig.3  8 times ||-----------------|
|---||                      ||                     ||-7-5-7-5-7-5-7-5-|
|---||                      ||                     ||-----------------|
  w                                                   e e e e e e e e

|-----------------|-----------------|-------------------|
|-----------------|-----------------|-----------7-5-----|
|-7-5-7-5-7-5---5-|-7-5-7-5-7-5-7-5-|-----5-7-5-----7-5-|
|-------------7---|-----------------|-6-7---------------|
  e e e e e e e e   e e e e e e e e   e e e e e e e e e
                                      [ 3 ]

|-----------------|-----------------|---------|-----||
|-----------------|-----------------|---------|-----||
|-7-5-7-5-7-5---5-|-7-5-7-5-7-5-----|-3---5-3-|---R-||
|-------------7---|-------------7-5-|---3-----|-0---||

Seek & Destroy
140 bpm
        cresc.
|  6  |-----------------|-----------------||---------------------|
|-----|-----------------|---------7-7-7---||-o-----5h7-----5h7---|
|-----|-0-0-0-0-0-0-0-0-|-0-0-0-0-------0-||-o-0-0-----0-0-----0-|
|     |-----------------|-----------------||---------------------|
        e e e e e e e e   e e e e e e e e      e e   q e e   e e

                 4 times
|---------------5-----||---------|-------|  3  |-----------|-------------|
|-----------5-----7-o-||---------|-------|-----|-----------|-------------|
|-(0)-0-8-7---7-----o-||---R-----|----R--|-----|-R-----R---|-R-----R-----|
|---------------------||-0---12\-|-\0----|     |---0-0---0-|---0-0---0-0-|
  (e) e e e e e e e      q h q      q h.         q e e q q   q e e q e e

|-----------------|-----------------||-------------------|
|-----------------|-----------------||-o-----------------|
|---------7-7-7-7-|---------7-5-----||-o-----------------|
|-0-0-0-0---------|-0-0-0-0-----7-6-||---0-0-0-0-3-5-3-5-|
  e e e e e e e e   e e e e e e e e      e e e e e e e e

              4 times fig.1
|-------------------||-----------------|-----------------|-----------------|
|-----------------o-||-----------------|-------------5---|-----------------|
|---------7-5-----o-||-----------------|---------------7-|-----------------|
|-0-0-0-0-----7-6---||-0-0-0-0-0-0-0-0-|-0-0-0-0-7-6-----|-0-0-0-0-0-0-0-0-|
  e e e e e e e e      e e e e e e e e   e e e e e e e e   e e e e e e e e

|-----------------|-----------------|-----------------|-----------------|
|-----------------|-----------------|-------------5---|-----------------|
|-----------------|-----7-----------|---------------7-|-----7-------7---|
|-0-0-0-0-7-6-3-0-|-0-0---0-0-0-0-0-|-0-0-0-0-7-6-----|-0-0---0-0-0---0-|
  e e e e e e e e   e e e e e e e e   e e e e e e e e   e e e e e e e e

                   S
          end fig.1  Verse 1,2,3  Pre-chorus
|-----------------||            ||-----------------|----------------|
|-----------------|| play fig.1 ||-o---------------|----------5---7-|
|-----7-----------||            ||-o-3-0-0-0-3-5-3-|-3-0-0-/7---7---|
|-0-0---0-7-6-3-0-||            ||-----------------|----------------|
  e e e e e e e e                    e e e e e e q   e e e  e e e q

                |1.                  |2.
|---------------|-7-5---------------||-9-7---7---------|-----------------|
|---------------|-----7-6-5-------o-||-----9---9-8-7-5-|-----------------|
|-0-0-0-0-3-5-3-|-----------7-6-5-o-||-----------------|-7-5---5---------|
|---------------|-------------------||-----------------|-----7---7-6-5-3-|
  e e e e e e q   e e e e e e e e      e e e e e e e e   e e e e e e e e

Chorus                                           |1.
||-------------------|---------|-----------------|---------------------||
||-o---------------5-|---------|-----------------|-------------------o-||
||-o-----------------|---------|-----------------|-------5---7---7---o-||
||---3-3-3-3-3-3-3---|-2-2-1-1-|-0-0-0-0-0-0-0-0-|-0-5-7---0---0---0---||
     e e e e e s s q   q q q q   e e e e e e e e   e s s e e e e e e

|2. 3rd time fill 1  |3.        to coda I,II|4.
|-------------------||---------------------||-----------------|
|-----------------o-||-------------------o-||-----------------|
|-7-5-------------o-||-------5---7---7---o-||-----------------|
|-----7-6-5-7-6-5---||-0-5-7---0---0---0---||-0-0-0-0-3-5-3-5-|
  e e e e e e e e      e s s e e e e e e      e e e e e e e e
      fill 1
   |-----------------|
   |-----------------|
   |-7-5-------------|
   |-----7-5-6-5-7-5-|
     e e e e e e e e

|-----------------|-----------------|-----------------|-----------------|
|-----------------|-----------------|-----------------|-----------------|
|---------7-5-----|-----------------|-----------5-6-7-|-----------------|
|-0-0-0-0-----7-6-|-0-0-0-0-3-5-3-5-|-0-3-5-6-7-------|-0-0-0-0-3-5-3-5-|
  e e e e e e e e   e e e e e e e e   e e e e e e e e   e e e e e e e e

                                                D.S al coda I
|-----------------|-----------------|-----------------||
|-----------------|-----------------|-----------------||
|---------7-5-----|-----------------|---------7-5-----||
|-0-0-0-0-----7-6-|-0-0-0-0-3-5-3-5-|-0-0-0-0-----7-6-||
  e e e e e e e e   e e e e e e e e   e e e e e e e e

Coda I                          208 bpm        (guitar)
|-----------------|---------|---||------|  3  ||  7  |-----------------||
|---------------5-|---------|---||------|-----||-----|-------3-2-0-----||
|-----------------|---------|---||---R--|-----||-----|-3-2-0-------3-0-||
|-3-3-3-3-3-3-3---|-2-2-1-1-|-0-||-0----|     ||     |-----------------||
  e e e e e s s q   q q q q   w    q h.                e e e e e e e e

                                                             2 times
||-------------------|-----------------|-----|-------------------||
||-o-------7-----7---|-------7-----7---|  %  |-------3-2-0-----o-||
||-o-----0---0-0---0-|-0-0-0---0-0---0-|-----|-3-2-0-------3-0-o-||
||---3h5-------------|-----------------|-----|-------------------||
     e e e e e e e e   e e e e e e e e         e e e e e e e e

Guitar solo                                                 3 times
||-------------|---------|-----------------|-------------------||
||-o-----------|---------|-----------------|-----------------o-||
||-o-----------|---------|-----7-7-----7-7-|-----7-7-----7-7-o-||
||---3-3-3-3-3-|-2-2-1-1-|-0-0-----0-0-----|-0-0-----0-0-------||
     q q e e q   q q q q   e e e e e e e e   e e e e e e e e

|-----------|---------||-------------------|-----------------|
|-----------|---------||-o-----------------|-----------------|
|-----------|---------||-o-5h7---7-----7---|-5h7---7-----7---|
|-3-3-3-3-3-|-2-2-1-1-||-------0---0-0---0-|-----0---0-0---0-|
  q q e e q   q q q q      e e e e e e e e   e e e e e e e e

                  |1,2,3.              |4.
|-----------------|-------------------||-----------------|-----------------|
|-----------------|-----------------o-||-----------------|-----------------|
|-4h7---7-----7---|-------3-2-0-----o-||-------3-2-0-----|-------3-2-0-----|
|-----0---0-0---0-|-3-2-0-------3-0---||-3-2-0-------3-2-|-3-2-0-------3-2-|
  e e e e e e e e   e e e e e e e e      e e e e e e e e   e e e e e e e e

      Tempo I
|----||------|--------|------|--------|------|---|-----------------|
|----||---R--|-R------|---R--|-R------|---R--|-R-|-----------------|
|-0--||-0----|----0-0-|-0----|----0-0-|-0----|---|-0-0-0-0-0-0-0-0-|
|----||------|--------|------|--------|------|---|-----------------|
  l     q h.   h. e e   q h.   h. e e   q h.   w   e e e e e e e e

                                                           4 times
|-----------------||---------------------|---------------5-----||
|-----7---7-7-----||-o-----5h7-----5h7---|-----------5-----7-o-||
|-0-0---0-----0-0-||-o-0-0-----0-0-----0-|-(0)-0-8-7---7-----o-||
|-----------------||---------------------|---------------------||
  e e e e e e e e      e e   q e e   e e   (e) e e e e e e e

|---------|-----------------|-----------------|-----------------|
|---------|-----------------|-----------------|-----------------|
|---R-----|-----------------|---------7-5-----|-----------------|
|-0---12\-|-0-0-0-0-3-5-3-5-|-0-0-0-0-----7-6-|-0-0-0-0-3-5-3-5-|
  q h q     e e e e e e e e   e e e e e e e e   e e e e e e e e

|-----------------|-----------------|-----------------|-----------------|
|-----------------|-----------------|-----------------|-----------------|
|-----------5-6-7-|-----------------|---------7-5-----|-----------------|
|-0-3-5-6-7-------|-0-0-0-0-3-5-3-5-|-0-0-0-0-----7-6-|-0-0-0-0-3-5-3-5-|
  e e e e e e e e   e e e e e e e e   e e e e e e e e   e e e e e e e e

                D.S al coda II
|-------------------||
|-------------------||
|-------5---7-5-----||
|-0-5h7---7-----7-6-||
  e s s e e e e e e

Coda II
|-----------------|---------|-----------------|------------------|
|---------------5-|---------|-----------------|------------------|
|-----------------|---------|-----------------|---------------10-|
|-3-3-3-3-3-3-3---|-2-2-1-1-|-0-0-0-0-0-0-0-0-|-0-0-0-0-0-0-0----|
  e e e e e s s q   q q q q   e e e e e e e e   e e e e e e e e

|-----------------|------------------|-----------------|------------------|
|-----------------|------------------|-----------------|------------------|
|-9-----9-8-----8-|-7-------------10-|-9-----9-5-----5-|-7---5---7-7-7-10-|
|---0-0-----0-0---|---0-0-0-0-0-0----|---0-0-----0-0---|---0---0----------|
  e e e e e e e e   e e e e e e e e    e e e e e e e e   e e e e e e e e

|-----------------|------------------|-----------------|----------------|
|-----------------|------------------|-----------------|----------------|
|-9-----9-8-----8-|-7-------------10-|-9-----9-5-----5-|-7---5---7-7-7\-|
|---0-0-----0-0---|---0-0-0-0-0-0----|---0-0-----0-0---|---0---0--------|
  e e e e e e e e   e e e e e e e e    e e e e e e e e   e e e e e e q

                     |1-7.                |8. 5/4               4/4
||-------------------|-------------------||---------------------|------|
||-o-----------------|-----------------o-||---------------------|------|
||-o-----------------|-----------------o-||---------------------|---R--|
||---0-0-0-0-0-3-0-0-|-2-0-0-3-0-0-5-3---||-2-0-0-3-0-0-5-3-0-0-|-0----|
     e e e e e e e e   e e e e e e e e      e e e e e e e e e e   q h.

|------|------|-------------||
|------|------|-----------R-||
|---R--|---R--|---------7---||
|-0----|-0----|-0-0-0-0-----||
  q h.   q h.   e e e e q q

Fight Fire With Fire
Intro
  Moderately Q=82
 3/4                                   2/4
  Gtr I
                       |-3--|
  E E  E E  E E   E  E S  S S  E  E E    Q.    S  S
|---------------|-9-10-9h10p9---------|-------------|
|-9---10---12---|-------------12-10p9-|-------------|
|---------------|---------------------|-------------|
|---------------|---------------------|-12----10h12-|


 3/4
                                   |-3--|
   H.         E E  E E  E E   E  E S  S S  E  E E
|----------|----------------|-9-10-9h10p9-----------|
|----------|------10---12---|-------------12-10p9---|
|----------|-10-------------|-----------------------|
|-10-------|----------------|-----------------------|


 2/4      3/4                                               2/4      3/4
                                            |-3--|
  Q.   E    H.         E E  E E  E E   E  E S  S S  E  E E   Q.   E   H.
|--------|----------|----------------|-9-10-9h10p9---------|--------|-------|
|-9----9-|----------|------10---12---|-------------12-10p9-|--------|-5-----|
|--------|-12-------|-10-------------|---------------------|-0----0-|-------|
|--------|----------|----------------|---------------------|--------|-3-----|


                        |-3--|
   E E  E E  E E   E  E S  S S  E  E E
|----------------|-9-10-9h10p9---------|
|------10---12---|-------------12-10p9-|
|-10-------------|---------------------|
|----------------|---------------------|


 4/4
   H     H       E  E  E  E  H       W
|-------------|----14-12----------|-------||
|-------------|-10-------15-17----|-14----||
|-------10----|-------------------|-------||
|-12----------|-------------------|-------||


  Fast Rock Q=184
  E E Q  H      Wx3          Q  E E E Q  E
|-------------|------------|---------------|
|-------------|------------|---------------|
|-------------|------------|---------------|
|-0-----------|------------|------3------2-|


  Q  E E E E E E   Q  E E E Q  E   Q  E E E E E E
|----------------|---------------|-----------------||
|----------------|---------------|-----------------||
|----------------|---------------|-----------------||
|------3---2---2-|------3------2-|------3---2---1--||


    S S S S S S E S S S S S S E
||------------------------------|
||o-----------------------------|
||o-----------------------------|
||--0-0-0-0-0-0-3-0-0-0-0-0-0-2-|


  S S S S S S E S S E S S E   S S S S S S E S S S S S S E
|---------------------------|-----------------------------|
|---------------------------|-----------------------------|
|---------------------------|-----------------------------|
|-0-0-0-0-0-0-3-0-0-2-0-0-2-|-0-0-0-0-0-0-3-0-0-0-0-0-0-2-|


  S S S S S S E S S E S S E         E E S S S S e S S E E
|----------------------------||-||------------------------|
|---------------------------o||-||o-----------------------|
|---------------------------o||-||o-----------------------|
|-0-0-0-0-0-0-3-0-0-2-0-0-1--||-||--0-3-5p0-0-0-3-0-0-2-3-|


  E E S S S S Q  Q   3x E E S S S S e S S E E
|--------------------||------------------------|
|-------------------o||------------------------|
|-------------------o||------------------------|
|-0-3-5-0-0-0-2--2---||-0-3-5p0-0-0-3-0-0-2-3--|


                        Verse
                         $
  E E S S S S E E Q      S S S S S S E S S S S S S E
|--------------------||------------------------------|
|--------------------||o-----------------------------|
|--------------------||o-----------------------------|
|-0-3-5-0-0-0-2------||--0-0-0-0-0-0-3-0-0-0-0-0-0-2-|


  S S S S S S E S S E S S E   S S S S S S E S S S S S S E
|---------------------------|-----------------------------|
|---------------------------|-----------------------------|
|---------------------------|-----------------------------|
|-0-0-0-0-0-0-3-0-0-2-0-0-2-|-0-0-0-0-0-0-3-0-0-0-0-0-0-2-|


  S S S S S S E S S E S S E   S S S S S S E S S S S S S E
|---------------------------|-----------------------------|
|---------------------------|-----------------------------|
|---------------------------|-----------------------------|
|-0-0-0-0-0-0-3-0-0-2-0-0-1-|-0-0-0-0-0-0-3-0-0-0-0-0-0-2-|


  S S S S S S E S S E S S E   S S S S S S E S S S S S S E
|---------------------------|-------------------------------|
|---------------------------|-------------------------------|
|---------------------------|-------------------------------|
|-0-0-0-0-0-0-3-0-0-2-0-0-2-|-0-0-0-0-0-0-3-0-0-0-0-0-0-2---|


  S S S S S S E S S E S S E   E E S S S S e S S E E
|---------------------------|-----------------------|
|---------------------------|-----------------------|
|---------------------------|-----------------------|
|-0-0-0-0-0-0-3-0-0-2-0-0-1-|-0-3-5p0-0-0-3-0-0-2-3-|


  E E S S S S Q  Q    E E S S S S e S S E E
|-------------------|-------------------------|
|-------------------|-------------------------|
|-------------------|-------------------------|
|-0-3-5-0-0-0-2--2--|-0-3-5p0-0-0-3-0-0-2-3---|


  E E S S S S Q  Q    E E S S S S e S S E E
|-------------------|-----------------------|
|-------------------|-----------------------|
|-------------------|-----------------------|
|-0-3-5-0-0-0-2--2--|-0-3-5p0-0-0-3-0-0-2-3-|


  E E S S S S Q  Q    E E S S S S e S S E E
|-------------------|-------------------------|
|-------------------|-------------------------|
|-------------------|-------------------------|
|-0-3-5-0-0-0-2--2--|-0-3-5p0-0-0-3-0-0-2-3---|


                        Chorus
                         |-3-| |-3-|
  E E S S S S E E Q      Q Q Q Q Q Q   E S S S S S S S S S S S S S S
|---------------------||-------------|-------------------------------|
|--------------------o||-------------|-------------------------------|
|--------------------o||-------1-2-1-|-1-1-1-1-1-1-1-1-1-1-1-1-1-1-1-|
|-0-3-5-0-0-0-2-------||-0-3-0-------|-------------------------------|


  |-3-| |-3-|
  Q Q Q Q Q Q   E S S S S S S S S S S S S S S
|-------------|----------------------------------|
|-------------|----------------------------------|
|-------1-2-1-|-1-1-1-1-1-1-1-1-1-1-1-1-1-1-1----|
|-0-3-0-------|----------------------------------|


                                                     To Coda
                                                     To Coda
  |-3-| |-3-|                                   |-3-| |-3-|
  Q Q Q Q Q Q   E S S S S S S S S S S S S S S   Q Q Q Q Q Q   E Q  E H
|-------------|-------------------------------|-------------|-------------|
|-------------|-------------------------------|-------------|-------------|
|-------1-2-1-|-1-1-1-1-1-1-1-1-1-1-1-1-1-1-1-|-------1-2-1-|-1-----------|
|-0-3-0-------|-------------------------------|-0-3-0-------|-------------|


    S S S S S S E S S S S S S E   S S S S S S E S S E S S E
||------------------------------|---------------------------|
||o-----------------------------|---------------------------|
||o-----------------------------|---------------------------|
||--0-0-0-0-0-0-3-0-0-0-0-0-0-2-|-0-0-0-0-0-0-3-0-0-2-0-0-2-|


                                              D.S. al Coda
  S S S S S S E S S S S S S E   S S S S S S E S S E S S E
|-----------------------------|-----------------------------||
|-----------------------------|----------------------------o||
|-----------------------------|----------------------------o||
|-0-0-0-0-0-0-3-0-0-0-0-0-0-2-|-0-0-0-0-0-0-3-0-0-2-0-0-1---||


  Half Time Feel Q=H
  &
         |-3-|                     |-3-|      |-3-| |-3-|          |-3-|
  E E Q  Q Q Q   W          +H     Q Q Q   Q  E E E Q Q Q   +H     Q Q Q
|--------------|----------|--------------|----------5-----|--------------||
|--------------|----------|--------------|----3s5h7---7-5-|-(5)----------||
|-1------5-3-2-|-0--------|-(0)------0-2-|-3--------------|--------2---0-||
|--------------|----------|--------3-----|----------------|----------3---||


   Guitar Solo
    E S S +S  S E E S S +S  S E   E S S +S  S E E S S +S  S E
||------------------------------|-----------------------------|
||o-----------------------------|-----------------------------|
||o-----------------------------|-----------------------------|
||--0-0-0-(0)-0-0-0-0-0-(0)-0-0-|-0-0-0-(0)-0-0-0-0-0-(0)-0-0-|


                               6/4
  E S S +S  S E E S S +S  S E   E S S +S  S E E S S +S  S E E S S +S  S E
|-----------------------------|----------------------------------------------|
|-----------------------------|----------------------------------------------|
|-----------------------------|----------------------------------------------|
|-0-0-0-(0)-0-0-0-0-0-(0)-0-0-|-0-0-0-(0)-0-0-0-0-0-(0)-0-0-0-0-0-(0)-0-0----|


  E S S +S  S E E S S +S  S E E S S +S  S E
|-------------------------------------------|
|-------------------------------------------|
|-0-0-0-(0)-0-0-0-0-0-(0)-0-0-0-0-0-(0)-0-0-|
|-------------------------------------------|


 4/4
  E S S +S  S E E S S +S  S E   E S S +S  S E E S S +S  S E
|-----------------------------|------------------------------|
|-----------------------------|------------------------------|
|-----------------------------|------------------------------|
|-3-3-3-(3)-3-3-3-3-3-(3)-3-3-|-2-2-2-(2)-2-2-2-2-2-(2)-2-2--|


  S S +S  S E E S S +S  S E E   S S +S  S E E S S +S  S E E
|-----------------------------|-----------------------------|
|-----------------------------|-----------------------------|
|-----------------------------|-----------------------------|
|-0-0-(0)-0-0-0-0-0-(0)-0-0-0-|-0-0-(0)-0-0-0-0-0-(0)-0-0-0-|


                               6/4
  S S +S  S E E S S +S  S E E   E S S +S  S E E S S +S  S E E S S +S  S E
|-----------------------------|-------------------------------------------|
|-----------------------------|-------------------------------------------|
|-----------------------------|-------------------------------------------|
|-0-0-(0)-0-0-0-0-0-(0)-0-0-0-|-0-0-0-(0)-0-0-0-0-0-(0)-0-0-0-0-0-(0)-0-0-|


  E S S +S  S E E S S +S  S E E S S +S  S E
|-------------------------------------------|
|-------------------------------------------|
|-0-0-0-(0)-0-0-0-0-0-(0)-0-0-0-0-0-(0)-0-0-|
|-------------------------------------------|


 4/4
  E S S +S  S E E S S +S  S E   E S S +S  S E E S S +S  S E
|-----------------------------|------------------------------||
|-----------------------------|------------------------------||
|-----------------------------|------------------------------||
|-3-3-3-(3)-3-3-3-3-3-(3)-3-3-|-2-2-2-(2)-2-2-2-2-2-(2)-2-2--||


  E Q  E E Q  E   E Q  E E E Q    E Q  E E Q  E   E Q  E E E Q
|---------------|---------------|---------------|----------------||
|---------------|---------------|---------------|---------------o||
|---------------|---------------|---------------|---------------o||
|-0-2--3-0-2--3-|-0-2--3-0-2-3--|-0-2--3-0-2--3-|-0-2--3-0-2-3---||


             >
  W         +W           +W           +W
|---------|------------|------------|--------|
|---------|------------|------------|--------|
|---------|------------|------------|--------|
|-0-------|-(0)--------|-(0)--------|-(0)----|


         D.S. al Dbl. Coda   &&
              5/4           4/4
                                                               |-3-| |-3-|
  Wx7          W             E S S S S S S S S S S S S S S     Q Q Q Q Q Q    8x
|------------|------------||-------------------------------||-----------------||
|------------|------------||-------------------------------||o---------------o||
|------------|------------||-1-1-1-1-1-1-1-1-1-1-1-1-1-1-1-||o-------1-2-1---o||
|------------|------------||-------------------------------||--0-3-0----------||


    |-3-| |-3-|
    Q Q Q Q Q Q     E W        Q  E   W
||---------------||-----------------|----------|
||o-------------o||-----------------|----------|
||o-------1-2-1-o||-4---------------|----------|
||--0-3-0--------||-----------------|-0--------|


  |-3-|    |-3-|
  E E E Q  E E E Q    Q  W        Q
|-------------------|-----------------*|
|-------------------|-----------------*|
|-7-7-7-7--7-7-7-7--|-7---------------*|
|-------------------|-----------------*|

Last Caress
Intro:
|---------|
|--Drums--|
|----x2---|
|---------|

Verse 1:
|--------------------------------|--------------------------------|
|--------------------------------|--------------------------------|
|--------------------------------|--------------------------------|
|--------------------------------|-----------------1-------3------|

|--------------------------------|--------------------------------|
|--------------------------------|--------------------------------|
|--------------------------------|--------------------------------|
|--------------------------------|-----------------1-------3------|

|--------------------------------|--------------------------------|
|--------------------------------|--------------------------------|
|--------------------------------|-5------------------------------|
|-1------------------------------|--------------------------------|

|--------------------------------|--------------------------------|
|--------------------------------|--------------------------------|
|-3-------3---3---3---3---3---3--|-3---3---3---3------------------|
|--------------------------------|-----------------1-------3------|

|--------------------------------|--------------------------------|
|--------------------------------|--------------------------------|
|-3-------3---3---3---3---3---3--|-3---3---3---3------------------|
|--------------------------------|-----------------1-------3------|

Verse 2, 3, 4:
|--------------------------------|--------------------------------|
|*-------------------------------|--------------------------------|
|*3-------3---3---3---3---3---3--|-3---3---3---3------------------|
|--------------------------------|-----------------1-------3------|

|--------------------------------|--------------------------------|
|--------------------------------|--------------------------------|
|-3-------3---3---3---3---3---3--|-3---3---3---3------------------|
|--------------------------------|-----------------1-------3------|

|--------------------------------|--------------------------------|
|--------------------------------|--------------------------------|
|--------------------------------|-5-------5---5-------5---7---5--|
|-1-------1---1-------1---1---5--|--------------------------------|

|--------------------------------|--------------------------------|
|--------------------------------|--------------------------------|
|-3-------3---3-------3---3---3--|-3---3---3---3---5---3----------|
|--------------------------------|-------------------------5---0--|

Chorus:
|--------------------------------|--------------------------------|
|--------------------------------|--------------------------------|
|--------------------------------|--------------------------------|
|-1-------1---1-------1---1---1--|-3-------3---3-------3---5---7--|

|--------------------------------|--------------------------------|
|--------------------------------|--------------------------------|
|--------------------------------|--------------------------------|
|-8---8---8---0---7---7---0---0--|-5---5---5---5---5---5---5---0--|

|--------------------------------|--------------------------------|
|--------------------------------|--------------------------------|
|--------------------------------|-------------------------0---2--|
|-1-------1---1-------1---1---2--|-3-------3---3-------3----------|

                                  1. 2.
                                 |--------------------------------|
                                 |--------------------------------|
                                 |-3-------3---3---3---3---3---3--|
                                 |--------------------------------|
                                  
                                 |Fig.1 
|--------------------------------|--------------------------------|
|--------------------------------|--------------------------------|
|--------------------------------|-3-------3---3---3---3---3---3--|
|-1---1---1---3-------3---3------|--------------------------------|

                        end Fig.1|
|--------------------------------|
|--------------------------------|
|--------------------------------|
|-1---1---1---3-------3---3------|

                                  3.
                                  Repeat Fig.1 x 4 then
                                 |--------------------------------|
                                 |--------------------------------|
                                 |-3------------------------------|
                                 |--------------------------------|

|--------------------------------|
|--------------------------------|
|--------------------------------|
|----------------1-------3-------|

Master Of Puppets
Intro
4/4
|----------|------------|-------------|------------|----------|--------|---------|
|----------|------------|-------------|------------|----------|--------|---------|
|----------|5---4---3---|(3)----------|------------|----------|--------|---------|
|0---------|------------|-------------|0-----------|----------|--------|-------1-|

||-------|------------|--------|---------||--------|------------|---------------|---------------|
||:------|------------|--------|--------:||--------|------------|---------------|---------------|
||-------|5---4---3---|--------|---------||--------|5---4---3---|---3-3-3-3-3-3-|3-3-3-3-3-3-3-3|
||-0-----|------------|--------|------1--||0-------|------------|---------------|---------------|

|----------------||----------|----------|----------|-----------------||
|----------------||:---------|----------|----------|----------------:||
|3-3-3-3-3-3-3-3-||----------|----------|----------|-----------------||
|----------------||-0--------|----------|----------|32-0-32-0-32--||
                                                     S     S     S

||-----------------|----------------|----------------|----------------|
||:----------------|----------------|----------------|----------------|
||-----2-----3-----|4-----3-----2-2-|----2-----3-----|4-----3-----2---|
||-0-1---0-1---0-1-|--0-1---0-1-----|0-1---0-1---0-1-|--0-1---0-1-----|

|-----------------|----------------|----------------|-----------------||
|-----------------|----------------|----------------|----------------:||
|-----2-----3-----|4-----3-----2-2-|----2-----3-----|-----------------||
|-0-1---0-1---0-1-|--0-1---0-1-----|0-1---0-1---0-1-|32-0-32-0-32--||
                                                      S     S     S

|-----------------|----------------|------------------||
|-----------------|----------------|------------------||
|-----------------|----------------|------------------||
|32-0-32-0-32--|0---------------|---------------8-||

Bass riff1                                            5/8
||-----------------|----------------|----------------|-----------||
||:----------------|----------------|----------------|----------:||
||-----------------|----------------|----------------|-----------||
||-0-0-0-0-0-0-0-0-|0-3-5-0-65-3-5-|0-0-0-0-0-0-0-0-|0-3/5-3/5--|| end of riff1
                       H     S   H

1st, 2nd, 3rd Verses 
Bass riff1 X4

Bass riff2 X2                                       5/8        
|----------------|----------------|----------------|----------|
|----------------|----------------|----------------|----------|
|----------------|----------------|----------------|----------|
|2-2-2-2-2-2-2-2-|2-5/7---87-5/7-|2-2-2-2-2-2-2-2-|2-5/7-5/7-| end of riff2

Pre-chorus
|----------------||----------------|---------------|----------------|----------------|
|----------------||----------------|---------------|----------------|--------1-------|
|----------------||7-------5---7---|---------------|3-3-3-3-3---2---|3-3-3-3-----2---|
|7-7-7-7-7-7-7-7-||--0-0-0---------|0------2-3-----|----------------|----------------|

                                                    ------------------   --------------
                                                    |1.2.             | |3.           
||-----------------|---------------|----------------|-----------------||--------------|
||:----------------|---------------|----------------|--------1-------:||4-2-1---1-----|
||-7-------5---7---|---------------|3-3-3-3-3---2---|3-3-3-3-----2----||----------3-2-|
||---0-0-0---------|0------2-3-----|----------------|-----------------||--------------|

                                    Chorus           2/4      4/4
|----------------|----------------||----------------|--------|----------------|-----------------|
|----------------|----------------||----------------|--------|----------------|-----------------|
|----------------|----------------||----------------|--------|----------------|-----------------|
|0---0-----------|1---1-----------||0-----------0-0-|2-0-0-0-|3---3-3---3-3---|3-3-3-3-3-3-333--|
                                                      P
                  2/4      4/4                                                 2/4
|----------------|--------|----------------|----------------|-----------------|--------|
|----------------|--------|----------------|----------------|-----------------|--------|
|3---2-3-3-0-0-0-|2-0-0-0-|0---0-0---0-0---|(0)-------------|5----------------|5-------|
|----------------|--------|----------------|----------------|-----------3-3-3-|----0-0-|

4/4               2/4      4/4                                                 2/4
|----------------|--------|----------------|----------------|-----------------|--------|
|----------------|--------|----------------|----------------|-----------------|--------|
|3---3-3---3-3---|3-3-3---|----------------|----------------|-----------------|--------|
|----------------|--------|0---0-----------|1---1-----------|0----------0-0-0-|2-0-0-0-|
                                                                                P

 4/4                                                                  2nd time to Coda1
|----------------|----------------|----------------|----------------||3rd time to Coda2
|----------------|----------------|----------------|----------------||
|3---3-3---3-3---|3-3-2-2-0-0-----|----------------|----------------||
|----------------|------------3-3-|0---0-----------|1---1-----------||

                                                      -----------------   ------------------
                                                     |1.               | |2.
||-----------------|----------------|----------------|-----------------||-----------------|
||:----------------|----------------|----------------|----------------:||-----------------|
||-----2-----3-----|4-----3-----2-2-|----2-----3-----|4-----3-----2----||-----------------|
||-0-1---0-1---0-1-|--0-1---0-1-----|0-1---0-1---0-1-|--0-1---0-1------||32-0-32-0-32--|
                                                                          S     S     S
                   D.S al Coda1           Coda1
|-----------------|                       |----------------|----------------||
|-----------------|                       |----------------|----------------||
|-----------------|                       |----------------|----------------||
|32-0-32-0-32--|                       |----------------|----------------||
  S     S     S

Interlude
 2/4      4/4         2/4                4/4                                              2/4
|--------|-----------|--------||--------|---------------|---------------|----------------|------|
|--------|--3 pause--|--------||--------|---------------|---------------|----------------|------|
|--------|-----------|--------||7-------|5--------------|3--------------|0-------2-------|6-----|
|--------|-----------|--------||--------|---------------|---------------|----------------|------|

Interlude riff1
             4/4                                                2/4
||---------|----------------|----------------|----------------|---------||
||:--9-9---|----------------|----------------|----------------|--------:||
||-7-----7-|5-----5-5-5---5-|3-3---333-3-0-3-|0-----0-2-220-2-|66660-6--||End of Interlude riff1
||---------|------------5---|----------------|----------------|---------||

Guitar solo1
            4/4                                                2/4
||---------|----------------|----------------|----------------|---------||
||:--9-----|----------------|----------------|----------------|--------:||
||-7---7-7-|5-----555-5-7-5-|3-3-----3-3-0-3-|0-----0-2-220-2-|66660-6--||
||---------|----------------|------33--------|----------------|---------||

Interlude riff1 X2
            
            4/4                                                2/4
||---------|----------------|----------------|----------------|---------||
||:--------|----------------|----------------|----------------|--------:||
||---------|----------------|----------------|----------------|6-6-6-6--||
||-0-0-0-0-|2-2-2-2-2-2-2-2-|3-3-3-3-3-3-3-3-|5-5-5-5-7-7-7-7-|---------||

  4/4                                                                     X6
||----------------|----------------||-----------------|-----------------||
||----------------|----------------||:----------------|----------------:||
||----------------|----------------||---------------44|--------------4--||
||0-0-0-0-0-0-0-0-|0-0-0-0-0-0-0-0-||-2-2-3-2-2-2-3---|2-2-3-2-2-2-3----||

||----------------|-----------------|----------------|----------------||
||----------------|-----------------|----------------|5-4-2-2-0-------||
||----------------|-----------------|----------------|----------4-2-0-||
||3---3---3-3-3-3-|(3)3-3---3-3-3---|2---2---2-2-2---|----------------||

Guitar solo2
Bass riff1 X4
Bass riff2 X2

|----------------||-----------------|----------------|----------------|-----------------||
|----------------||:----------------|----------------|----------------|----------------:||
|----------------||-----------------|------------2-2-|----------------|------------2----||
|7-7-7-7-7-7-7-7-||-0-0-1-0-0-1-0-0-|1-0-0-1-0-0-----|0-0-1-0-0-1-0-0-|1-0-0-1-0-0------||

                                                                      X4
|----------------|----------------|----------------|----------------||
|----------------|------------0-2-|4-5-------------|------0---------||
|----------------|------0-2-3-----|----3---------33|3-2-3---3-2-----||
|0-0-0-0-0-0-0-0-|0-2-3-----------|----------------|------------3-2-||

|----------------|----------------||-----------------|----------------|----------------|
|----------------|------0---------||:----------------|----------------|----------------|
|--------------33|3-2-3---3-2-----||-----------------|----------------|----------------|
|0---------------|------------3-2-||-0---------------|----------------|----------------|

                                    D.S. al Coda2      Coda2
|-----------------||----------------||                 ||-----------------|---------------|
|----------------:||----------------||                 ||:----------------|---------------|
|-----------------||----------------||                 ||-----------------|---------------|
|32-0-32-0-32--||32-0-32-0-32-||                 ||-0-0-0-0-0-0-0-0-|0-3-5-0-65-3-5|
  S     S     S      S     S     S                                            H     S   H  

                  5/8       x8 4/4
|----------------|-----------||----------------|----------------|----------------||
|----------------|----------:||----------------|----------------|----------------||
|----------------|-----------||----------------|----------------|----------------||
|0-0-0-0-0-0-0-0-|0-3/5-3/5--||----------------|32-0-32-0-32-|0---------------||

Enter Sandman
Intro
g|---------
d|--5--(x6) u let da guitar play dis twice before u com in
a|-7-------
e|0--65----

g|-----------------------------------------------------
d|----------(x4)------------(x4)---------(x4)----------
a|-------/7--------/7-------------/7-----------/7------
e|0000000--------00--600001-----00--65001----00--650000

g|-|--------------------|-|
d|*|------(x3)----------|*| do dis twice
a|*|-/7-----------------|*|
e|-|0--650----30202/3\20|-|

Verse
g|--------------------------------------------------------------
d|--------------------------------------------------------------
a|--------------------------------------------------------------
e|00000001000000100000030202/3\2000000001000000100000030202/3\20

Pre chorse
g|-2----
d|4---4-(x3)
a|--32--
e|-----2

Chorse
g|------------------------------
d|------------------------------
a|-432-432-432---432------------
e|2---2---2---0-2---0-30202/3\20

g|-|--------------------|-|
d|*|------(x3)----------|*| do dis twice
a|*|-/7-----------------|*|
e|-|0--650----30202/3\20|-|

Verse
g|--------------------------------------------------------------
d|--------------------------------------------------------------
a|--------------------------------------------------------------
e|00000001000000100000030202/3\2000000001000000100000030202/3\20

Pre chorse
g|-2----
d|4---4-(x3)
a|--32--
e|-----2

Chorse
g|------------------------------
d|------------------------------
a|-432-432-432---432------------
e|2---2---2---0-2---0-30202/3\20

g|-|--------------------|-|
d|*|------(x3)----------|*| do dis 2 da end of da solo 
a|*|-/7-----------------|*| then don't play when he goes 
e|-|0--650----30202/3\20|-| 'know i lay...' then when it goes 
'hush little baby...' do dis

g|------
d|--5--- till da chorse and i can't be assed 2 tab it out, so just 
a|-7---- figure it out its da same sort of ting as the chorse just a  
e|0--65- little different, and the outro is the intro backwards 

g|-|--------------------|-|
d|*|------(x3)----------|*| do dis twice
a|*|-/7-----------------|*| just before u com in let da guitar play
e|-|0--650----30202/3\20|-| it twice


g|-------------------------------------
d|----------(x4)---------(x4)---------- repeat ito a fade
a|--/7------------/7-----------/7------
e|00--650001----00--60001----00--000000

Am I Evil?
100 bpm
|--------|------|------|  3  |---|-------|---|-------|---|-----|---|-------|
|--------|------|------|-----|---|-------|---|-------|---|-----|---|-------|
|-7--5-7-|-8----|---R--|-----|---|-----2-|-1-|-(1)---|---|---2-|-1-|-(1)---|
|--------|----3-|-0----|     |-0-|-(0)---|---|-----1-|-0-|-0---|---|-----1-|
  h. e e   h. q   q h.         w   (h) h   w   (h) h   w   h h   w   (h) h

|---|-------|---|-------|---|-----|---|-------|---|-----------------|
|---|-------|---|-------|---|-----|---|-------|---|-----------------|
|---|-----2-|-1-|-(1)-8-|-7-|---2-|-1-|-(1)---|---|-----5-5-5-5-5-5-|
|-0-|-(0)---|---|-------|---|-0---|---|-----1-|-0-|-(0)-------------|
  w   (h) h   w   (h) h   w   h h   w   (h) h   w   (h) e e e e e e
                                                        [ 3 ] [ 3 ]

|--------------------|-----------------------|---------------------|
|--------------------|-----------------------|---R---------R-------|
|-7---------R-------|---R-------5-5-5-5-5-5-|-7-------------7-7-7-|
|----0-0-0-0---0-0-0-|-0---0-0-0-------------|-----0-0-0-0---------|
  q  e e e e e e e e   e e e e e e e e e e e   e e e e e e e e e e
     [ 3 ]     [ 3 ]       [ 3 ] [ 3 ] [ 3 ]       [ 3 ]     [ 3 ]

|---------------------|---------------------|-----------------------|
|---------------------|---R-----------------|-----------------------|
|-7-7-7-7-5-5-5-5-5-5-|-7-----------R-------|---R-------5-5-5-5-5-5-|
|---------------------|-----0-0-0-0---0-0-0-|-0---0-0-0-------------|
  q e e e e e e e e e   e e e e e e e e e e   e e e e e e e e e e e
    [ 3 ] [ 3 ] [ 3 ]       [ 3 ]     [ 3 ]       [ 3 ] [ 3 ] [ 3 ]

                                                         160 bpm
                                                 240 bpm 2/4 4/4
|---------|-----------|-------------|------------||  13  |----|---|---|
|---------|---9-8-/15-|-14-15-15h17-|-(17)-(17)-||------|----|---|---|
|-------8-|-7---------|-------------|------------||------|--R-|-R-|-R-|
|-0-7-6---|-----------|-------------|------------||      |----|---|---|
  q q q q   q q q  q    q  q     h    (h.) (q)              h   w   w

|---|-------|----|---------------|-----------|------------------|
|---|-R-----|----|---------------|-----------|----5-------------|
|-7-|----5/-|-/7-|-(7)-5h7-5---5-|-7-(7)-5/-|-/7---7-5---------|
|-0-|-------|--0-|-(0)-------7---|-----------|----------7-6-5-3-|
  w   h. q     w   (q.)  q e e e   h.+e e       e e e e e e e e

  fig.1                   end fig.1  3 times  fill 1              end fill 1
||-------------------|--------------||-----------------|-----------------|
||-o-----------------|------------o-||-----------------|-----------------|
||-o-----------------|------------o-||-----------------|-------------5-7-|
||---0-0-0-0-3-0-0-5-|-0-0-0-6--5---||-0-0-0-0-3-0-0-5-|-0-0-0-5-6-7-----|
     e e e e e e e e   e e e q. q      e e e e e e e e   e e e e e e e e

  Verse 1,2              fill 2                     end fill 2
||--                     |-----------------|-----------------|
||-o play fig.1  3 times |-----------------|-----------------|
||-o                     |-----------------|-------5-7-5-----|
||--                     |-0-0-0-0-3-0-0-5-|-0-0-0-------7-5-|
                           e e e e e e e e   e e e e e e e e

                       Pre-chorus                     4 times
                      ||-------------------|--------------||
  play fig.1  4 times ||-o-----------------|------------o-||
                      ||-o---------5-----7-|-------8--7-o-||
                      ||---7-7-7-7---7-7---|-7-7-7--------||
                           e e e e e e e e   e e e q. q

  Chorus
  play fig.1, 1st time play fill 1 , play fig.1  2 times
              2nd time play fill 3

             fill 3
             |-----------------|-----------------|
             |-----------------|-----------------|
             |-----------------|---7-7-7-7-7-7-7-|
             |-0-0-0-0-3-0-0-5-|-0---------------|

|1.                           |2.
                           --||---------|-5-5-5-5-5-5-------|
  play fig.1, play fill 1  o-||---------|-------------------|
                           o-||-7--5--3-|---------------5-6-|
                           --||---------|-------------7-----|
                                q. q. q   e s s e e e e e e

                                                              3 times
|-----------------|------------||-----------|-5-5-5-5-5-5---------||
|-----------------|------------||-o---------|-------------------o-||
|-7---------------|------------||-o-7--5--3-|---------------5-6-o-||
|---0-0-0-3-0-0-5-|-0-0-0-6--5-||-----------|-------------7-------||
  e e e e e e e e   e e e q. q      q. q. q   e s s e e e e e e

                                       192 bpm triplet feel
                                         fig.3
|----------|---------------|-----|-----||---------------------|
|----------|---------------|-----|-----||---7-7-7-7---7-7-7-7-|
|-7--9--10-|-(10)-(10)-3--|-(3)-|-(3)-||-0---------0---------|
|----------|---------------|-----|-----||---------------------|
  q. q. q     e   (e)   h.   (w)   (w)    e e e e e e e e e e
                                              [ 3 ]     [ 3 ]

                                              end fig.3
|---------------|---------------------|---------------|---------------------|
|---7-7-7-7-----|---7-7-7-7---7-7-7-7-|---7-7-7-7-----|---7-7-7-7---7-7-7-7-|
|-0-----------5-|-0---------0---------|-0---------3---|-0---------0---------|
|-----------3---|---------------------|-------------3-|---------------------|
  e e e e e q q   e e e e e e e e e e   e e e e e q q   e e e e e e e e e e
      [ 3 ]           [ 3 ]     [ 3 ]      [ 3 ]           [ 3 ]     [ 3 ]

|---------------|---------------------|--------------------||
|---7-7-7-7-----|---7-7-7-7---7-7-7-7-|---7-7-7-7-7-7-7----||
|-0-----------5-|-0---------0---------|-0---------------7-||
|-----------3---|---------------------|--------------------||
  e e e e e q q   e e e e e e e e e e   e e e e e e e e q
      [ 3 ]           [ 3 ]     [ 3 ]       [ 3 ] [ 3 ]

Bridge 1
   fig.4
||-----------------------|-----------------|---------------------|
||-o---------------------|-----------------|---------------------|
||-o-7---------7---------|-7-----------5---|-7---------7---------|
||-----0-0-0-0---0-0-0-0-|---0-0-0-0-0-----|---0-0-0-0---0-0-0-0-|
     e e e e e e e e e e   e e e e e e e+q   e e e e e e e e e e
         [ 3 ]     [ 3 ]       [ 3 ]             [ 3 ]     [ 3 ]

                        Chorus II
          end fig.4  4 times
|-------------------||                                |--------------------|
|-----------------o-|| play fig.3, fig.3 first 3 bars |---7-7-7-7-7-7-7----|
|-7-----------5-5-o-||                                |-0---------------7-|
|---0-0-0-0-0-------||                                |--------------------|
  e e e e e q q q                                       e e e e e e e e q
      [ 3 ] [ 3 ]                                           [ 3 ] [ 3 ]


Bridge 2  :  play fig.4  4 times, play fig.3  2 times

                 Guitar solo                                  6 times
|---|-----|-----||-----------------------|-----------------------||
|---|-----|-----||-o---------------------|---------------------o-||
|---|-----|---0-||-o-2-2-2-2-2-2-2-2-2-2-|-2-2-2-2-2-2-2-2-2-2-o-||
|-0-|-(0)-|-3---||-----------------------|-----------------------||
  w   (w)   h h      e e e e e e e e e e   e e e e e e e e e e
                         [ 3 ]     [ 3 ]       [ 3 ]     [ 3 ]

                                              2 times
||-----------------------|-----------------------||
||-o---------------------|---------------------o-||
||-o-7---------7---------|-7---------7---------o-||
||-----0-0-0-0---0-0-0-0-|---0-0-0-0---0-0-0-0---||
     e e e e e e e e e e   e e e e e e e e e e
         [ 3 ]     [ 3 ]       [ 3 ]     [ 3 ]

                                              5 times
||-----------------------|-----------------------||---------------------|
||-o---------------------|---------------------o-||---------------------|
||-o-2-2-2-2-2-2-2-2-2-2-|-2-2-2-2-2-2-2-2-2-2-o-||-0-0-0-0-0-0-0-0-0-0-|
||-----------------------|-----------------------||---------------------|
     e e e e e e e e e e   e e e e e e e e e e      e e e e e e e e e e
         [ 3 ]     [ 3 ]       [ 3 ]     [ 3 ]          [ 3 ]     [ 3 ]

|---------------------|---------------------|---------------------|
|---------------------|---------------------|---------------------|
|-0-0-0-0-0-0-0-0-0-0-|---------------------|---------------------|
|---------------------|-1-1-1-1-1-1-1-1-1-1-|-1-1-1-1-1-1-1-1-1-1-|
  e e e e e e e e e e   e e e e e e e e e e   e e e e e e e e e e
      [ 3 ]     [ 3 ]       [ 3 ]     [ 3 ]       [ 3 ]     [ 3 ]

|---------------------|---------------------|---------------------|
|---------------------|---------------------|---------------------|
|-1-1-1-1-1-1-1-1-1-1-|-1-1-1-1-1-1-1-1-1-1-|---------------------|
|---------------------|---------------------|-2-2-2-2-2-2-2-2-2-2-|
  e e e e e e e e e e   e e e e e e e e e e   e e e e e e e e e e
      [ 3 ]     [ 3 ]       [ 3 ]     [ 3 ]       [ 3 ]     [ 3 ]

                                                                  5 times
|---------------------||-----------------------|-----------------------||
|---------------------||-o---------------------|---------------------o-||
|---------------------||-o-2-2-2-2-2-2-2-2-2-2-|-2-2-2-2-2-2-2-2-2-2-o-||
|-2-2-2-2-2-2-2-2-2-2-||-----------------------|-----------------------||
  e e e e e e e e e e      e e e e e e e e e e   e e e e e e e e e e
      [ 3 ]     [ 3 ]          [ 3 ]     [ 3 ]       [ 3 ]     [ 3 ]

|---------------------|---------------------|---------------------|
|---------------------|---------------------|---------------------|
|-7---------7---------|-7---------7---------|-7---------7---------|
|---0-0-0-0---0-0-0-0-|---0-0-0-0---0-0-0-0-|---0-0-0-0---0-0-0-0-|
  e e e e e e e e e e   e e e e e e e e e e   e e e e e e e e e e
      [ 3 ]     [ 3 ]       [ 3 ]     [ 3 ]       [ 3 ]     [ 3 ]

                                                             2 times
|---------------||-----------------------|-----------------------||
|---------------||-o---------------------|---------------------o-||
|-7-------------||-o-2-2-2-2-2-2-2-2-2-2-|-2-2-2-2-2-2-2-2-2-2-o-||
|---0-0-0-0-0-3-||-----------------------|-----------------------||
  e e e e e q h      e e e e e e e e e e   e e e e e e e e e e
      [ 3 ] [3]          [ 3 ]     [ 3 ]       [ 3 ]     [ 3 ]


play fig.3, play fig.3 first 2 bars

|-----------------14-|-14-14-14-14-14-14-14-14-14-12----||
|---7-7-7-7---7-7----|-------------------------------14-||
|-0---------0--------|----------------------------------||
|--------------------|----------------------------------||
  e e e e e e e e e    e  e  e  e  e  e  e  e  e  e  e
      [ 3 ]                  [  3  ]  [  3  ]  [  3  ]

Bridge 3 : play fig.4  4 times, play fig.3  4 times

                                         3 times                      rit.
||-------------------|-----------------------||---------------|-----------||
||-o-----------------|---------------------o-||-------------R-|-----R-----||
||-o-----7p0-5-5-5---|-5-5-5-------5-7p5---o-||-----7p0-5-5---|-5-5---5---||
||---0-0-----------0-|-------0-5h7-------7---||-0-0-----------|---------5-||
     e e e e e e e e   e e e e e e e e e e      e e e e e q e   e q e q q
                               [ 3 ] [ 3 ]

160 bpm, straight eight feel
|------|---|--------|----------------||-------------------|
|------|---|--------|----------------||-o-----------------|
|---R--|-R-|----5h7-|-7-7-7-7-7-7-7-||-o-----------------|
|-0----|---|-0------|----------------||---0-0-0-0-3-0-0-5-|
  q h.   w   h..  e   e e e e e e q       e e e e e e e e

             4 times
|--------------||-------||
|------------o-||-------||
|------------o-||-R-----||
|-0-0-0-6--5---||---3-0-||
  e e e q. q      h q q

Motorbreath
180 bpm                 fig.1
| 3 |-------|-----| 7 ||-----------------------|---------------------|
|---|-R-----|---R-|---||-o---------------------|---------------------|
|---|---0-1-|-2---|---||-o-2-2-2-0-0-2-2-2-0-0-|---------------------|
|   |-------|-----|   ||-----------------------|-3-3-3-2-2-3-3-3-2-2-|
      h q q   q h.         e s e s e e s e s e   e s e s e e s e s e

                                end fig.1   2 times
|---------------------|-----------------------||
|---------------------|---------------------o-||
|-0-0-0-----0-0-0-----|---------------------o-||
|-------3-3-------3-3-|-2-2-2-0-0-2-2-2-0-0---||
  e s e s e e s e s e   e s e s e e s e s e

  Verses 1,2              fill 1                       end fill 1
||--                      |-----------------|-----------------||
||-o  play fig.1  2 times |-----------------|-----------------||
||-o                      |-2--2--0-2--2--0-|-2--2--0-2--2--0-||
||--                      |-----------------|-----------------||
                            e. e. e e. e. e   e. e. e e. e. e

Chorus
 fig.2
|-------------|-------------|-------------|-----------|-------------|
|-------------|-------------|-------------|-----------|-----R-------|
|-2-2-0-----R-|-5-5-2-----R-|-----R-----R-|---------R-|-2-2-------R-|
|-------3-3---|-------2-2---|-3-3---0-0---|-2-2-0-2---|-------3-3---|
  e q e e q e   e q e e q e   e q e e q e   e q e q q   e q e e q e

                                        end fig.2
|-------------|-------------|-------------------|| 8  --||
|-------------|-------------|-------------------||----o-||
|-5-5-2-----R-|-----R-----R-|-----------------R-||----o-||
|-------2-2---|-3-3---0-0---|-2-2-2-2-2-2-0-2---||    --||
  e q e e q e   e q e e q e   s s s s s s e q q

               Guitar solo I
5/4           4/4
|-------------||-------------------------|-----------------------|
|-------------||-o-----------------------|-----------------------|
|-2-2--2--3---||-o-4-4-4-4-4-4-4-4-2-2-4-|-4-4-4-4-4-4-4-4-------|
|-------------||-------------------------|-----------------4-4-4-|
  h e. e. s+q      e s s s s s s e e e e   e s s s s s s e e e e

                        |1.                      |2.
|-----------------------|-----------------------||---------------||
|-----------------------|---------------------o-||---------R-----||
|-4-4-4-4-4-4-4-4-2-2-4-|-4-4-4-4-4-4-4-------o-||-4-4-4-4---4-3-||
|-----------------------|---------------4-4-4---||---------------||
  e s s s s s s e e e e   e s s s s s s q q q      e e s s e q q
                                        [ 3 ]

play fig.1

Verse 3 : play fig.1  2 times, fill 1, fig.2

       Guitar solo II
|-----||-------------------------|-----------------------|
|-----||-o-----------------------|-----------------------|
|-2-3-||-o-4-4-4-4-4-4-4-4-2-2-4-|-4-4-4-4-4-4-4-4-------|
|-----||-------------------------|-----------------4-4-4-|
  h h      e s s s s s s e e e e   e s s s s s s e e e e

                                          6 times
|-----------------------|-----------------------||
|-----------------------|---------------------o-||
|-4-4-4-4-4-4-4-4-2-2-4-|-4-4-4-4-4-4-4-------o-||
|-----------------------|---------------4-4-4---||
  e s s s s s s e e e e   e s s s s s s q q q
                                        [ 3 ]

|--------------|-----||
|--------------|---R-||
|-2-2-2--------|-4---||
|--------2-2-2-|-----||
  q q q  q q q   q h.
  [ 3 ]  [ 3 ]


the people who tabbed the songs;

so what		 eros fratini
creeping death		 eros fratini
sad but true		 john rose
ain't my bitch		 peter klein
hero of the day	 eros fratini
king nothing		 matt hilferty
one			 taz
fuel			 xswinger54
bass guitar doodle	 andrew zara
nothing else matters	 kevin mcdonald
until it sleeps		 travis grady
for whom the bell tolls eros fratini
wherever I may roam	 dorothy st. claire
fade to black		 eros fratini
ride the lightning	 eros fratini
no remorse		 steve gorenberg
hit the lights		 steve gorenberg
the four horsemen	 steve gorenberg
seek & destroy		 steve gorenberg
fight fire with fire	 hamstr
last caress		 eros fratini
master of puppets	 maf
enter sandman		 legend
am I evil?		 Anonomys
motorbreath		 steve gorenberg

the guy who once again put all this shit together
BIG TOMMY P
comments
We did not receive enough feedback on this tab! Please rate:
print report bad tab
1 2 3 4 5
1 comment total.
0 reply
saturns_bassman wrote on June 7 2006, 10:25 pm

nice job of copying and pasteing everything asswhipe

I want to post or [tab]
guest
You may want to rate the tab now too:
select rating
Please do not post tabs as comments. Select "correction" instead!