Oops, an error
Loading. Please wait.

Cunning Stunts Tab

ver1
ver1

Album

Whole song

More versions @911Tabs.com
15,636 views 21 this week
8 commentsread comments
1 2 3 4 5
excellent!
x 11
Autoscroll
+/-
esc
set tempo
stop
Contributor
Hey! There's an official Ultimate Guitar app which is ideal
for learning songs when you're away from computer. Get the app
WARNING: You are trying to view
                                    content from Ultimate-Guitar.com
                                    in an unauthorized application,
                                    which is prohibited.

                                    Please use an official Ultimate
                                    Guitar Tabs application for iPhone,
                                    iPad or Android to access legitimate
                                    chords, guitar, bass, and drum tabs
                                    from Ultimate-Guitar.com database.

                                    Type "ultimate guitar tabs" in Apple
                                    App Store's or Android Market's
                                    search to find the application.
Band- Metallica
Album- Cunning Stunts
Tuning- Standard

1.SO WHAT

Intro
  Q=189
 4/4
  Gtr I
                         PM               PM
  H    Q  E E   Q  E E E E E E   Q  E E E E E E
|-------------|----------------|----------------|
|-------------|----------------|----------------|
|-------------|----------------|----------------|
|---------5s7-|-7--7-7-7---5s7-|-7--7-7-7---5s7-|
|---------5s7-|-7--7-7-7---5s7-|-7--7-7-7---5s7-|
|---------3s5-|-5--5-5-5-0-3s5-|-5--5-5-5-0-3s5-|


    PM      PM                 PM
  E E E E E E E E   Q   E E E  E E E
|-----------------|------------------|
|-----------------|------------------|
|-----------------|------------------|
|-7---5s7-7---5s7-|-7---7-7-7----5s7-|
|-7---5s7-7---5s7-|-7---7-7-7----5s7-|
|-5-0-3s5-5-0-3s5-|-5---5-5-5--0-3s5-|
|
|Gtr II
| W                 H       H
|-----------------|------------------|
|-----------------|------------------|
|-----------------|------------------|
|-----------------|------------------|
|-----------------|------------------|
|-----------------|-x\------x\-------|


  Gtrs I, II
           PM               PM        PM      PM
  Q  E E E E E E   Q  E E E E E E   E E E E E E E E   Q  E E Q  E E
|----------------|----------------|-----------------|----------------||
|----------------|----------------|-----------------|----------------||
|----------------|----------------|-----------------|----------------||
|-7--7-7-7---5s7-|-7--7-7-7---5s7-|-7---5s7-7---5s7-|-7--7-7-7--7-7--||
|-7--7-7-7---5s7-|-7--7-7-7---5s7-|-7---5s7-7---5s7-|-7--7-7-7--7-7--||
|-5--5-5-5-0-3s5-|-5--5-5-5-0-3s5-|-5-0-3s5-5-0-3s5-|-5--5-5-5--5-5--||
|-Rhy Fig 1                                            end Rhy Fig 1-|

   Verse 1 - 4
  $
       PM--------------------------------------------|
    Q  E E E E E E   E E E E E E E E   E E E E E E E E   E E E E E E E E
||-----------------|-----------------|-----------------|-----------------|
||o----------------|-----------------|-----------------|-----------------|
||--7--7-7-7-7-7-7-|-7-7-7-7-7-7-7-7-|-7-7-7-7-7-7-7-7-|-7-7-7-7-7-------|
||--7--7-7-7-7-7-7-|-7-7-7-7-7-7-7-7-|-7-7-7-7-7-7-7-7-|-7-7-7-7-7---5s7-|
||o-5--5-5-5-5-5-5-|-5-5-5-5-5-5-5-5-|-5-5-5-5-5-5-5-5-|-5-5-5-5-5---5s7-|
||-----------------|-----------------|-----------------|-----------0-3s5-|
 |-Rhy Fig 2                                               end Rhy Fig 2-|


Rhy Fig 1

Rhy Fig 2 (1st 2 bars)


 ---------------|
  E E E E E E E E       E      E E E E E E E
|--------------------|-----------------------|
|--------------------|-----------------------|
|-7-7-7-7-7-7-7-7----|--7------7-7-7-7-------|
|-7-7-7-7-7-7-7-7----|--7------7-7-7-7---5s7-|
|-5-5-5-5-5-5-5-5----|--5------5-5-5-5---5s7-|
|--------------------|-----------------0-3s5-|
|
|-substiture 2nd time
|                                PM
| E E E E E E E E      +S  +S  E E E E E Q
|--------------------|-----------------------|
|---------------7b8==|=(7)r(7)---------5-0---|
|-7-7-7-7-7-7---7b8==|=(7)r(7)p5---7---5-0---|
|-7-7-7-7-7-7-0------|-----------7---5---0---|
|-5-5-5-5-5-5-0------|-----------5---5-------|
|--------------------|-----------------------|
|
|-substiture 3rd time
| PM----|               PM         PM
| E E E E E E E E       E      Q   E E E E E
|--------------------|-----------------------|
|---------7-7-7-7----|-----------------------|
|-7-7-7-7-7-7-7-7----|---------5-----5-------|
|-7-7-7-7-7-7-7-7----|---------5-----5-5-5s7-|
|-5-5-5-5-5-5-5-5----|--7----------7-----5s7-|
|--------------------|-------------------3s5-|
|
|-substiture 4th time
| W                    E E E E   +Q      E E
|--------------------|-----------------------|
|--------------------|-------7b8=(7)r\-------|
|--------------------|-5-7-5-7b8=(7)r\-------|
|--------------------|-5-7-5-------------5s7-|
|--------------------|-------------------5s7-|
|--------------------|-------------------3s5-|


Rhy Fig 1 (1st 3 bars)


  Gtr III
  W              H.      +Q     H.             Q      W
|--------------|-1-------(1)S=|=6-------------------|------------------|
|--------------|-1-------(1)S=|=6--------------6\---|------------------|
|--------------|--------------|---------------------|------------------|
|--------------|--------------|---------------------|------------------|
|--------------|--------------|---------------------|------------------|
|--------------|--------------|---------------------|------------------|
|              |-Fill 2                  end Fill 2-|
| Gtrs I, II
|                                                               PM
| Q  E E Q  Q    H.       Q     E  E E E +E  E E  E   E E E E e E E E
|--------------|--------------|---------------------|--------------------|
|--------------|--------------|---------------------|--------------------|
|--------------|--------------|---------------------|--------------------|
|-7--7-7-7--7S=|=3--------3S==|=8--8-8-8-(8)-8-8--8-|-7-7-7-7-7---5s7----|
|-7--7-7-7--7S=|=3--------3S==|=8--8-8-8-(8)-8-8--8-|-7-7-7-7-7---5s7----|
|-5--5-5-5--5S=|=1--------1S==|=6--6-6-6-(6)-6-6--6-|-5-5-5-5-5-0-3s5----|
|-Fill 1     --||-Rhy Fig 3----------------------------------------------|


               |-w/Fill 2
  Q  E E Q  Q    H.       Q     E  E E E +E  E E  E
|--------------|--------------|---------------------|
|--------------|--------------|---------------------|
|--------------|--------------|---------------------|
|-7--7-7-7--7S=|=3--------3S==|=8--8-8-8-(8)-8-8--8-|
|-7--7-7-7--7S=|=3--------3S==|=8--8-8-8-(8)-8-8--8-|
|-5--5-5-5--5S=|=1--------1S==|=6--6-6-6-(6)-6-6--6-|
                                      end Rhy Fig 3-|

                                           To Coda
  Gtrs I, II
  Rhy Fig 1 (1st 3 bars)


  1.,2.             3.
  Gtr III
                         TP TP   TP
  W                 Q  E E +Q   +Q
|----------------||------x-(x)--(x)---||
|---------------o||-------------------||
|----------------||-------------------||
|----------------||-------------------||
|---------------o||-------------------||
|----------------||-------------------||
|
| Gtrs I, II
| Q  E E Q  E E     Q  E E  Q    E  E
|----------------||-------------------||
|---------------o||-------------------||
|----------------||-------------------||
|-7--7-7-7--7-7--||-7--7-7--7----7--7-||
|-7--7-7-7--7-7-o||-7--7-7--7----7--7-||
|-5--5-5-5--5-5--||-5--5-5--5----5--5-||


 Guitar Solo
w/Rhy Fig 2
   Q      E  E  E  E  E E    E  E  E  E  E  E  E  E
|-10-----10-10-10-10-10-7s|=10-10-10-10-10-10-10-10-|
|-10-----10-10-10-10-10-7s|=10-10-10-10-10-10-10-10-|
|-12b14-------------------|-------------------------|
|-------------------------|-------------------------|
|-------------------------|-------------------------|
|-------------------------|-------------------------|


   E      +E    Q    E      +E    E  E        +E    E  E     E  E     E  E       E
|--------------10----------------10--------|-------10-------10-------10-------------|
|-13b15==(13)r-10---13b15==(13)r-10-10-----|-(10)--10-10----10-10----10-------------|
|-12b14==(12)r------12b14==(12)r----12b14==|=(12)r----12b14----12b14----12pb12.5s4--|
|------------------------------------------|----------------------------------------|
|------------------------------------------|----------------------------------------|
|------------------------------------------|----------------------------------------|


w/Rhy Fig 1
  E   +S  S E E E E E E      +Q    a    +E  +E  a    +E  +E  E E
|--------------------------|-------------------------------------|
|---------------5-7-7-7b8==|=(7)r--7b8==(7)r(7)-7b8==(7)r(7)-5---|
|-7b9r(7)p5-5---5-7-7-7b9==|=(7)r--7b9==(7)r(7)-7b9==(7)r(7)-5---|
|-------------7------------|-----------------------------------7-|
|--------------------------|-------------------------------------|
|--------------------------|-------------------------------------|


                                ~~~~~~
  E E    +E   E E E E E   E E E E +Q   E E
|-----------------------|------------------|
|---7b8==(7)r-----5-7p5-|-----7-5-(5)------|
|-5-7b8==(7)rp5---5-7p5-|---5-7-5-(5)--3s8-|
|---------------7-------|-7----------------|
|-----------------------|------------------|
|-----------------------|------------------|


w/Rhy Fig 2
    E  E  E  E  E  E  E  E    S  S  E  E  E  E  E     E  E
|-/10-10-10-10-10-10-10-10-|-------------------------10-10-|
|-/10-10-10-10-10-10-10-10-|-13p10-------------------10-10-|
|--------------------------|-------12-10----10-12b13-------|
|--------------------------|-------------12----------------|
|--------------------------|-------------------------------|
|--------------------------|-------------------------------|


                                                             ~~~~~~~~
   S  S  E  E  E  S  S  S  S  E  E    E  E  S      +E.    E  E  +Q
|----------------------------------|-----------------------------------|
|-13p10----10-13-10h13p10----------|-----------------------------------|
|-------12----------------12-10----|-10-12-12pb14r(12)---10------------|
|-------------------------------12-|------------------------12-(12)\---|
|----------------------------------|-----------------------------------|
|----------------------------------|-----------------------------------|

w/Rhy Fig 1 (1st 3 bars)
                    ~~             ~~~~~~
  Q     +E  +S  S E Q.       E E E E +Q    E E
|--------------------------|-------------------|
|--------------------------|-5-----------------|
|-7b9===(7)r(7)-5-5--------|-5-----------------|
|-------------------7------|---7-5-7-(7)---7-7-|
|--------------------------|-------------------|
|--------------------------|-------------------|

                          |-w/Fill 1
  E E E E    +E   E S S E   E E E E +E  +E   E  E
|-----------------5-------|------------------------|
|-5-----------------8p5---|------------------------|
|-5---5-7b8==(7)r-------7-|-5---5--------------17--|
|---7---------------------|---7---7-(7)-(7)s19-----|
|-------------------------|------------------------|
|-------------------------|------------------------|


w/Rhy Fig 3
                  ~~~~~~~
   E      +E   E  E  +E   E  E  E
|---------------------------------|
|---------------------------------|
|-19pb21r(19)-17------------17-19-|
|----------------19-(19)-19-------|
|---------------------------------|
|---------------------------------|


                  ~~~~~~~
   E      +E   E  E  +E   E  E  S  S    S  S  E  E  E  E  E  E  E
|---------------------------17-20p17-|-20p17--------------------------|
|----------------20-(20)-20----------|-------20-17--------------------|
|-19pb21r(19)-17---------------------|-------------19-17----17-19b21==|
|------------------------------------|-------------------19-----------|
|------------------------------------|--------------------------------|
|------------------------------------|--------------------------------|


                        ~~~~~                    ~~~~~~~
   +E   E  E  +E       +H          E     +E   E  E  +E   E  E  E
|-------------------------------|--------------------------------|
|------20-----------------------|--------------------------------|
|-(19)----19r(19)b21==(19)r-----|-19b21r(19)-17------------17-19-|
|-------------------------------|---------------19-(19)-19-------|
|-------------------------------|--------------------------------|
|-------------------------------|--------------------------------|


                  ~~~~~~~
   E      +E   E  E  +E   E  E  E
|---------------------------------|
|----------------20-(20)-20-17----|
|-19pb21r(19)-17---------------19-|
|---------------------------------|
|---------------------------------|
|---------------------------------|

w/Rhy Fig 1
   Q      Q        +E    Q.          Q.       E      +Q      Q
|---------------------------------|---------------------------------|
|--------19b20====(19)r-19b20-----|-19b20----19b20==(19)r---19b20---|
|-19b21--19b21====(19)r-19b21-----|-19b21----19b21==(19)r---19b21---|
|---------------------------------|---------------------------------|
|---------------------------------|---------------------------------|
|---------------------------------|---------------------------------|


                                               ~~~
   E  E  E  E  E  E  E  E    S  S  E  E  E  a  Q.     +E     D.S. al Coda
|-------------------------|---------------------------------||
|-------------17----17----|---------------------------------||
|-17----------17----17-19-|-20p17----17---------------------||
|----19-17-19----19-------|-------19----19-17h19-----(19)\--||
|-------------------------|---------------------------------||
|-------------------------|---------------------------------||


 Outro
  &
    PM                                  ~~~
  E E E E H      +W           +H.      +Q
|--------------:------------:---------------:
|--------------:------------:---------------:
|--------------:------------:---------------:
|-7---5s7-7----:-(7)--------:-(7)------(7)--:
|-7---5s7-7----:-(7)--------:-(7)------(7)--:
|-5-0-3s5-5----:-(5)--------:-(5)------(5)--:


   ~~~~~~~~~~~~
  +H.      +E  S S   H     H
|------------------|------------*|
|------------------|------------*|
|------------------|------------*|
|-(7)------(7)-7-7-|-7\---------*|
|-(7)------(7)-7-7-|-7\---------*|
|-(5)------(5)-5-5-|-5\---------*|

2.CREEPING DEATH

E------------------------------------------------------|
B------------------------------------------------------|
G------------------------------------------------------|
D------------9------------9\7             -------------|
A------------7------------7\5 4times then --7--5--4--2-|
E--0-0-0-0-0----0-0-0-0-0----             --5--3--2--0-|
  pm........    .........                   ..........
the last two times the second guitar does this
D-------------9------------9\7-|
A------------10-----------10\9-|
E--0-0-0-0-0----0-0-0-0-0------|

                                   You do this right before the verse
D------2---2--2---2---2h3p2h3p2p0   -5-7-5-|
A------2---2--2---2---2h3p2h3p2p0   -3-5-3-|
E--0-0---0------0---0------------   -------|
  pm....................
           this is the pre chours and is done during the second intro
D----------------------------------------|
A--------5--------5----------------------|
E--0--0--3--0--0--3--0--0--2-2-2-2-2-2-2-|
 pm....     ....     ...................
chours
D--2-  --5-7--  -10-9-  --5-7--  -10-12-9---  -5-7-  -10-9-  -5-7--------
A--2-  --3-5-  --8--7-  --3-5-  --8--10-7--  --3-5-  -8--7-  -3-5---5-7-5
E--0-  -------  ------- --------   ---------  ------  ------  ------3-5-3

Then the repeat the hole song except for the main intro
Now the kickass yet some what cmplicated solo

e--------------------------------------|----------------------19h20h22--|
b--12-13-15-17p15-13-14-15-17-19p17-15-|-15-17-19-17-19-20-22-----------|
g--------------------------------------|--------------------------------|
d--------------------------------------|--------------------------------|

E--22b24----22b24----22b24----|--22b24--r22----22b24-r23-b24--22--19--|
B-----------------------------|---------------------------------------|
G-----------------------------|---------------------------------------|

E--22--20--19-\17--21--19--17-\15--19--17--15-\14--17--15--14-\12--|
B------------------------------------------------------------------|
G------------------------------------------------------------------|

E--15p14--------------------------------------------------|
B---------17p15--15p14p12h14--12-\10--10------------------|
G------------------------------------------12b14-r13-b14--|
D---------------------------------------------------------|

E-----------------------------------------|-----------------------------------|
B--------10--15------15---12--------------|-----------------------------------|
G--(14)------14b16---14---12------12--14--|--14b16--r14--12b13--------12--14b-|
D-----------------------------14----------|-----------------------14----------|
A-----------------------------------------|-----------------------------------|

E--------------------------------------------------------|
B--------12--15p12--15p12--------------12--15p12--15p12--|
G--b16---------------------14b16-(16)--------------------|
D---------------------------------*----------------------|
 * : hold bend and strike note
E------------------------------------------12-|-15p12----12----------------------14-|
B---------12--15p12--15p12--15b17----(17)-----|-------15----15-12-15p12----12-------|
G--14b16------------------------------*-------|-------------------------14----14----|
D---------------------------------------------|-------------------------------------|

E-17p15-14-15p14----14-------12-------|-------------------------------------|
B----------------17----17p15----15p14-|-15p14-12-14-12----------------------|
G-------------------------------------|----------------14--12------12--14-/-|
D-------------------------------------|------------------------14-----------|
                                  Sweep picking
E----------17--19-/22-~-~-22-~-~-|---------12--17p12-----------------12--17p12-------|
B------18------------------------|-----13-------------13---------13------------13----|
G-/19----------------------------|-14---------------------14-14-------------------14-|
D--------------------------------|---------------------------------------------------|

E----------12--17p12-------------------12--17p12------|
B------13-------------13-----------13-------------13--|
G--14--------------------14-14-14---------------------|
D-----------------------------------------------------|

E--12h15p12---------------------------------|----------------------------------------|
B-----------15---12----12-15p12-------------|--15------15------15-------------(15)\--|
G-------------------14----------14-12----12-|--14b16---14b16---14b16-r14-b16--(14)\--|
D-------------------------------------14----|----------------------------------------|

D---------------------------------|----------------------------------------------|
A--7--7-7-8-8-8-8-9-9-9-9-9-9-9-9-|-10-9-10-9-10-9-11-10-12-11-12-11-12-11-13-12-|
E---------------------------------|----------------------------------------------|

G-------------------------------------------------|
D----------------------------------------------11-|
A-14-13-14-13-14-14-15-15-14-14-15-14-14-14-15----|
E-------------------------------------------------|

E----------------------------------------------------------|
B---------------------------------------------------12/14--|
G-11-12-11-12-11-12-12-12-12-13-12-13-15-15---15-15--------|
D----------------------------------------------------------|

E-------------------------------------14-|-17p14-------------------------------------|
B-------------------14-17-14----14-17----|-------17-14-----14---17p14----------------|
G--17--14--13-14-16----------16----------|-------------16--------------16-14------14-|
D----------------------------------------|------------------------------------16-----|

E-------------------------------------|------------------------------------|
B-------------------------------------|------------------------------------|
G-16p14----14-------------------------|------------------------------------|
D-------16----16p14-16p14----14-------|----------------------------12--12--|
A-------------------------16----16-14-|-16p14-12-14p12-----12--14----------|
E-------------------------------------|----------------14------------------|

E-------------------------|------------------------------|--------------------------|
B-------------------------|------------------------------|--------------------------|
G-------------11--12--14--|--(14)----12----12-h-14-p-12--|--------------11--12--14--|
D--14------14-------------|------------------------------|--12------14--------------|
A-------------------------|------------------------------|--------------------------|
E-------------------------|------------------------------|--------------------------|

E----------------------------|--12--------12-/14--15--17--|
B----------12----13----15----|----------------------------|
G--(14)----------------------|----------------------------|
D----------------------------|----------------------------|

E--(17)--15---14----------|--/17------17--19----20--|--(20)--19--17---15-14h15--|
B-------------------17----|---//--------------------|---------------------------|
G-------------------------|-------------------------|---------------------------|

E-15p14p12-15p14p12-15p14p12-15p14p12-|-15p14p12-15p14p12-15p14p12-15-12/14-|
B-------------------------------------|-------------------------------------|
G-------------------------------------|-------------------------------------|

E-17p15p14-17p15p14-17p15p14-17p15p14-|-17p15p14-17p15p14-17p15p14-17-15-15-|
B-------------------------------------|-------------------------------------|
G-------------------------------------|-------------------------------------|


E-19p17p15-19p17p15-19p17p15-19-15-16-|-20p19p17-20p19p17-22p20p19-22p20p19-|
B-------------------------------------|-------------------------------------|
G-------------------------------------|-------------------------------------|

E--22b24----22b24----|--22b24----22b24--22b24-~-|------------|
B--------------------|--------------------------|------------|
G--------------------|--------------------------|------------|
D--------------------|--------------------------|--14-\-\-\--|
A--------------------|--------------------------|--14-\-\-\--|
E--------------------|--------------------------|--12-\-\-\--|
bridge
D--9---------10-7-9---------12-10-9---------10-7-9-|
A--7---------8--5-7---------10-8--7---------8--5-7-|
E----0-0-0-0--------0-0-0-0---------0-0-0-0--------|
    pm......        .......         .......

first you do the the verse riff then this little solo thing
gtr.1
e--------------------------------------------|
B--15-13-12---12----13---15-13-12---12----13-|
G----------------14--------------------14----|
D--------------------------------------------|
Gtr.2
e-----------------------------------|
B--10-8-7---7---8---10-8-7---7---8--|
G-------------9----------------9----|
D-----------------------------------|
Then  the last verse and so on then an outro

Gtr.3
D---9-7-5-4---5-4-2-5---9-7-5-4---5-4-2-5-|
A---7-5-3-2---3-2-0-3---7-5-3-2---3-2-0-3-|
E-----------------------------------------|
Gtr.2
E-------------------------------------------------------------------------|
B�17-15-13-12�-13-12-10-13---17-15-13-12---13-12-10-13------|
G-------------------------------------------------------------------------|
Gtr.1
E------------------------------------------------------------|
B------------------------------------------------------------|
G-19-17-15-14---15-14-12-15----19-17-15-14---15-14-12-15-----|
Then gtr.3 stops and does this
e-----------------------------|       (8 times)
B----19p16p0------------------|

e----------------------------|       (8 times)
B----20p17p0-----------------|
And this all ends with a slide like from the solo to the bidge
And this little outro thing

 E-------------|-------------|-14h15--14----|-------------|----------|----|
 B-------------|-------16-17-|-----------17-|-16----------|----------|----|
 G----------14-|-16-17-------|--------------|----17-16-14-|----------|----|
 D-14-16-17----|-------------|--------------|-------------|-17p16p14-|-14-|
 A-------------|-------------|--------------|-------------|----------|----|
 E-------------|-------------|--------------|-------------|----------|----|
   Oh yeah, and its all tremelo picked

3.SAD BUT RUE

FIG 1                                 END FIG 1
|-------------|---------|---------------|-------------------------------------|
|-------------|---------|---------------|-------------------------------------|
|-2---2--2--2-|--3---3--|--2------------|-------------------------------------|
|-2---2--2--2-|--3---3--|--2---/7--6--5-|--3H5P3H5P3H5P3H5P3H5P3H5P3H5P3H5P3H5|
|-0---0--0--0-|--1---1--|--0------------|-------------------------------------|
|-------------|---------|---------------|-------------------------------------|

---------------------------------------------
PLAY FIG 1.
---------------------------------------------


FIG 2
|-----------------------------|
|-----------------------------|
|-----------------------------|
|--2----2--2------------------|
|--2----2--2--5P0--1P0--------|
|--0----0--0-------------3P0--|


|-----------------------|
|-----------------------|
|-----------------------|
|-2----2--2-------------|
|-2----2--2----5P0-5-5--|
|-0----0--0-------------|

VERSES 1,2 AND 3
|------------------------|-----------------------|
|------------------------|-----------------------|
|------------------------|--------------3--------|X 4 EACH TIME
|-2--2--2-2-2--0---2--2--|-2--2--2-2-2--3--2--2--|
|-2--2--2-2-2--0---2--2--|-2--2--2-2-2--1--2--2--|
|-0--0--0-0-0------0--0--|-0--0--0-0-0-----0--0--|


CHOURS
|---------------------------|--------------------------------|
|---------------------------|--------------------------------|
|---------------------------|--------------------------------|
|------3-3-0--3--2----------|------3---3--0------------------|
|------3-3-0--3--2----------|------3---3--0-----7---7--7--7--|
|-0-0---------------0--0--0-|-0-0------------0--5---5--5--5--|


|--------------------------------------|
|--------------------------------------|
|--------------------------------------|
|--------------------------------------|
|--7---7---8---8--5---7---5---5--5--5--|
|--5---5---6---6--3---5---3---3--3--3--|


|-------------------------------------|
|-------------------------------------|
|-------------------------------------|X 2
|---------5---5---5---5---------------|
|--5---5--3---3---3---3------3--3-----|
|--3---3-----------------0---1--1--0--|


REPEAT FIG 2 FIVE TIMES.THEN

|-----------------------|-----------------------------|
|-----------------------|-----------------------------|
|-----------------------|-----------------------------|
|-----------------------|-----------------------------|
|--2---2--2--5P0--5--5--|--2---2--2--------0H1P0------|
|--0---0--0-------------|--0---0--0--0--3----------3--|


|-------------------------|------------------------|-----------------------|
|-------------------------|------------------------|-----------------------|
|-------------------------|------------------------|-----------------------|
|--/7--6--5--2 ~~~~~~~~~~-|--/7--6--5--3 ~~~~~~~~~-|--/7--6--5--2 ~~~~~~~~-|
|-------------------------|------------------------|-----------------------|
|-------------------------|------------------------|-----------------------|


|------------------------|---------------------|---------------------------|
|---------------5--4--3--|------------5--4--3--|---------------------------|
|------------------------|--2------------------|--3---------------------2--|
|--/7--6--5--4-----------|---------------------|----------2--3-5-3-5-3-----|
|------------------------|---------------------|---------------------------|
|------------------------|---------------------|---------------------------|


|------------------|
|------------------|
|------------------|
|-2--3-5-3-5-2--3--|
|---------------1--|
|------------------|


solo 1

|-------------------------------------------------------------------|
|-2/12----------------------------------------------12--12--12------|
|-3/13----------------------------------------------12--12--12------|
|-----------------------------------14\-----12--14------------------|
|-------------------------------------------------------------------|
|-------------------------------------------------------------------|

|----------------------------------------------------------------|
|----------------12----------------------------------------------|
|----------------12----------------------------------------------|
|14------------------14--12------14-12-----------\-------12--14--|
|----------------------------14--**------------------14----------|
|----------------------------------------------------------------|

|----------------------------------------------------------------|
|12--------------------------------------------------------------|
|12------------------------------9p7p6---------------------------|
|----14--12------14----------------------9---7---9-----------\---|
|------------14--**------------------------------**--------------|
|----------------------------------------------------------------|

|----------------------------------------------------------------|
|----------------------------------------------------------------|
|4-h-5p4-----4---------------------------------------------------|
|--------7-------7---5---4-----------------------9---s---5---s---|
|----------------------------5---7-------------------------------|
|--------------------------------**------------------------------|

|--------------------------------------------------------------------------|
|----12--15p12-15p12----12 12-15p12----12h15p12--12h15p12------------------|
|14^-----------------14^-----------14^---------14--------14-12-------------|
|--------------------------------------------------------------14--14------|
|--------------------------------------------------------------------------|
|--------------------------------------------------------------------------|

|----------------------------------------------------------------|
|--------12------------------------------------------------------|
|--------12------14--12------------------------------------------|
|12-h14------14----------14--12----------------------------------|
|--------------------------------14--12-s10--12--10--------------|
|----------------------------------------------------------------|

|----------------------------------------------------------------|
|14^-r---14^-r-------------------14^-r-----------12--------------|
|14^-r---14^-r---14^r12--12--14--14^-r---12------12----------12--|
|----------------------14--------------------14----------14------|
|----------------------------------------------------------------|
|----------------------------------------------------------------|

|----------------------------------------------------------------|
|14^-r---12--14^-r---12--14^-r---12--14^-r-----------------------|
|14^-r---12--14^-r---12--14^-r---12--14^-r---12--14^-------------|
|------------------------------------------------------------12--|
|----------------------------------------------------------------|
|----------------------------------------------------------------|


|------------------------------------------------------------------------|
|------------------------------------------------12-12-13-12-13-15-15-15-|
|---------------------------12----12-14-12-14-14^------------------------|
|---------12----12-14-12-14----14----------------------------------------|
|14-12-14----14----------------------------------------------------------|
|------------------------------------------------------------------------|


|--12h15p12--12--12-12-15p12-12-12-12-12-12-15p12--------------------------|
|--------15-------------------------------------15p13--13-15p13----13--15--|
|----------------------------------------------------14--------14----------|
|--------------------------------------------------------------------------|
|--------------------------------------------------------------------------|
|--------------------------------------------------------------------------|

|-15------15----------|
|-15^-----15^---------|
|---------------------|
|---------------------|
|---------------------|
|---------------------|


solo 2

|----------------------------------------------------------------|
|----------------------------------------------------------------|
|----------------------------------------------------------------|
|2-------2-p-0---2-------2-p-0---2-------------------------------|
|----------------------------------------------------------------|
|----------------------------------------------------------------|


|-------0------------0-------------------------------------------|
|-----------3^-----------3---0-----------------------------------|
|2^------------------------------2^rp0---------------------------|
|----------------------------------------2-----------------------|
|----------------------------------------------------------------|
|----------------------------------------------------------------|

|----------------------------------------------------------------|
|----------------------------------------------------------------|
|4^------4^------4^------4^------4^--------------0---------------|
|-----Semi - harmonics-------------------------------2-----------|
|----------------------------------------------------------------|
|----------------------------------------------------------------|


|----------------------------------------------------------------|
|--------12--12--x---12--12------12--12--12--12--x---12--12--12--|
|--------12--12--x---12--12------12--12--12--12--x---12--12--12--|
|-/14------------------------14----------------------------------|
|----------------------------------------------------------------|
|----------------------------------------------------------------|


|--------12----------12------12----------------------------------|
|----12------15^---------15^-----15^-\---------------------------|
|14^-------------------------------------------------------------|
|----------------------------------------------------------------|
|----------------------------------------------------------------|
|----------------------------------------------------------------|

4.AIN'T MY BITCH

INTRO AND VERSE)
  N.C                                              G
E -X------------X-------------X---------------------------------------------|
B -X------------X-------------X---------------------------------------------|
G -X------------X-------------X---------------------------------------------|
D -X------------X-------5b6---X--------------------5------------------------|
A -X--5-7-7-7-7-X-5-7-7-----7-X-5-7-7-7--7-7-7-----5------------------------|
E -X--0-0-0-0-0-X-0-0-0-----0-X-0-0-0-0--0-0-0-----3------------------------|
   Outta My Way   Outta My Day  Outta........ Etc...

(FILL1)
  N.C    N.C     3x's
E -----|-------------------|-------|
B -----|-------------------|-------|
G -----|-5---7---5b6-------|-5---5-|
D -5-7-|---7---7-----7-5-7-|---7---|
A -----|-------------------|-------|
E -----|-------------------|-------|

(FILL1)
  N.C    N.C     3x's
E -------|----------------------------|----------|
B -------|----------------------------|----------|
G -------|-12----14----12b13----------|-12----12-|
D -12-14-|----14----14-------14-12-14-|----14----|
A -------|----------------------------|----------|
E -------|----------------------------|----------|

(CHORUS)
   B5       A5       G5         F#5 F5 Em5
E ----0--------0--------0-----|-----------|
B ------0--------0--------0---|-----------|
G -4--------2-----------------|-----------|
D -4--------2--------5--------|--4--3--2--|
A -2--------0--------5--------|--4--3--2--|
E -------------------3--------|--2--1--0--|

5.KING NOTHING

Intro

Fill 1 (Gtr. 1) Fade in     Use Distortion and *Octaver
									end Fill 1
1|-----------------------------|----------------------------|
2|-17~~~~-17~~~~-17~~~~-17~~~~-|----------------------------|
3|-----------------------------|--------*--/----------------| Play 5x
4|-----------------------------|----------/-----------------|
5|-----------------------------|---------/--*---------------|
6|-----------------------------|----------------------------|

*Octaver doubles an octave below

w/Fill 1 (5x)
									 Full
1|-----------------------------|----------------------------|
2|-----------------------------|------------------------15b-|
3|-----------------------------|------------------------14b-|
4|-----------------------------|----------------------------|
5|-----------------------------|----------------------------|
6|-----------------------------|----------------------------|

		Full
1|-----------------------------|----------------------------|
2|r15--------15b---------------|----------------------------|
3|r14--------14b---------------|----------------------------|
4|-----------------------------|----------------------------|
5|-----------------------------|-----------------------X--X-|
6|-----------------------------|-----------------------X--X-|

						    Full    Full
1|-----------------------------|----------------------------|
2|-----------------------------|----------------------------|
3|-----------------------------|----------------------------|
4|-----------------------------|---------7B----(7)b---------|
5|-7/--------------------------|----------------------------|
6|-7/--------------------------|----------------------------|

     Release bend to 1/2
1|-----------------------------|----------------------------|
2|-----------------------------|----------------------------|
3|-----------------------------|----------------------------|
4|--(7)---------------(7)\-----|----------------------------|
5|-----------------------------|----------------------------|
6|-----------------------------|----------------------------|

			1/4			 1/4	  |-Let Ring-|
1|-----------------------------|----------------------------|
2|-----------------------------|----------------------------|
3|-----------------------------|----------------------------|
4|----------------5b-----------|------5b-------8---7--------|
5|--5--6--7---/7-----7---------|---/7----7\-----------------|
6|--0--0--0--0-----------------|-0----------/6---5----------|

Rhy. Fig. 1 (w/Fill 1)

			  1/4			 1/4	  |-Let Ring-| (end fig.1)
1|-----------------------------|----------------------------|
2|-----------------------------|----------------------------|
3|*----------------------------|---------------------------*| Play 3x
4|*------------------5b--------|------5b-------8---7-------*|
5|-----5--6--7---/7-----7------|---/7----7\-----------------|
6|-0---0--0--0--0--------------|-0----------/6---5----------|

			  1/4 		 1/4    |-Let Ring-|
1|-----------------------------|----------------------------|
2|-----------------------------|----------------------------|
3|*----------------------------|---------------------------*| Play 3x
4|*------------------5b--------|------5b-------8---7-------*|
5|-----5--6--7---/7-----7------|---/7----7\-----------------|
6|-0---0--0--0--0--------------|-0----------/6---5----------|

(w/Rhy. Fig. 1)
	  1/4		     1/4
1|-----------------------------|----------------------------------|
2|-12--12b--------12--12b------|----------------------------------|
3|-12--12b--------12--12b------|----1214p12--1214p12--1214p12-----|
4|---------14~~~----------14~~~|(14)-------14-------14-------14---|
5|-----------------------------|----------------------------------|
6|-----------------------------|----------------------------------|

Rhy. Fig. 2

1|-----------------------------|----------------------------|
2|-----------------------------|----------------------------|
3|*----------------------------|--------*--/----------------|
4|*----------------------------|----------/-----------------|
5|--X--2--5--2------8--7-------|---------/--*---------------|
6|--X--0--3--0--/6--6--5--0----|----------------------------|
 Wish I may, Wish I might, have this wish I wish tonight
					  				end rhy fig 2
1|-----------------------------|----------------------------|
2|-----------------------------|----------------------------|
3|-----------------------------|----------------------------|
4|-----------------------------|----------------------------|
5|--X--2--5--2------8--7-------|--X--2--5--2------8--7--5---|
6|--X--0--3--0--/6--6--5--0----|--X--0--3--0--/6--6--5--3---|
			Are you satisfied?
*=Gtr 1 subtitute Rhy. Fill 1 (see end of tab)

w/Rhy. Fig. 2
	   1/4				   1/4
1|-----------------------------|----------------------------|
2|-----------------------------|----------------------------|
3|-9\---------------------9----|-9\---------------------9---|
4|-----------------------------|----------------------------|
5|-7\-----------/8--8--7--7----|-7\-----------/8--8--7--7---|
6|----0--3b--0--/6--6--5-------|----0--3b--0--/6--6--5------|
Dig for gold, dig for fame.	  You dig to make your name.
						   1/4
1|-----------------------------|----------------------------|
2|-----------------------------|----------------------------|
3|----------*--/---------------|-9\-------------------------|
4|------------/----------------|----------------------------|
5|-----------/--*--------------|-7\-----------/8--8--7--5---|
6|-----------------------------|----0--3b--0--/6--6--5--3---|
                          Are you pacified?

Half Time feel
Pre-Chorus
Rhy Fig 3
									end Rhy fig 3
1|-----------------------------|----------------------------|
2|-----------------------------|----------------------------|
3|-----------5~~~--------------|----------------------------|
4|----/7--7--------7--7--5-----|-(5)--7---------------------|
5|-0------------------0--0-----|-(0)--0-----6---------------|
6|-----------------------------|---------0--6---------------|
                   All the want you waste.

Rhy Fill 2 (w/Rhy Fig 3)
				 Full			  1/2		   */*
1|-----------------------------|----------------------------|
2|-----------------------------|----------------------------|
3|-----------5~~~--7--5--7b----|-(7)--5--7--7b~~~-----------|
4|----/7--7--------------------|----------------------------|
5|-0---------------------------|----------------------------|
6|-----------------------------|----------------------12\---|
			All yhe things you've changed.
Chorus  (end Half time feel)

1|-----------------------------|----------------------------|
2|-----------------------------|----------------------------|
3|-----------------------------|-9--9--9--9--9--9--9--9-----|
4|-----------------------------|----------------------------|
5|-----------------------------|-7--7--7--7--7--7--7--7-----|
6|-0----0--0--0--0--0--0-------|-0--0--0--0--0--0--0--0-----|
       Then it all crashes down        and you break your crown

1|-----------------------------|----------------------------|
2|-----------------------------|----------------------------|
3|-9--9--9--9--9--9--9--9------|-9--9--9--9--9--9--9--9-----|
4|-----------------------------|----------------------------|
5|-7--7--7--7--7--7--7--7------|-7--7--7--7--7--7--7--7-----|
6|-0--0--0--0--0--0--0--0------|-0--0--0--0--0--0--0--0-----|
		and you point your finger but there's no one around

1|-----------------------------|----------------------------|
2|-----------------------------|----------------------------|
3|-9--9--9--9--9--9--9--9------|-9--9--9--9--9--9--9--9-----|
4|-----------------------------|----------------------------|
5|-7--7--7--7--7--7--7--7------|-7--7--7--7--7--7--7--7-----|
6|-0--0--0--0--0--0--0--0------|-0--0--0--0--0--0--0--0-----|
	Just want one thing.		Just to play the king

                      |-P.M.----------------------------------|         To Coda
1|-----------------------------|------------------------------|
2|-----------------------------|------------------------------|
3|-9--9--9--9--9--9--9--9------|------------------------------|
4|-----------------------------|------------------------------|
5|-7--7--7--7--7--7--7--7------|-1--1--1--1--1--1--1--1-------|
6|-0--0--0--0--0--0--0--0------|-1--1--1--1--1--1--1--1-------|
	But the castle crumbled and your left with just a
/-------------------------------------------------------------
|1.
   Full  Full  Full  		  w/ Rhy fig 1 (4x)
1|-13----13----13--------------|----------------------------|
2|-16b---16b---16b-----16\-----|----------------------------|
3|-----------------------------|----------------------------|
4|-----------------------------|----------------------------|
5|-----------------------------|----------------------------|
6|-----------------------------|----------------------------|
	name.   Where's your crown,   King Nothing?
--------------------------------------------------------------

1|-----------------------------|----------------------------|
2|-----------------------------|----------------------------|
3|-----------------------------|----------------------------|
4|-----------------------------|----------------------------|
5|-----------------------------|----------------------------|
6|-----------------------------|----------------------------|

--------------------------------------------------------------
						  1/4   1/4
1|-----------------------------|----------------------------|
2|-----------------------------|-12-12b----12b--------------|
3|-----------------------------|-12-12b----12b--------------|
4|-----------------------------|--------14-----14-----------|
5|-----------------------------|----------------------------|
6|-----------------------------|----------------------------|
				Where's your crown?
--------------------------------------------------------------

1|-----------------------------|----------------------------|
2|-----------------------------|-12--12----12--12-----12----|
3|-1214p12---1214p12--1214p12--|-12--12----12--12-----12----|
4|--------14--------14-------14|--------14--------14--------|
5|-----------------------------|----------------------------|
6|-----------------------------|----------------------------|

--------------------------------\
   Full/1/2            Full/1/2 |
1|------------------------------|
2|-14b-----12--14--14--14b--14\-|
3|-14b-----12--14--14--14b--14\*|
4|-----------------------------*|
5|------------------------------|
6|------------------------------|

|--------------------------------
|2.
   Full Full Full
1|-13b--13b--13b---------------|
2|-16b--16b--16b----16\--------|
3|-----------------------------|
4|-----------------------------|
5|-----------------------------|
6|-----------------------------|
	name.    Where's your crown, King
Guitar Solo
w/Rhy Fig 1 (4x)
with wah as filter and octaver

    Full				   Full
1|-12--------------------------|----------------------------|
2|-15b-------------------------|-11-------------------------|
3|-----------------------------|-13b------------------------|
4|-----------------------------|----------------------------|
5|-----------------------------|----------------------------|
6|-----------------------------|----------------------------|
		Nothing?						You're
   Full            Full  Full
1|-12--------------14----15----|----------------------------|
2|-15b-------------17b---18b---|--(18)\---------------/14---|
3|-----------------------------|----------------------------|
4|-----------------------------|----------------------------|
5|-----------------------------|----------------------------|
6|-----------------------------|----------------------------|
    nothing					Come on, where's your crown?
				     Full				     Full
1|-12-0-14-0-15-0-14-0----12-12-|-12-0-14-0-15-0-14-0---12-12-|
2|---------------------15----15b|---------------------15---15b|
3|------------------------------|-----------------------------|
4|------------------------------|-----------------------------|
5|------------------------------|-----------------------------|
6|------------------------------|-----------------------------|

	    Full        Full					    Full
1|15p12-0-12--15p12-0-12-------|12-0-14-0-15-0-14-0----12-12-|
2|--------15b---------15b------|--------------------15----15b|
3|-----------------------------|-----------------------------|
4|-----------------------------|-----------------------------|
5|-----------------------------|-----------------------------|
6|-----------------------------|-----------------------------|

w/Rhy Fig 3 (1.5x)

1|-17--17--17--20----------17--|----------------------------|
2|-----------------20--20------|-17--17--20-----------------|
3|-----------------------------|-------------19--19--19-----|
4|-----------------------------|----------------------------|
5|-----------------------------|----------------------------|
6|-----------------------------|----------------------------|

Gtr 1 substitute Rhy Fill 2     w/Rhy. Fill 3 (see end of tab)
						     Full     Full
1|-17--17--17--20---------17---|----------------------------|
2|-----------------20--20------|-17------17-------17--------|
3|-----------------------------|---------19b------19b-------|
4|-----------------------------|----------------------------|
5|-----------------------------|----------------------------|
6|-----------------------------|----------------------------|
								Huh!
w/Rhy Fig 2
   Full Full         Full         Full
1|----------12-----------12-----------12-------|
2|-15b--15b----15p12-15b----15p12-15b----15p12-|
3|---------------------------------------------|
4|---------------------------------------------|
5|---------------------------------------------|
6|---------------------------------------------|

   Full
1|----------------------------------------------------------|
2|-----12-15p12----12h15p12----12---------------------------|
3|-14b----------14----------14----14-14p12----12h14-12~~~\--|
4|-----------------------------------------14---------------|
5|----------------------------------------------------------|
6|----------------------------------------------------------|

1|-----------------------------|
2|-12----14-14--15--14---------|
3|-12----14-14--15--14---------|
4|-----------------------------|
5|-----------------------------|
6|-----------------------------|

   Full                           Full
1|-12--12-15p12----12-15p12--------------------------------------------|
2|-15b----------15----------15p12-----12h15p12-------------------------|
3|--------------------------------14b----------14p12----12h14p12-14-12-|
4|---------------------------------------------------14----------------|
5|---------------------------------------------------------------------|
6|---------------------------------------------------------------------|

    1/2    1/2     1/2     1/2     w/Fill 1 & Rhy Fill 4 (see end of tab)
1|--------------------------------|-------------------------|
2|--------------------------------|-------------------------|
3|-14b-14--14b-14--14b-14--14b-12-|-------------------------|
4|--------------------------------|-14~~~~~~~~~~~~~~~~~~~~~-|
5|--------------------------------|-------------------------|
6|--------------------------------|-------------------------|

1|-----------------------------|-12-------------------12\---|
2|------------------------12---|-12-------------------12\---|
3|------------------------12---|----------------------------|
4|-(14)~~~~~~~~~~~~~~~~~~------|----------------------------|
5|-----------------------------|----------------------------|
6|-----------------------------|----------------------------|

				end solo
1|-\X--------------------------|----------------------------|
2|-\X--------------------------|----------------------------|
3|-----------------------------|----------------------------|
4|-----------------------------|----------------------------|
5|-----------------------------|----------------------------|
6|-----------------------------|----------------------------|

					  adlib with feedback next 10 bars
1|-----------------------------|----------------------------|
2|-----------------------------|----------------------------|
3|-----------------------------|----------------------------|
4|-----------------------------|----------------------------|
5|-----------------------------|----------------------------|
6|-----------------------------|----------------------------|

					  Bridge w/Fill 1(8x)

1|-----------------------------|----------------------------|
					I wish I may, 		I
1|-----------------------------|----------------------------|
	Wish	I   might		   have this wish I  wish
1|-----------------------------|----------------------------|
	tonight               I    want that star,	I
1|-----------------------------|----------------------------|
	want it    now.       I    want it  all and I don't care how.
1|-----------------------------|----------------------------|
2|-----------------------------|----------------------------|
3|-----------------------------|----------------------------|
4|--h2-------------------------|---h5-----------------------|
5|-----------------------------|----------------------------|
6|-----------------------------|----------------------------|
 |			Careful      | what you wish			|
1|--------0--------------0-----|------------------0---------|
2|------------(3)/5------------|---3-----------------3/5----|
3|-----------------------------|----------------------------|
4|-----------------------------|----------------------------|
5|-----------------------------|----------------------------|
6|--0--------------------------|----------------------------|

1|-----------------------------|----------------------------|
2|-----------------------------|----------------------------|
3|-----------------------------|----------------------------|
4|--h4-------------------------|--h3------------------------|
5|-----------------------------|----------------------------|
6|-----------------------------|----------------------------|
 |   Careful	1/2		 | what you say       Careful |
1|-------------2---------------|-----------------0----------|
2|--2-------------2b-----(2)\--|-\1-------------------------|
3|-----------------------------|----------------------------|
4|-----------------------------|----------------------------|
5|-----------------------------|----------------------------|
6|-----------------------------|---------------------3---1--|

1|-----------------------------|----------------------------|
2|-----------------------------|----------------------------|
3|-----------------------------|----------------------------|
4|--h2-------------------------|--h5------------------------|
5|-----------------------------|----------------------------|
6|-----------------------------|----------------------------|
 |what you wish you may		 | regret it 	Careful	|
1|---------------3----------3--|----------------0---3----0--|
2|--------(3)/5-----(3)/5------|-(5)\3----------------------|
3|-----------------------------|-----------0----------------|
4|-----------------------------|----------------------------|
5|-----------------------------|----------------------------|
6|--0--------------------------|----------------------------|

									D.S. al Coda
									(goto the */*)
1|-----------------------------|----------------------------|
2|-----------------------------|----------------------------|
3|-----------------------------|----------------------------|
4|--h4-------------------------|--h7------------------------|
5|-----------------------------|----------------------------|
6|-----------------------------|-----------------------19\--|
 |	What you wish you just	 |  might get it			|
1|----------0------------------|--0----------0------0-------|
2|---------------2b-------2----|-------------1------1-------|
3|-----------------------------|----------------------------|
4|-----------------------------|----------------------------|
5|-----------------------------|----------------------------|
6|--2--------------------------|--------2-------------------|

CODA

   Full  Full  Full
1|-13----13----13--------------|----------------------------|
2|-16b---16b---16b-----16------|----------------------------|
3|-----------------------------|----------------------------|
4|-----------------------------|----------------------------|
5|-----------------------------|-2--------------------------|
6|-----------------------------|-0--------------------------|
   name. Where's your crown King	Nothing?

1|-----------------------------|----------------------------|
2|-----------------------------|----------------------------|
3|-----------------------------|----------------------------|
4|-----------------------------|----------------------------|
5|-(2)-------------------------|-(2)------------------------|
6|-(0)-------------------------|-(0)------------------------|


1|-----------------------------|
2|-----------------------------|
3|-----------------------------|
4|-----------------------------|
5|-(2)-------------------------|
6|-(0)-------------------------|
 		Nothing.

OUTRO
w/Rhy. Fig. 1 (Gtr 2 4x, Gtr. 3 3.5x)

1|-----------------------------|----------------------------|
2|----0--0---------0--0--------|---0--2p0---0-2-0---0-2-0---|
3|----0--0---------0--0--------|---0--2p0---0-2-0---0-2-0h1-|
4|----------2~~~---------2~~~--|-2--------2-------2---------|
5|-----------------------------|----------------------------|
6|-0---------------------------|----------------------------|
					   Mm,  no  you're just
									Full
1|-----------------------------|----------------------------|
2|----0--0---------0--0--------|---0------------------------|
3|----0--0---------0--0--------|---0-0h2p0---0h2p0---4b-----|
4|----------2~~~---------2~~~--|-----------2-------2----5~~-|
5|-----------------------------|----------------------------|
6|-0---------------------------|----------------------------|
    nothing.			  Where's your crown   King
 								 Full
1|-----------------------------|----------------------------|
2|----0--0---------0--0--------|---0-2p0---2p0--------------|
3|----0--0---------0--0--------|---0-2p0---2p0---2b--2--0---|
4|----------2~~~---------2~~~--|---------2-----2------------|
5|-----------------------------|----------------------------|
6|-0---------------------------|----------------------------|
   Nothing                        No,   you're just
w/Rhy. Fill 5
							            Full
1|-----------------------------|----------------------------|
2|----0--0---------0--0--------|---0------------------------|
3|----0--0---------0--0--------|---0--0h2p0---0h2p0---4b----|
4|----------2~~~---------2~~~--|------------2-------2----5~~|
5|-----------------------------|----------------------------|
6|-0---------------------------|----------------------------|
nothing							Absolutly
Free Time

1|-----------------------------|----------------------------||
2|-----------------------------|----------------------------||
3|-----------------------------|----------------------------||
4|-----------------------------|----------------------------||
5|-----------------------------|----------------------------||
6|-----------------------------|----------------------------||
	nothing				Off to never never land....
End

Rhy. Fill 1

1|-----------------------------|
2|-----------------------------|
3|-----------------------9-----|
4|-----------------------------|
5|-X--2--5--2------8--7--7-----|
6|-X--0--3--0--/6--6--5--------|

Rhy. Fill 3

			  1/2
1|-----------------------------|
2|-----------------------------|
3|--(7)---5----7----7b---------|
4|--(5)---7--------------------|
5|--(0)---0---------6----------|
6|-------------0----6----------|

Rhy. Fill 4

	   \.5/ \.5/    				\.5/
1|-----------------------------|----------------------------|
2|-----------------------------|----------------------------|
3|-----------------------------|----------------------------|
4|-----------------------------|----------------------------|
5|-----------------------------|----------------------------|
6|-0---------------------------|-(0)------------------------|


1|-----------------------------|----------------------------|
2|-----------------------------|----------------------------|
3|-----------------------------|----------------------------|
4|-----------------------------|----------------------------|
5|-----------------------------|----------------------------|
6|-(0)-------------------------|-(0)---------*-*-*-*--x-x---|


1|-----------------------------|
2|-----------------------------|
3|-----------------------------|
4|-----------------------------|
5|-----------------------------|
6|-19\-------------------------|

Rhy. Fill 5

		    1/2             Free Time
1|-----------------------------|----------------------------|
2|-----------------------------|----------------------------|
3|-----------------------------|----------------------------|
4|--------5--7--7b---5--7------|-(7)/9~~~~~~~~~~~~~~~~~~~~~~|
5|----/7-----------------------|----------------------------|
6|-0---------------------------|----------------------------|

6.ONE

intro


   Bm             Gmaj7(no3rd)   Bm             Gmaj7(no3rd)
|--------------|--------------|--------------|-------------------|
|--------------|--------------|--------------|-------------------|
|--------------|--------------|--------------|----------------0--|
|-----4-----0--|-----4-----0--|-----4-----0--|-----4-----0-------|
|--2-----2-----|--------------|--2-----2-----|-------------------|
|--------------|--3-----3-----|--------------|--3-----3----------|

		 D/A            Gmaj7(no3rd)
|--------------|--------------|--------------|-------------------|
|--------------|--------------|--------------|-------------------|
|-(0)----------|--------------|--------------|-------------------|
|-----4-----0--|-----4-----0--|-----4-----0--|-------------------|
|--2-----2-----|--0-----0-----|--------------|-----2-----2-------|
|--------------|--------------|--3-----3-----|--0-----2----------|

   Bm              Gmaj7(no3rd)  Bm
|--------------|--------------|--------------|-------------------|
|--------------|--------------|--------------|-------------------|
|*-------------|--------------|--------------|--------------0----|
|*----4-----0--|-----4-----0--|-----4-----0--|-----4-----0-------|
|--2-----2-----|--------------|--2-----2-----|-------------------|
|--------------|--3-----3-----|--------------|--3-----3----------|

		  D/A            Gmaj7(no3rd) [1. N.C           ]
|--------------|--------------|--------------|-------------------|
|--------------|--------------|--------------|-------------------|
|--------------|--------------|--------------|------------------*|
|-----4-----0--|-----4-----0--|-----4-----0--|------------------*|
|--2-----2-----|--0-----0-----|--------------|-----2-----2-------|
|--------------|--------------|--3-----3-----|--0-----2----------|

 [2. N.C                    ] Bm                     Gmaj7(no3rd)
|---------------------------|----------------------|-----------------------|
|---------------------------|----------------------|-----------------------|
|---------------------------|----------------------|-----------------------|
|---------------------------|-----4-----0--0--4----|-----4-----0--4--4--0--|
|-----2-----2-----2--2h4--2-|--2-----2-----------0-|-----------------------|
|--0-----2-----0------------|----------------------|--3-----3--------------|

   Bm                     Gamj7                   Bm
|-----------------------|-----------------------|-----------------------|
|-----------------------|-----------------------|-----------------------|
|-----------------------|-----------------------|-----------------------|
|-----4-----0--0--4-----|-----4-----0--4--4--0--|-----4-----0--0--4--0--|
|--2-----2-----------0--|-----------------------|--2-----2--------------|
|-----------------------|--3-----3--------------|-----------------------|

  D/A                     Gamj7                   (Em)
|-----------------------|-----------------------|-------------------|
|-----------------------|-----------------------|-------------------|
|--------------------0--|-(0)-------------------|-------------------|
|-----4-----0--4--4-----|-----4-----0--0--4--0--|-----2h4--2--------|
|--0-----0--------------|-----------------------|----------------4--|
|-----------------------|--3-----3--------------|--0----------2-----|

  G5            A5        (D) Riff A              (G)
|-----------------------|-----------------------|------------------------|
|-----------------------|-----------------------|-----0h3p0----0h3p0-----|
|-----------------------|*--------0--7-----0----|------------4--------0--|
|---------0-------------|*-----7--------7-------|--5---------------------|
|-----5------------7----|---5-------------------|------------------------|
|--3---------3--5-------|-----------------------|------------------------|

  (F)              [1. (Em)            ]  [2.(Em) N.C end Riff A
|--------1--------|--------------0------|------------------|
|-----------1-----|-----------0-----0---|-----0------------|
|-----0--------0--|-----4--0-----------*|--------0--4------|
|--3--------------|--2-----------------*|--2---------------|
|-----------------|---------------------|-------------/3---|
|-----------------|---------------------|------------------|

solo:

  1       2       3  4    1       2   3       4          1        2  3  4
|-----------------------|------------------------------|--------------------|
|-----------------------|-----3p2-----3p2---------3----|-3p2----------------|
|---------2---4b6b4-----|---------4-------2------------|-----4--------------|
|-----2h4---------------|------------------------------|--------------------|
|-----------------------|------------------------------|--------------------|
|-----------------------|------------------------------|--------------------|

    1       2       3       4          1     2     3     4
|----------------------------------|----------------------------|
|-----7\5---5\4---4\2---2p0--------|------------------------2h3-|
|---------7-----------4-----0h2----|-2/4--------------2/4-------|
|----------------------------------|----------------------------|
|----------------------------------|----------------------------|
|----------------------------------|----------------------------|

    1   2    3        4         1     2     3     4       1     2
|---------------------------|-------------------------|-------------|
|-2-------------2---3p2-----|-------------------------|-------------|
|---------2/4-----------2---|-2/4---------------------|-------------|
|---------------------------|-------------------------|-------------|
|---------------------------|-------------------------|-------------|
|---------------------------|-------------------------|-------------|

    1     2     3         4       1           2      3     4
|-----------------}14---19----|-17-15-14-15--------------------|
|-----------------{x----------|-------------15-----------------|
|-----------------}x----------|--------------------------------|
|-----------------{x----------|--------------------------------|
|-----------------------------|--------------------------------|
|-----------------------------|--------------------------------|

    1       2     3       4          1       2          3      4
|--------------------------------|---------------------------------|
|--------------------------------|---------------------------------|
|-----7p6-7-----9p7-9-------11p9-|-11----11/12---12---11-----------|
|--------------------------------|---------------------------------|
|--------------------------------|---------------------------------|
|--------------------------------|---------------------------------|

    1         2          3           4            1          2
|---------------------------------------------|----------------12-----|
|----------------------------------12---------|----12-14---15---------|
|-----------11-12-14---------11-12------------|-11--------------------|
|--------12---------------12---------------12-|-----------------------|
|-----14---------------14---------------14----|-----------------------|
|---------------------------------------------|-----------------------|

    3         4           1         2      3     4
 -----------------------|------------------------------|
 ---15---14---12---14---|-14-----15-12-----------------|
 -----------------------|------------------------------|
 -----------------------|------------------------------|
 -----------------------|------------------------------|
 -----------------------|------------------------------|


Bm                   Gmaj7(no3rd)    Bm                      Gmaj7(no3rd)
  I can't remember   anything          can't tell if this is true or dream
Bm                   D/A             Gmaj7(no 3rd)           N.C.
  deep down inside I feel to scream    this terrible silence stops me
Bm                    Gmaj7(no3rd)   Bm                Gmaj7(no3rd)
  Now that the war is through with me, I'm waking up I can not see
Bm                      D/A          Gmaj7(no 3rd)           N.C.
  that there's not much lef to to me.   Nothing is real but pain now!

[Next comes the chorus.  Just power chords. ]

 G5   A5 B5     A5 G5 F#5  B5  A5
 Hold my breath as I  wish for death
 B5 C#5 B5 A5  (5th [A] string:)-3---4----5---
        Oh,please           God  wake me!


Bm                   Gmaj7(no3rd)    Bm                 Gmaj7(no3rd)
  Back in the womb it's much to real in pumps life that I must feel
Bm                     D/A             Gmaj7(no 3rd)           N.C.
But can't look forward to reveal         look to the time when I'll live
Bm                       Gmaj7(no3rd)   Bm                    Gmaj7(no3rd)
Fed thourgh the tube that sticks in me    just like a wartime novelty
Bm                      D/A           Gmaj7(no 3rd)            N.C.
  tied to machines that make me be         cut this life off   from me

 G5   A5 B5     A5 G5 F#5  B5  A5
 Hold my breath as I  wish for death
 B5 C#5 B5 A5  (5th [A] string:)-3---4----5---
        Oh,please           God  wake me!

[ classical solo ]
|----------------------------|----------------------|----------------------|
|-------------10p7-----7-----|-10-----10---8---7----|-7h8p7----------------|
|------------------7---------|--------------------9-|--------7-------------|
|----------------------------|----------------------|----------------------|
|-(5)------------------------|----------------------|----------------------|
|----------------------------|----------------------|----------------------|

|-/10-8-7-----7---8-|---------17p14-----14-|-17---17-15--14---15p14--------|
|---------10--------|-8~~~~~---------15----|-------------------------------|
|-------------------|----------------------|-------------------------------|
|-------------------|----------------------|-------------------------------|
|-------------------|----------------------|-------------------------------|
|-------------------|----------------------|-------------------------------|

|------------------15--17--|--19p17p15-19p17p15-19p17p15-14-15----14-------|
|-15------15--19-----------|-----------------------------------17----15----|
|--------------------------|-----------------------------------------------|
|--------------------------|-----------------------------------------------|
|--------------------------|-----------------------------------------------|
|--------------------------|-----------------------------------------------|

|------|-------------------------------|-----------------------------------|
|------|-/8---8--8\7-------------------|-/13----13---13---13---12----------|
|------|-/7---7--7----7----------------|-/12----12---12---12---12----------|
|------|-------------------------------|-----------------------------------|
|------|-------------------------------|-----------------------------------|
|------|-------------------------------|-----------------------------------|

    T          T          T          T          T          T
|---20p17p13---20p17p13---20p17p13---20p17p13---20p17p13---20p17p13--------|
|--------------------------------------------------------------------------|
|--------------------------------------------------------------------------|
|--------------------------------------------------------------------------|
|--------------------------------------------------------------------------|
|--------------------------------------------------------------------------|
[ T = tap using pick ]

    T             T
|---20p12h13p12---20p12h13p12-|
|-----------------------------|
|-----------------------------|
|-----------------------------|
|-----------------------------|
|-----------------------------|

G5  A5  B5    A5 G5   F#5 B5
Now the world is gone I'm just one.
A5 B5 C#5 B5 A5 B5 C#5
Oh God help me!

G5  -A5-B5    -A5-G5-F#5 -B5 -A5-B5-C#5-B5-A5-B5-C#5
Hold my breath as I  wish for death. Oh,please God wake

G5-A5-B5-A5-G5-F#5-B5
me!

  Am           G                B               C
-------------|----------------|-------------|------------|
-------------|----------------|-------------|------------|
-------------|----------------|-4-----4-----|---5-----5--|
--2--0--2--0-|-----5--5--5--5-|-4-----4-----|---5-----5--|
--3--2--3--0-|--2--5--5--5--5-|-2-----2-----|---3-----3--|
-------------|--3--3--3--3--3-|----2-----2--|------3-----|
                                              Play 4 times

  C/E                D                  B5            C5
-------------------|----------------|---------------|---------------------|
-------------------|----------------|---------------|---------------------|
-------------------|----------------|---4-----4-----|-5--5-5--------5-----|
--5--5--5--7--5----|-4--4--4--5--4\-|---4-----4-----|-5--5-5--5-----5-----|
--7--7--7--7--7--5-|-5--5--5--5--5\-|---2-----2-----|-3--3-3--3-----3-----|
-------------------|----------------|------2-----2--|------------3-----3--|
                                                                Play twice

---------------|-----------------|------------------------------------|
---------------|-----------------|------------------------------------|
---------------|-----------------|------------------------------------|
--5------(5)---|--------------2--|--------------2-(2)-------------2-3-|
--7------(7)---|--------------2--|--------------2-(2)-------------2-3-|
--0------(0)---|--0-0-0-0-0-0-0--|--0-0-0-0-0-0-------0-0-0-0-0-0-----|
		   Play 4 times                       Play 4 times

--------------------------------|-----------------------------------|
--------------------------------|-----------------------------------|
--------------------------------|-----------------------------------|
--------------------------------|------------------------------2-3--|
--------------2---------------2-|--------------2---------------2-3--|
--0-0-0-0-0-0-0---0-0-0-0-0-0-0-|--0-0-0-0-0-0-0---0-0-0-0-0-0------|
    Dark-ness     imprisoning me   all that I see  absolute  hor-ror
I can-not live I can-not die Trapped in my-self body my holdind cell!

------------------------------------|------------------------------------|
------------------------------------|------------------------------------|
------------------------------------|------------------------------------|
------------------------------------|------------------------------------|
--------------7-(7)-------------7-8-|-------------5-(5)-------------5/8--|
--0-0-0-0-0-0-------0-0-0-0-0-0-----|-0-0-0-0-0-0-------0-0-0-0-0-0------|

------------------------------------|------------------------------------|
------------------------------------|------------------------------------|
------------------------------------|------------------------------------|
------------------------------------|------------------------------------|
--------------7-(7)-------------7-8-|-------------5-(5)-------------5----|
--0-0-0-0-0-0-------0-0-0-0-0-0-----|-0-0-0-0-0-0-------0-0-0-0-0-0---7--|

---------------------------------|-----------------------------------|
---------------------------------|-----------------------------------|
---------------------------------|-----------------------------------|
---------------------------------|------------------------------2-3--|
--------------2---------------2--|--------------2---------------2-3--|
--0-0-0-0-0-0-0---0-0-0-0-0-0-0--|--0-0-0-0-0-0-0---0-0-0-0-0-0------|
  Land-mine    has taken my sight  taken my speech taken my  hear-ing
  Taken my   arms taken my   legs taken my soul left me with life in

Double-time
-----------------------------------------|
-----------------------------------------|
-----------------------------------------|
--------------2--------------2--------3--|
--------------2--------------2--------3--|
--0-0-0-0-0-0----0-0-0-0-0-0----0-0-0----|
hell!_____________


Riff C
  E5                                      F5
-------------------------|--------------------|
-------------------------|--------------------|
-------------------------|--------------------|
---------------2---------|--------2--------3--|
---------------2---------|--------2--------3--|
--0-0-0-0-0-0-----0-0-0--|--0-0-0----0-0-0----|

[  4 times ]


  T         T        T        T        T        T        T        T
E-19p15p12--19p15p12-19p15p12-19p15p12-19p15p12-19p15p12-19p15p12-19p15p12-|
B--------------------------------------------------------------------------|
G--------------------------------------------------------------------------|
D--------------------------------------------------------------------------|
A--------------------------------------------------------------------------|
E--------------------------------------------------------------------------|
[ T= Tap using pick; p = pull off ]

  T         T        T        T        T        T        T        T
E-20p15p12--20p15p12-20p15p12-20p15p12-20p15p12-20p15p12-20p15p12-20p15p12-|
B--------------------------------------------------------------------------|
G--------------------------------------------------------------------------|
D--------------------------------------------------------------------------|
A--------------------------------------------------------------------------|
E--------------------------------------------------------------------------|

  T         T        T        T        T        T        T        T
E--------------------------------------------------------------------------|
B-19p15p12--19p15p12-19p15p12-19p15p12-19p15p12-19p15p12-19p15p12-19p15p12-|
G--------------------------------------------------------------------------|
D--------------------------------------------------------------------------|
A--------------------------------------------------------------------------|
E--------------------------------------------------------------------------|

  T         T        T        T        T        T        T        T
E--------------------------------------------------------------------------|
B-20p15p12--20p15p12-20p15p12-20p15p12-20p15p12-20p15p12-20p15p12-20p15p12-|
G--------------------------------------------------------------------------|
D--------------------------------------------------------------------------|
A--------------------------------------------------------------------------|
E--------------------------------------------------------------------------|

  T         T        T        T        T        T        T        T
E--------------------------------------------------------------------------|
B-17p13p10--17p13p10-17p13p10-17p13p10-17p13p10-17p13p10-17p13p10-17p13p10-|
G--------------------------------------------------------------------------|
D--------------------------------------------------------------------------|
A--------------------------------------------------------------------------|
E--------------------------------------------------------------------------|

  T         T        T        T        T        T        T        T
E--------------------------------------------------------------------------|
B-18p13p10--18p13p10-18p13p10-18p13p10-18p13p10-18p13p10-18p13p10-18p13p10-|
G--------------------------------------------------------------------------|
D--------------------------------------------------------------------------|
A--------------------------------------------------------------------------|
E--------------------------------------------------------------------------|

  T        T     T     T     T     T      T     T    T    T    T    T
E---------------------------------------|----------------------------------|
B-17p12h14-17p12-17p10-17p12-17p10-17p8-|-17p10-17p8-17p7-17p8-17p7-17p5---|
G---------------------------------------|----------------------------------|
D---------------------------------------|----------------------------------|
A---------------------------------------|----------------------------------|
E---------------------------------------|----------------------------------|

E------------------------------14-14-14-|-15-15-15--17-17-17----------------|
B-/12-12-12--12-12-12--12--12-----------|---------------------15-15-15------|
G---------------------------------------|-----------------------------------|
D---------------------------------------|-----------------------------------|
A---------------------------------------|-----------------------------------|
E---------------------------------------|-----------------------------------|

E-17-17-17-17-|-22^24-------22^24----22^24~|~~~~~~~~\---------------15-----|
B-------------|----------------------------|--------------/17--------------|
G-------------|----------------------------|-------------------------------|
D-------------|----------------------------|-------------------------------|
A-------------|----------------------------|-------------------------------|
E-------------|----------------------------|-------------------------------|

E-17p15---------------15h17p15-------------|-15h17p15-------------15h17p15--|
B--------17-15-17-19-----------17-15-17-19-|----------17-15-17-19-----------|
G------------------------------------------|--------------------------------|
D------------------------------------------|--------------------------------|
A------------------------------------------|--------------------------------|
E------------------------------------------|--------------------------------|

E-----------15-|-17p15------------15-17p15---------15h17----|
B-17-17-19-----|--------15-17-19------------17--15----------|
G--------------|--------------------------------------------|
D--------------|--------------------------------------------|
A--------------|--------------------------------------------|
E--------------|--------------------------------------------|

E-19p17p15-----19p17p15-----19p17p15------19p17p15----------|
B----------15-----------15------------15------------15------|
G-----------------------------------------------------------|
D-----------------------------------------------------------|
A-----------------------------------------------------------|
E-----------------------------------------------------------|

E-19p17--------19p17--------19p17---------19p17p15----------|
B----------15-----------15------------15--------------------|
G-----------------------------------------------------------|
D-----------------------------------------------------------|
A-----------------------------------------------------------|
E-----------------------------------------------------------|

E-------15-------15-------15-------15-|-18^19-15-------15-18^19-15-------15-|
B-18^20----18^20----18^20----18^20----|----------18^20-------------18^20----|
G-------------------------------------|-------------------------------------|
D-------------------------------------|-------------------------------------|
A-------------------------------------|-------------------------------------|
E-------------------------------------|-------------------------------------|

E-19p17p15-17----17p15----15----------|-------------------------------------|
B----------------------19-------------|-19p17p15-17-----15h17p15\13--15-----|
G-------------------------------------|-------------------------------------|
D-------------------------------------|-------------------------------------|
A-------------------------------------|-------------------------------------|
E-------------------------------------|-------------------------------------|

E------------------------------------------|--------------------------------|
B-13h15p13\12--13-----12h13p12----12-------|--------------------------------|
G------------------------------14----14p12-|-14p12----12----12--14^-14^-14^-|
D------------------------------------------|-------14----14-----------------|
A------------------------------------------|--------------------------------|
E------------------------------------------|--------------------------------|

E----------------------------|---------------------|------------------------|
B----------------------------|---------------------|------------------------|
G-14^16-14^16-----v14p12-----|-12-----12-----------|------------------------|
D-------------------------14-|----14------14-13-12-|------------------------|
A----------------------------|---------------------|-14-13-12-10~~~~~-------|
E----------------------------|---------------------|------------------------|

E---------------------------|---------------------------|-------------------|
B---------15^----------15^--|---------15^----------15^--|-17^-v-^-v-^-17^v^-|
G---------15^----------15^--|---------15^----------15^--|-17^-v---v-^-17^v^-|
D-17--17--------17--17------|-17--17--------17--17------|-------------------|
A---------------------------|---------------------------|-------------------|
E---------------------------|---------------------------|-------------------|


E---------------------|------------------------|----------------------------|
B-v(17)-^-v--15----15-|--------15^---------15^-|-17-----17-----15^-------15-|
G-v(17)-^-v--15----15-|--------15^---------15^-|-17-----17-----15^----------|
D---------------17----|-17--17------17--17-----|----------------------------|
A---------------------|------------------------|----------------------------|
E---------------------|------------------------|----------------------------|

E-------15--------15--------15--------15-|-------15--------15--------------||
B-18^20-----18^20-----18^20-----18^20----|-18^20-----18^20-----18^20~~~~~~-||
G----------------------------------------|---------------------------------||
D----------------------------------------|---------------------------------||
A----------------------------------------|---------------------------------||
E----------------------------------------|---------------------------------||

E------------------------------------|------------------------------------|
B------------------------------------|------------------------------------|
G------------------------------------|------------------------------------|
D------------------------------------|------------------------------------|
A---------------------------5-5-5----|-5-5-5----4-4-4---3-3-3---2-2-2-----|
E-3-3-3--3-3-3--3--------------------|------------------------------------|

Riff C
  E5                                      F5
-------------------------|--------------------|
-------------------------|--------------------|
-------------------------|--------------------|
---------------2---------|--------2--------3--|
---------------2---------|--------2--------3--|
--0-0-0-0-0-0-----0-0-0--|--0-0-0----0-0-0----|

[  9 times   ]

E------------------------------------|------------------------------------|
B------------------------------------|------------------------------------|
G------------------------------------|------------------------------------|
D------------------------------------|------------------------------------|
A---------------------------5-5-5----|-5-5-5----4-4-4---3-3-3---2-2-2-----|
E-0-0-0--0-0-0--0--------------------|------------------------------------|

[ two guitars                                                             ]
E-----------------------5--5--5------|------------------7--7--7--5--------|
B-8--8--8--7^-----------7--7--7------|--8^--------5-----8--8--8--7--------|
G-9--9--9--7^----7-------------------|--8^--------------------------------|
D----------------9-------------------|------------9-----------------------|
A------------------------------------|------------------------------------|
E------------------------------------|------------------------------------|

E-7--5-----5-------5-----------------|------------------------------------|
B-8--7--8--7-------7--8--7--8--------|-8--7--5--7--------7--5-----5-------|
G-------9-------------9--7--9--------|-9--7--6--7--------7--6--7--6-------|
D------------------------------------|-------------------------9----------|
A------------------------------------|------------------------------------|
E------------------------------------|------------------------------------|

E-----------------------5--5--5------|------------------7--7--7--5--------|
B-8--8--8--7^-----------7--7--7------|--8^--------5-----8--8--8--7--------|
G-9--9--9--7^----7-------------------|--8^--------------------------------|
D----------------9-------------------|------------9-----------------------|
A------------------------------------|------------------------------------|
E------------------------------------|------------------------------------|

E-7--5-----5-------5-----------------|-8--7--5--7--------7--5-----5-------|
B-8--7--8--7-------7--8--7--8--------|-10-8--7--8--------8--7--8--7-------|
G-------9-------------9--7--9--------|-------------------------9----------|
D------------------------------------|------------------------------------|
A------------------------------------|------------------------------------|
E------------------------------------|------------------------------------|

E-----------------------5--5--5------|------------------7--7--7--5--------|
B-8--8--8--7^-----------7--7--7------|--8^--------5-----8--8--8--7--------|
G-9--9--9--7^----7-------------------|--8^--------------------------------|
D----------------9-------------------|------------9-----------------------|
A------------------------------------|------------------------------------|
E------------------------------------|------------------------------------|

E-7--5-----5-------5-----------------|------------------------------------|
B-8--7--8--7-------7--8--7--8--------|-8--7--5--7--------7--5-----5-------|
G-------9-------------9--7--9--------|-9--7--6--7--------7--6--7--6-------|
D------------------------------------|-------------------------9----------|
A------------------------------------|------------------------------------|
E------------------------------------|------------------------------------|

E-----------------------5--5--5------|------------------7--7--7--5--------|
B-8--8--8--7^-----------7--7--7------|--8^--------5-----8--8--8--7--------|
G-9--9--9--7^----7-------------------|--8^--------------------------------|
D----------------9-------------------|------------9-----------------------|
A------------------------------------|------------------------------------|
E------------------------------------|------------------------------------|

E-7--5-----5-------5-----------------|------------------------------------|
B-8--7--8--7-------7--8--7--8--------|-8--7--5--7--------7--5-----5-------|
G-------9-------------9--7--9--------|-9--7--6--7--------7--6--7--6-------|
D------------------------------------|-------------------------9----------|
A------------------------------------|------------------------------------|
E------------------------------------|------------------------------------|

E------------------------------------|------------------------------------|
B-5----------------------------------|------------------------------------|
G-6--7--6--7-------7--6--4--6--------|-6--4--2--4--------4--2--0--2-------|
D----9--7--9-------9--7--5--7--------|-7--5--4--5--------4--2--0--2-------|
A------------------------------------|------------------------------------|
E------------------------------------|------------------------------------|


Riff C
  E5                                      F5
-------------------------|--------------------|
-------------------------|--------------------|
-------------------------|--------------------|
---------------2---------|--------2--------3--|
---------------2---------|--------2--------3--|
--0-0-0-0-0-0-----0-0-0--|--0-0-0----0-0-0----|

 x 4

  G5
-------------------------|--------------------|
-------------------------|--------------------|
-------------------------|--------------------|
-------------5--------5--|--------5--------5--|
-------------5--------5--|--------5--------5--|
--3-----3----3--3--3--3--|--3--3--3--3--3--3--|

  E5                                      F5
-------------------------|--------------------|
-------------------------|--------------------|
-------------------------|--------------------|
---------------2---------|--------2--------3--|
---------------2---------|--------2--------3--|
--0-0-0-0-0-0-----0-0-0--|--0-0-0----0-0-0----|

  G5
-------------------------|--------------------|
-------------------------|--------------------|
-------------------------|--------------------|
-------------5--------5--|--------5--------5--|
-------------5--------5--|--------5--------5--|
--3-----3----3--3--3--3--|--3--3--3--3--3--3--|

  E5                        F5
-------------------------|--------------------|
-------------------------|--------------------|
-------------------------|--------------------|
---------------2------2--|--------3--------3--|
---------------2------2--|--------3--------3--|
--0-0-0-0-0-0---------0--|--1--1--1--1--1--1--|
[ 3 times ]

  E5                        G5
-------------------------|--------------------|--------------------|
-------------------------|--------------------|--------------------|
-------------------------|--------------------|--------------------|
---------------2------2--|--------5--------5--|--------5--------5--|
---------------2------2--|--------5--------5--|--------5--------5--|
--0-0-0-0-0-0---------0--|--3--3--3--3--3--3--|--3--3--3--3--3--3--|

  E5                                      F5
-------------------------|--------------------|
-------------------------|--------------------|
-------------------------|--------------------|
---------------2---------|--------2--------3--|
---------------2---------|--------2--------3--|
--0-0-0-0-0-0-----0-0-0--|--0-0-0----0-0-0----|

   E5
E------------------------------------|-----------------------------------||
B------------------------------------|-----------------------------------||
G------------------------------------|-----------------------------------||
D--2-2-2--2-2-2--2------------2-2-2--|--2-2-2--2-------------------------||
A--2-2-2--2-2-2--2------------2-2-2--|--2-2-2--2-------------------------||
E--0-0-0--0-0-0--0------------0-0-0--|--0-0-0--0-------------------------||

7.FUEL

Ab-2---2-2---2-2-2---2-2---2-2-2---2-2---2-2-2---2-2---2-2-2---2-2---2-2-|--------|
Eb-3p0-0-3p0-0-0-3p0-0-3p0-0-0-3p0-0-3p0-0-0-3p0-0-3p0-0-0-3p0-0-3p0-0-0-|5-5-5-3-|2x


Db-----7-7-7-5----|-----|
Ab-5h7----------7-|-5h7-|
         4x

Ab-2---2-2---2-2-2---2-2---2-2-|
Eb-3p0-0-3p0-0-0-3p0-0-3p0-0-0-|


gb--------|
Db--------|
Ab-2---5--|
Eb-0---3--|


gb-------14-14-14-12----------14-14-14-12----|
Db-12h14-14-14-14-12-14-12h14-14-14-14-12-14-|
Ab-12h14-------------14-12h14-------------14-|

Db-----4---3---2---|-----7-7-7-5----|-----|
Ab-2---2---1---0---|-5h7----------7-|-5h7-|
Eb-0---------------|----------------|-----|
                           4x

Ab-2---2-2---2-2-2---2-2---2-2-|
Eb-3p0-0-3p0-0-0-3p0-0-3p0-0-0-|


gb--------|
Db--------|
Ab-2---5--|
Eb-0---3--|


gb-------14-14-14-12----------14-14-14-12----|
Db-12h14-14-14-14-12-14-12h14-14-14-14-12-14-|
Ab-12h14-------------14-12h14-------------14-|


Db-----4---3---2---|-----7-7-7-5----|-----|
Ab-2---2---1---0---|-5h7----------7-|-5h7-|
Eb-0---------------|----------------|-----|
                           4x

Ab-2---2-2---2-2-2---2-2---2-2-|
Eb-3p0-0-3p0-0-0-3p0-0-3p0-0-0-|


  Coro:


Db-----------------------------|
Ab-7p5---7---7p5---7---7p5---7-|
Eb-----7---------7---------7---|
               6x

Ab-2---2-2---2-2-2---2-2---2-2-|
Eb-3p0-0-3p0-0-0-3p0-0-3p0-0-0-|


So gimme fuel
gimme fire
gimme that wich I desire


Ab-----------------------------2---2-2---2-2-2---2-2---2-2-2---2-2---2-2-|--------|
Eb-3p0-0-3p0-0-0-3p0-0-3p0-0-0-3p0-0-3p0-0-0-3p0-0-3p0-0-0-3p0-0-3p0-0-0-|5-5-5-3-|

Ab-2---2-2---2-2-2---2-2---2-2-2---2-2---2-2-2---2-2---2-2-2---2-2---2-2-|--------|
Eb-3p0-0-3p0-0-0-3p0-0-3p0-0-0-3p0-0-3p0-0-0-3p0-0-3p0-0-0-3p0-0-3p0-0-0-|5-5-5-3-|


Db-----7-7-7-5----|-----|
Ab-5h7----------7-|-5h7-|
         4x

Ab-2---2-2---2-2-2---2-2---2-2-|
Eb-3p0-0-3p0-0-0-3p0-0-3p0-0-0-|


gb--------|
Db--------|
Ab-2---5--|
Eb-0---3--|


gb-------14-14-14-12----------14-14-14-12----|
Db-12h14-14-14-14-12-14-12h14-14-14-14-12-14-|
Ab-12h14-------------14-12h14-------------14-|


Db-----4---3---2---|-----7-7-7-5----|-----|
Ab-2---2---1---0---|-5h7----------7-|-5h7-|
Eb-0---------------|----------------|-----|
                           4x

Ab-2---2-2---2-2-2---2-2---2-2-|
Eb-3p0-0-3p0-0-0-3p0-0-3p0-0-0-|


gb--------|
Db--------|
Ab-2---5--|
Eb-0---3--|


gb-------14-14-14-12----------14-14-14-12----|
Db-12h14-14-14-14-12-14-12h14-14-14-14-12-14-|
Ab-12h14-------------14-12h14-------------14-|


Db-----4---3---2---|-----7-7-7-5----|-----|
Ab-2---2---1---0---|-5h7----------7-|-5h7-|
Eb-0---------------|----------------|-----|
                           4x

Ab-2---2-2---2-2-2---2-2---2-2-|
Eb-3p0-0-3p0-0-0-3p0-0-3p0-0-0-|

  Coro:


Db-----------------------------|
Ab-7p5---7---7p5---7---7p5---7-|
Eb-----7---------7---------7---|
               6x


Ab-2---2-2---2-2-2---2-2---2-2-|
Eb-3p0-0-3p0-0-0-3p0-0-3p0-0-0-|


So gimme fuel
gimme fire
gimme that wich I desire

Db-7-7-7-5---------7-7-7-5-------|
Ab-7-7-7-5-2-2-2-2-7-7-7-5-2-2---|
Eb---------0-0-0-0---------0-0-3~|4x
 p.m.      . . . .         . .


gb-14-14-14-12-------12-----14-14-14-12-------12~-|
Db-14-14-14-12-12h14----14~-14-14-14-12-12h14-----|4x


  Solo:

gb-------14-14-14-12-----------14-14-14-12----------14-14-14-12---------|
Db-12h14-------------14-12h14-------------14-12h14-------------14-12h14-|

gb-14^-12-14^-12-14^-|
Db-------------------|

eb-12-----12-----15^-15-14-15-14----14-------------------------------------------|
bb----15^----15^-----------------15----15----------------------------15p14-------|
gb----------------------------------------14-------------------------------16/18-|
Db-------------------------------------------14-------12----12-14/16-------------|
Ab----------------------------------------------12-14----14----------------------|

eb-------------------15-17^-17-15----|
bb-------------15-17--------------17-|
gb-------14-16-----------------------|
Db-14-17-----------------------------|

eb---------------------------------------------------------------12-16--16-16-16-|
bb-12/14-12--12/14-12---------------------12/14-12--12/14-12-/14-12-17--17-17-17-|
gb-12/14-12--12/14-12---------------------12/14-12--12/14-12-/14-----------------|
Db---------------------7^7^7^7^p5------------------------------------------------|
Ab--------------------------------7p5h7------------------------------------------|

gb-9----------9----------|
Db---12-9-12^---12-9-----|
Ab-------------------12^-|4x

bb----------------------------------------|-12/17~-|
gb----11-12----11-12----11-12/14-12-11-12-|--------|
Db-14-------14-------14-------------------|--------|
                    4x

Ab-2---2-2---2-2-2---2-2---2-2-2---2-2---2-2-2---2-2---2-2-2---2-2---2-2-|--------|
Eb-3p0-0-3p0-0-0-3p0-0-3p0-0-0-3p0-0-3p0-0-0-3p0-0-3p0-0-0-3p0-0-3p0-0-0-|5-5-5-3-|


Db-----7-7-7-5----|-----|
Ab-5h7----------7-|-5h7-|
         4x

8.BASS/GUITAR DOODLE

G||--------14--16--14--13------|--14--16--14--13----13h14-13------|
D||*---------------------------|------------------------------16--|
A||*---------------------------|----------------------------------|
E||---0------------------------|----------------------------------|

------------------------------|--------------------------||
--14----------19--------------|----------19-------------*||
------16------------16--------|----16----------16-------*||
----------17--------------17--|----------------------0---||

------------11-----------11--|---------11---------11---------|
-----12-----------12---------|--12---------12---------12-----|
--0------0------------0------|------0----------0----------0--|
-----------------------------|-------------------------------|

-------------12---------|-------------12--------|------------11---------11--|
--------9----------9----|--------9--------------|----------------12---------|
--10--------------------|--10-------------------|--0--0--------------0------|
------------------------|-----------------------|---------------------------|

---------11---------11---------|-------------12---------|
--12---------12---------12-----|--------9----------9----|
------0----------0----------0--|--10--------------------|
-------------------------------|------------------------|

-------------12---------||---------14--16--14--13------|
--------9----------9----||*----------------------------|
--10--------------------||*----------------------------|
------------------------||---0--0----------------------|

--14--16--14--13----13h14-13------|------------------------------|
------------------------------16--|--14----------19--------------|
----------------------------------|------16------------16--------|
----------------------------------|----------17--------------17--|

--------------------------||------------11-----------11--|
----------19-------------*||-----12-----------12---------|
----16----------16-------*||--0------0------------0------|
----------------------0---||-----------------------------|

---------11---------11---------|-------------12---------|
--12---------12---------12-----|--------9----------9----|
------0----------0----------0--|--10--------------------|
-------------------------------|------------------------|

-------------12--------|------------11---------11--|
--------9--------------|----------------12---------|
--10-------------------|--0--0--------------0------|
-----------------------|---------------------------|

---------11---------11---------|-------------12---------|--12----------------|
--12---------12---------12-----|--------9----------9----|--9-----------------|
------0----------0----------0--|--10--------------------|--10----------------|
-------------------------------|------------------------|--------------------|

-----10---------10---------10--|--14---------12---------10-----|
---------12---------12---------|------12---------12------------|
--0----------0----------0------|----------0----------0------0--|
-------------------------------|-------------------------------|

-----9---------9---------9--|--12---------10---------9-----|
--------10--------10--------|------10---------10-----------|
--0---------0---------0-----|----------0----------0-----0--|
----------------------------|------------------------------|

-----10---------10---------10--|--14---------12---------10-----|
---------12---------12---------|------12---------12------------|
--0----------0----------0------|----------0----------0------0--|
-------------------------------|-------------------------------|

-----9---------9---------9--|--12---------10---------9-----|
--------10--------10--------|------10---------10-----------|
--0---------0---------0-----|----------0----------0-----0--|
----------------------------|------------------------------|

-----10---------10---------10--|--14---------12---------10-----|
---------12---------12---------|------12---------12------------|
--0----------0----------0------|----------0----------0------0--|
-------------------------------|-------------------------------|

-----9---------9---------9--|--12---------10---------9-----|
--------10--------10--------|------10---------10-----------|
--0---------0---------0-----|----------0----------0-----0--|
----------------------------|------------------------------|

-----10---------10---------10--|--14---------12---------10-----|
---------12---------12---------|------12---------12------------|
--0----------0----------0------|----------0----------0------0--|
-------------------------------|-------------------------------|

-----9---------9---------9--|--12---------10---------9-----|
--------10--------10--------|------10---------10-----------|
--0---------0---------0-----|----------0----------0-----0--|
----------------------------|------------------------------|

--------7-----4--------5--|----------5--------5-----|--------7-----4--------5--|
-----5-----5-----5--------|----7--------7--------7--|-----5-----5-----5--------|
--0-----------------0-----|-------0--------0--------|--0-----------------0-----|
--------------------------|-------------------------|--------------------------|

----------5--------5-----|--------7-----4--------5--|----------5--------5-----|
----7--------7--------7--|-----5-----5-----5--------|----7--------7--------7--|
-------0--------0--------|--0-----------------0-----|-------0--------0--------|
-------------------------|--------------------------|-------------------------|

--------7-----4--------5--|----------7--------9------||
-----5-----5-----5--------|----7--------9--------10--||
--0-----------------0-----|-------0--------0---------||
--------------------------|--------------------------||

Only tabbed bass part for that.SORRY!

9.NOTHING ELSE MATTERS

Intro -
----------0--------|-----------0--------|-----------0--------|
-------0-----0-----|--------0-----0-----|--------0-----0-----|
----0-----------0--|-----0-----------0--|-----0-----------0--|
-------------------|--------------------|--------------------|
-------------------|--------------------|--------------------|
-0-----------------|--0-----------------|--0-----------------|

----------0-----7--|--7--------7p0--------|--------7--8--7h8/5--|--7--5/2-----|
-------0-----0-----|-----0-----0----0-----|--0-----0--0---------|----------5--|
----0--------------|--------0----------0--|-----0---------------|-------------|
-------------------|----------------------|---------------------|-------------|
-------------------|----------------------|---------------------|-------------|
-0-----------------|--0-------------------|--0------------------|-------------|

----------2p0--------|-----------0--0--0--|--0--------------3p0--------0--|
-5-----5-------5-----|--------5-----5--5--|--5--------5----------5-----5--|
----5-------------5--|-----5--------5--5--|--5-----5-----5----------5--5--|
---------------------|--------------------|-------------------------------|
-0-------------------|--0-----------0--2--|--3--3----------------------3--|
---------------------|--------------------|-------------------------------|

----------------0h5p0------------|---------------12^--------|
-7--------7------------7p0--0h5--|-----12^--12^-------0-----|
-7-----7-----7-------------------|-----12^---------------0--| ^ = harmonic
---------------------------------|--------------------------|
-5--5----------------------------|--------------------------|
---------------------------------|--0-----------------------|

----------0--------|-----------0--------|-----------0--------|
-------0-----0-----|--------0-----0-----|--------0-----0-----|
----0-----------0--|-----0-----------0--|-----0-----------0--|
-------------------|--------------------|--------------------|
-------------------|--------------------|--------------------|
-0-----------------|--0-----------------|--0-----------------|

-----------7--|--------------------|--------------7--|-------------------|
-----------8--|--------7--------5--|--------------8--|-------7--------5--|
---------9----|--------7--------5--|-----------9-----|-------7--------5--|
-------9------|-----7--------5-----|--------9--------|----7--------5-----|
-----7--------|--5--------3--------|-----7-----------|-5--------3--------|
-0------------|--------------------|--0--------------|-------------------|

-------------7--|--------------------|--------------------|
-------------8--|--------7--------5--|--------3--------4--|
----------9-----|--------7--------5--|--------4--------2--|
-------9--------|-----7--------5-----|-----5--------4-----|
----7-----------|--5--------3--------|-----------2--------|
-0--------------|--------------------|--3-----------------|

----------0--------|-----------0--------|-----------0--------|--12^--|
-------0-----0-----|--------0-----0-----|--------0-----0-----|--12^--|
----0-----------0--|-----0-----------0--|-----0-----------0--|--12^--|
-------------------|--------------------|--------------------|-------|
-------------------|--------------------|--------------------|-------|
-0-----------------|--0-----------------|--0-----------------|-------|


Verse -
----------3-----0--------|--2-----3--------0--------------|
-------0-----------0-----|-----------3--------3-----------|
----0--------0--------0--|--------------0--------0--------|
-------------------------|--0--0--------------------------|
-------------------------|-----------------3--------------|
-0-----------------------|--------------------------3--2--|

----------3-----0--------|--2-----------------------------|
-------0-----------0-----|--------3-------3-----3---------|
----0--------0--------0--|-----------2p0-----0------------|
-------------------------|--0--0--------------------------|
-------------------------|----------------3---------------|
-0-----------------------|--------------------------3--2--|

----------3-----0--------|--2-----3--------3--------|--------3--2-----2-----|
-------0-----------0-----|-----------3--------3-----|--------3--0--------0--|
----0--------0--------0--|--------------0--------0--|-----0-----2-----------|
-------------------------|--0--0--------------------|-----------------------|
-------------------------|-----------------3--------|-----------2--2--------|
-0-----------------------|--------------------------|--3--------------------|

-0--------0--------|-----------0-----------|
-------0-----0-----|--------0-----0--------|
----0-----------0--|-----0-----------------|
-------------------|-----------------------|
-------------------|-----------------------|
-0-----------------|--0--------------3--2--|


Chorus -
-0-------|--2---2-2-2-3-2--0--2--|--0-------|--2---2-2-2-3-2--0--2--|
-1----2--|--3---3-3-3-3-3--3--3--|--1----2--|--3---3-3-3-3-3--3--3--|
-0----2--|--2---2-2-2-2-2--2--2--|--0----2--|--2---2-2-2-2-2--2--2--|
-2----2--|--0---0-0-0-0-0--0--0--|--2----2--|--0---0-0-0-0-0--0--0--|
-3----0--|-----------------------|--3----0--|-----------------------|
---------|-----------------------|----------|-----------------------|

-0-------|--2--2-2-2--|---0---|
-1----2--|--3--3-3-3--|---0---|
-0----2--|--2--2-2-2--|---0---|
-2----2--|--0--0-0-0--|---2---|
-3----0--|------------|---2---|
---------|------------|---0---|


Solo I �

Guitar I -
-12--------14------|--15--------17------|--8--------8--------|
-----12--------12--|------12--------12--|-----5--------5-----|
-------------------|--------------------|--------5--------5--|
-------------------|--------------------|--------------------|
-------------------|--------------------|--------------------|
-------------------|--------------------|--------------------|

Guitar II -
-15--------17------|--19--------20------|--12----------------|
-----17--------17--|------17--------17--|------13------------|
-------------------|--------------------|--------------------|
-------------------|--------------------|--------------------|
-------------------|--------------------|--------------------|
-------------------|--------------------|--------------------|

Guitar I -
-------8-----------|--0----------0------|--0----------0---------|
----5-----5--------|-----1----------1---|-----3----------3------|
-5-----------5\\----|--------0-----------|--------2-------------|
-------------------|--------------------|-----------------------|
-------------------|--------------------|-----------------------|
-------------------|--------------------|-----------------------|

Guitar II -
-------------------|--11/12-------------|--12/14-------------|
-------------------|---------13---------|----------15--------|
-------------------|-------------12-----|---------------14---|
-------------------|--------------------|--------------------|
-------------------|--------------------|--------------------|
-------------------|--------------------|--------------------|

Guitar I -
-0--7--------7--0--------|-----------0--|--12--------14------|
-------0-----------0-----|--------0-----|------12--------12--|
----------0-----------0--|-----0--------|--------------------|
-------------------------|--------------|--------------------|
-------------------------|--------------|--------------------|
-------------------------|--0-----------|--------------------|

Guitar II -
-----12------12----------|--------------|--15--------17------|
-12-------------12-------|--------------|------17--------17--|
-------------------------|--------------|--------------------|
-------------------------|--------------|--------------------|
-------------------------|--------------|--------------------|
-------------------------|--------------|--------------------|
Guitar I -
-15--------17------|--8--------8--------|--------8--------------|
-----12--------12--|-----5--------5-----|-----5-----5-----------|
-------------------|--------5--------5--|--5-----------5\\------|
-------------------|--------------------|-----------------------|
-------------------|--------------------|-----------------------|
-------------------|--------------------|-----------------------|

Guitar II -
-19--------20------|--12----------------|--------------------|
-----17--------17--|------13------------|--------------------|
-------------------|--------------------|--------------------|
-------------------|--------------------|--------------------|
-------------------|--------------------|--------------------|
-------------------|--------------------|--------------------|

Guitar -
-0-----------0-----|--0-----------0-----|--0-7--------7--0--------|
----1-----------1--|-----3-----------3--|-------0-----------0-----|
-------0-----------|--------2-----------|----------0-----------0--|
-------------------|--------------------|-------------------------|
-------------------|--------------------|-------------------------|
-------------------|--------------------|-------------------------|

Guitar II -
-11/12-------------|----------------------------|--------------------|
--------13---------|----------------------------|-----12-----12------|
------------12-----|-----12--12h14---12h14-14b--|--12----------------|
-------------------|----------------------------|----------------14--|
-------------------|----------------------------|--------------------|
-------------------|----------------------------|--------------------|

Guitar I -
-----------------0-----------------|------|
------------0---------0------------|------|
-------0---------------------------|------|
-----------------------------------|------|
-----------------------------------|------|
-0---------------------------------|------|

Guitar II -
-----------------------------------|------|
----15--15--15---------------------|------|
----14--14b-14r-12-------------12--|------|
--------------------14--12h14------|--14--|
-----------------------------------|------|
-----------------------------------|------|


Lead into solo -
----------------------------|
----------------------------|
----------------------------|
----------------------------|
-7--7----------2-2-2-2-2-2--|
-------0-0-0-0-0-0-0-0-0-0--|

Played Under Solo � (distorted)
----------------------|-------------------------------|
----------------------|-------------------------------|
------------9------9--|--7--------7--------5----------|
------------9------9--|--7--------7--------5----------|
--2---2/7---7------7--|--5--------5--------3----------|
--0-------------------|-------------------------3--2--|


Solo II � (distorted)
----------------------------------------------------------------------12--|
-15---------------------------------------------------------------12------|
-14b---14br-12---14-12----11h12p11------11---------12-14-12--14b----------|
------------------------------------14------12-14-------------------------|
--------------------------------------------------------------------------|
--------------------------------------------------------------------------|

----------12----------------------------------------------------14/15--------|
------12------15p12------12---------------------14--14--13-------------------|
-14b-----------------15------15-14----12br------14--14--13--12\\-------------|
--------------------------------------------14-------------------------------|
-----------------------------------------------------------------------------|
-----------------------------------------------------------------------------|

-14------15--14--15/17----15-14h15p14/12------15-14-----------------------|
-----12-----------------------------------12---------12--------------15---|
----------------------------------------------------------12-14-12---14b--|
--------------------------------------------------------------------------|
--------------------------------------------------------------------------|
--------------------------------------------------------------------------|

---------------------12--------------------|
-----------------12------15-15b-12----15b--|
-12------12-14b----------------------------|
-----14------------------------------------|
-------------------------------------------|
-------------------------------------------|

-------------------|-----------------------|
-12h15p12/-----7\\--|--5h7p5---------------|
-------------------|-----------------------|
-------------------|-----------------------|
-------------------|-----------------------|
-------------------|-----------------------|


Ending � repeat and fade out . . . .
-0--------0--------|-----------0-----7--|--7--------7p0--------|
-------0-----0-----|--------0-----0-----|-----0----------0-----|
----0-----------0--|-----0--------------|--------0----------0--|
-------------------|--------------------|----------------------|
-------------------|--------------------|----------------------|
-0-----------------|--0-----------------|--0-------------------|

-------7--8--7h8p7/5--|--7--5/3--0--|
-------0--0-----------|--0----------|
----0-----------------|-------------|
----------------------|-------------|
----------------------|-------------|
-0--------------------|-------------|

----------0--------|-----------0--------|
-------0-----0-----|--------0-----0-----|
----0-----------0--|-----0-----------0--|
-------------------|--------------------|
-------------------|--------------------|
-0-----------------|--0-----------------|

10.UNTIL IT SLEEPS

Intro (Bass arranged for guitar):
|------------------------------|
|------------------------------|
|------------------------------|
|------------------------------|
|------32----------32----------|
|-5-5------3---5-5------0--1/5-|
pm............................

Verse:
|-----0------------------0~-|
|-------3--1--0----------1~-|
|----------------2--0----2~-|
|---2--------------------2~-|
|-0----------------------0~-|
|---------------------------|


Chorus
|---------------------------------|
|---------------------------------|
|---------------------------------|
|---------------------------------|
|-7-7-7-7-7-7-7-7-5-5-5-5-3-3-3-3-|
|-5-5-5-5-5-5-5-5-3-3-3-3-1-1-1-1-|
pm...............................

Bridge:
|-----0-------------------------0--------------------|
|-------3--1--0-------------------3--1---------------|
|----------------2--0----------------------0-----0---|
|---2-------------------------2------------0-----3---|
|-0------------------------0---------------2-----3---|
|----------------------0-3--------------3------1-----|

Post-Chorus:
|---------------------------------------------|
|---------------------------------------------|
|---------------------------------------------|
|-9-9-9-9-9-9-9-7-7-7-7-5-5-5-5-5-5-5-5-5-7-7-|
|-7-7-7-7-7-7-7-5-5-5-5-3-3-3-3-3-3-3-3-3-5-5-|
|---------------------------------------------|

Solo:
|-/5-5-5-5-5-5-5-5-8-8-8-7-7-7-3-3--13b-13b--12p11-p9--11--------7p5-|
|----------------------------------------------------------5h6-8-----|
|--------------------------------------------------------------------|
|--------------------------------------------------------------------|
|--------------------------------------------------------------------|
|--------------------------------------------------------------------|

|-------1-1-1-0-3-3/8-8-8-7-7-7-2-2--13b-13b--12p11-p9--11-------7p5-|
|-3-3-3----------------------------------------------------5h6-8-----|
|--------------------------------------------------------------------|
|--------------------------------------------------------------------|
|--------------------------------------------------------------------|
|--------------------------------------------------------------------|

Each of these bars played over the verse riff played by the second guitar
|------------------------|
|-------5--6--8--10--12b-|
|------------------------|
|------------------------|
|-0-0--------------------|
|------------------------|

|-------------------------|
|-------5--6--8--10--11b--|
|-------------------------|
|-------------------------|
|-0-0---------------------|
|-------------------------|

|-----------------------------------------------|
|-------5--6--8--10--12--13--15--17--18--19--20-|
|-----------------------------------------------|
|-----------------------------------------------|
|-0-0-------------------------------------------|
|-----------------------------------------------|

Outro:
(Bass arranged for guitar):
|--------------------------|
|--------------------------|
|--------------------------|
|--------------------------|
|------32------------------|
|-5-5------3---5-5---1/3-1-|
pm........................
followed straight by
|--------5~-|
|--------5~-|
|--------x~-|
|--------x~-|
|---5----5~-|
|-5---5—-5~-|

11.FOR WHOM THE BELL TOLLS

gtr.1
|-------------------------------------|
|-------------------------------------|
|-------------------------------------|
|-4-4----4-4---2----------------------|         5x
|-4-4----4-4---2----------------------|
|-2-2----2-2---0----------------------|

|-----------------------|
|-----------------------|
|-----------------------|
|--4-4----2-------------|        8x
|--4-4----2-------------|
|--2-2----0-------------|

gtr2 does this  all 5 times with the first bit then does it only 4 times with the second bit.
(he does this right after the first gtr  but youll figure it out if you've heard it)
THIS PART HERE IS REALLY BASS BUT THIS IS IT TABBED OUT FOR GUITAR IF YOUR PLAYIN ALONE.
|---------------------------------------------|
|---------------------------------------------|
|---------------------------------------------|
|-12--11--10--9-------------12----------------|so that would make it  9x RIGHT?
|---------------------10--9-------------------|
|---------------------------------------10--9-|
gtr 2

Ok for this part you do the chord 5&7 in that bar the first time and for 2nd time you do 
with the 2&4 chord at the end of it instead of the 7&5.and the alternate
|---------------------------------------------------------|
|---------------------------------------------------------|
|---------------------------------------------------------|
|----------------------------------------------|---|-4----|
|--2--5--4--3--2--5--4--3--2--5--4--3--2--5--4-|-7-|-2----|
|--0--3--2--1--0--3--2--1--0--3--2--1--0--3--2-|-5-|------|

this part is the 1st guitar and it comes rite after the second guitar is done that last riff
so listen or yull miss it!!
gtr1
|---------------------------------------|
|---------------------------------------|
|---------------------------------------|
|-2-----5----2----5----9--7-------------|        2x letting it RING OUT
|-2-----5----2----5----9--7-------------|
|-0-----3----0----3----7--5-------------|


gtr2 plys this along with gtr 1
|----------------------------------------------------------------------------------------------|
|--8----7--------7-8-----7---------------------------------------------------------------------|
|-----9----7--9-------9-----7-9-------ok you play this monster 16x FAST along wit that last 1--|
|----------------------------------------------------------------------------------------------|
|----------------------------------------------------------------------------------------------|
|----------------------------------------------------------------------------------------------|

gtr 1
(this is the chorus too but for now u just play it through)
|-------------------------------------------------------|
|-------------------------------------------------------|
|---------------------------------------3---------------|
|---------5-----------7-----------5-----3----4----------|
|---------5-----------7-----------5-----1----4----------|
|---0-0-0-3-----0-0-0-5-----0-0-0-3----------2----------|

|---------------------------------------------|
|---------------------------------------------|
|------------------------------------3--------|
|---------5------7----------5--------3-4-3----|        ok alternate these ones 2x each
|---------5------7----------5--------1-4-3----|
|--0-0-0--3--0-0-5----0-0-0-3--0-0-0---2-1----|

Verse let ring out and each chord changes at the first of every line of lyrics
|-----------------------------|------------------------------------|
|-----------------------------|------------------------------------|
|-odd line of lyrics----------|2nd line,and 4th,8th you know-------|
|-2-----------------5---------|---2--------5-------10-----7--------|
|-2-----------------5---------|---2--------5-------10-----7--------|
|-0-----------------3---------|---0--------3-------8------5--------|
DO CHORUS,THEN,
this part is between the 1st and 2nd verse im workin on gtr 2 but this is
gtr1
|---------------------------------------------------------------------------------------|
|---------------------------------------------------------------------------------------|
|---------------------------------------------------------------------------------------|
|-2----2----2----5--5-5-5-5--5-5-5-2----9----2----2----2----5--5-5-5-5--5-5-5-2-----5---|
|-2----2----2----5--5-5-5-5--5-5-5-2----9----2----2----2----5--5-5-5-5--5-5-5-2-----5---|
|-0----0----0----3--3-3-3-3--3-3-3-0----7----0----0----0----3--3-3-3-3--3-3-3-0-----7---|
GO RIGHT INTO VERSE 2 AND THEN DO THE CHORUS AGAIN.THEN,

outro
|-----------------------------------------------------|
|-----------------------------------------------------|
|-----------------------------------------------------|
|-9----11--11------9----11---11---12---12-------------|
|-7-----9---9------7----9----9----10---10-------------|
|-0----------------0----------------------------------|

12.WHEREVER I MAY ROAM

(INTRO) (SYNTHIZIZED GUITAR 1)(SITAR ARR.)(2x)


E|------------------------------------------------------------------|
B|---------5---5/6---5-----------8---8/10---6---5-------5---5/6---5-|
G|------------------------------------------------------------------|
D|---------2---2/3---2-----------5---5/7----3---2-------2---2/3---2-|
A|------------------------------------------------------------------|
E|---0---------------------0----------------------------------------|

THEN YOU PLAY THIS ONCE...


E|---------------------------------------------------|
B|---------5---5/6---5-----------8---8/10---10/6---5-|
G|---------------------------------------------------|
D|---------2---2/3---2-----------5---5/7----7-/3---2-|
A|---------------------------------------------------|
E|---0---------------------0-----------------------0-|


(INTRO) (GUITAR 2)(PLAYED SIMALTAINIOUSLY WITH GUITAR 1)(2x)

E--------------------------------------------------------|
B--------------------------------------------------------|
G---7---7h8---7~~~---12---12h13---8~---7~~~7---7h8---7~~~|
D--------------------------------------------------------|
A--------------------------------------------------------|
E--------------------------------------------------------|

(RIFF A) (BOTH GUITARS) (2x)

In this riff you can add the strings in
the optional indications to give the chord extra power.
It sounds more accurate to the way METALLICA plays it.
You can also add vibrato to give a cool sound.)

E|-------------------------------------------------------------------------------------------|
B|-------------------------------------------------------------------------------------------|
G|-------------------------------------------------7---7/9-----------------------------------|
D|--------------------------9---9/10---9-----------5---5/7---10---9----------9---9/10---9----|
A|----2---------------------7---7/8----7---------------------8----7----------7---7/8----7----|
E|----0--------------------(0)--------(0)-------------------------0---------(0)--------(0)---|

THEN...

E|----------------------|
B|----------------------|
G|----------------------|
D|---7---8---9---10\\---|
A|---7---8---9---10\\---|
E|---5---6---7---8-\\---|


(MAIN RIFF) (BOTH GUITARS)


E|------------------------------------------------------------------------------------|
B|------------------------------------------------------------------------------------|
G|------------------------------7---7/9-----------------------------------------------|
D|---------9---9/10---9---------5---5/7---10~---9-----9---9/10---9-----7---8---9---10-|
A|---2-----7---7/8----7---7---------------8-~---7-----7---7/8----7-----7---8---9---10-|
E|---0--------------------0---------------------0----------------------5---6---7---8--|

E|------------------------------------------------------------------------------------|
B|------------------------------------------------------------------------------------|
G|------------------------------7---7/9-----------------------------------------------|
D|---------9---9/10---9---------5---5/7---10~---9-----9---9/10---9-----7---8---9---10-|
A|---2-----7---7/8----7---7---------------8-~---7-----7---7/8----7-----7---8---9---10-|
E|---0--------------------0---------------------0----------------------5---6---7---8--|

E|------------------------------------------------------------------------------------|
B|------------------------------------------------------------------------------------|
G|------------------------------7---7/9-----------------------------------------------|
D|-------------9/10---9---------5---5/7---10~---9-----9---9/10---9-----7---8---9---10-|
A|---5-6-7-8---7/8----7---7---------------8-~---7-----7---7/8----7-----7---8---9---10-|
E|------------------------0---------------------0----------------------5---6---7---8--|

THEN YOU PLAY THIS...


E|------------------------------------------------------------------------------|
B|------------------------------------------------------------------------------|
G|----------------------------------------------------------------------------0-|
D|-------------2----------------------------3-----------------------------2-----|
A|---5-6-7-8---2------------------------3-----------------------------2---------|
E|-------------0--------------------1-----------------------------0-------------|


E|-----------------------------------------------|
B|-----------------------------------------------|
G|-----------------------------------------------|
D|---------------------------3-------------------|
A|-----------------------3-----------------------|
E|-------------------1---------------------------|

(VERSE 1) (GUITAR 1)(MEASURE 1)

E|----------------------------------------------------------------------------------------------|
B|----------------------------------------------------------------------------------------------|
G|---------------------------------------------------(2)----------------------------------------|
D|----------2--------------------8--------------------2--------------------8--------------------|
A|--/12-----2--------------------8--------------------0--------------------8--------------------|
E|--/10-----0--------------------6-----------------------------------------6--------------------|

(MEASURE 2)

E|---------------------------------------------------------------------------------------------|
B|---------------------------------------------------------------------------------------------|
G|--------------------------------------------------(2)----------------------------------------|
D|---------2--------------------8--------------------2--------------------8--------------------|
A|---------2--------------------8--------------------0--------------------8--------------------|
E|---0---0-0--------------------6-----------------------------------------6--------------------|


(VERSE 1) (GUTIAR 2)(Once guitar 1 plays measure 1,
then guitar 2 comes in with this clean riff over guitar 1 measure 2)

E|---------------0-----------|
B|---------------------0-----|
G|---------------------------|	2x
D|---------------------------|
A|---------2-----------------|
E|---0-----------------------|

E|---------------------------|
B|---------------3-----------|
G|---------------------3-----|	2x
D|---------3-----------------|
A|---1-----------------------|
E|---------------------------|

E|---------------------------|
B|---------------3-----------|
G|---------------------3-----|	2x
D|---------------------------|
A|---------1-----------------|
E|---3-----------------------|

E|---------------------------|
B|------------------3--------|
G|-------------------------3-|	2x
D|------------3--------------|
A|---1-----------------------|
E|---------------------------|


(PRE-CHORUS)

E|-----------------------------------------------------------------------------------|
B|-----------------------------------------------------------------------------------|
G|------------------------------------------------7---7/9----------------------------|
D|---3---3---4---5-------------9---10---9---------5---5/7---10~---9-----9---9/10---9-|
A|---1---1---2---3---5-6-7-8---7---8----7---7---------------8-~---7-----7---7/8----7-|
E|------------------------------------------0---------------------0------------------|

(CHORUS)

E|---------------------------------------------------------------------------------------|
B|---------------------------------------------------------------------------------------|
G|---------------------------------------------------------------------------------------|
D|---7---8---9---10----3---3-3-----3-----3---2h3---2----2---2-2-----2-----2---2h3---2----|
A|---7---8---9---10----3---3-3-----3-----3--------------2---2-2-----2-----2--------------|
E|---5---6---7---8-----1---1-1-1—1-1-1-1-1--------------0---0-0-0-0-0-0-0-0--------------|

E|-----------------------------------|
B|-----------------------------------|
G|---3---3-3-----3-----3-------------|
D|---3---3-3-----3-----3---2h3---2---|
A|---1---1-1-1-1-1-1-1-1-------------|
E|-----------------------------------|


(BRIDGE)

E|-------------------------|
B|-------------------------|
G|-------------------------|
D|---2----------5----------|
A|---0----------5----------|
E|--------------3----------|


E|------------------------------------------------------------------------------------|
B|------------------------------------------------------------------------------------|
G|------------------------------7---7/9-----------------------------------------------|
D|---------9---9/10---9---------5---5/7---10~---9-----9---9/10---9-----7---8---9---10-|
A|---2-----7---7/8----7---7---------------8-~---7-----7---7/8----7-----7---8---9---10-|
E|---0--------------------0---------------------0----------------------5---6---7---8--|


E|------------------------------------------------------------------------------------|
B|------------------------------------------------------------------------------------|
G|------------------------------7---7/9-----------------------------------------------|
D|---------9---9/10---9---------5---5/7---10~---9-----9---9/10---9-----7---8---9---10-|
A|---2-----7---7/8----7---7---------------8-~---7-----7---7/8----7-----7---8---9---10-|
E|---0--------------------0---------------------0----------------------5---6---7---8--|


E|-----------------------------------------------------------------------------------|
B|-----------------------------------------------------------------------------------|
G|-----------------------------------------------------------------------------------|
D|-------------2----------------------------3----------------------------------------|
A|---5-6-7-8---2------------------------3--------------------------------------------|
E|-------------0--------------------1------------------------------------------------|

(VERSE 2) (GUITAR 1)(MEASURE 1)


E|----------------------------------------------------------------------------------------------|
B|----------------------------------------------------------------------------------------------|
G|---------------------------------------------------(2)----------------------------------------|
D|----------2--------------------8--------------------2--------------------8--------------------|
A|--/12-----2--------------------8--------------------0--------------------8--------------------|
E|--/10-----0--------------------6-----------------------------------------6--------------------|

(MEASURE 2)

E|---------------------------------------------------------------------------------------------|
B|---------------------------------------------------------------------------------------------|
G|--------------------------------------------------(2)----------------------------------------|
D|---------2--------------------8--------------------2--------------------8--------------------|
A|---------2--------------------8--------------------0--------------------8--------------------|
E|---0---0-0--------------------6-----------------------------------------6--------------------|


(VERSE 2) (GUTIAR 2)
(Just do the same thing as you did in verse 1)

E|---------------0-----------|
B|---------------------0-----|
G|---------------------------|	2x
D|---------------------------|
A|---------2-----------------|
E|---0-----------------------|

E|---------------------------|
B|---------------3-----------|
G|---------------------3-----|	2x
D|---------3-----------------|
A|---1-----------------------|
E|---------------------------|

E|---------------------------|
B|---------------3-----------|
G|---------------------3-----|	2x
D|---------------------------|
A|---------1-----------------|
E|---3-----------------------|

E|---------------------------|
B|------------------3--------|
G|-------------------------3-|	2x
D|------------3--------------|
A|---1-----------------------|
E|---------------------------|

(PRE-CHORUS)
E|-----------------------------------------------------------------------------------|
B|-----------------------------------------------------------------------------------|
G|------------------------------------------------7---7/9----------------------------|
D|---3---3---4---5-------------9---10---9---------5---5/7---10~---9-----9---9/10---9-|
A|---1---1---2---3---5-6-7-8---7---8----7---7---------------8-~---7-----7---7/8----7-|
E|------------------------------------------0---------------------0------------------|

(CHORUS)

E|------------------------------------------------------------------------------------|
B|------------------------------------------------------------------------------------|
G|------------------------------------------------------------------------------------|
D|---7---8---9---10----3---3-3-----3-----3---2h3---2----2---2-2-----2-----2---2h3---2-|
A|---7---8---9---10----3---3-3-----3-----3--------------2---2-2-----2-----2-----------|
E|---5---6---7---8-----1---1-1-1—1-1-1-1-1--------------0---0-0-0-0-0-0-0-0-----------|

E|-----------------------------------|
B|-----------------------------------|
G|---3---3-3-----3-----3-------------|
D|---3---3-3-----3-----3---2h3---2---|
A|---1---1-1-1-1-1-1-1-1-------------|
E|-----------------------------------|


(BRIDGE)

E|-------------------------|
B|-------------------------|
G|-------------------------|
D|---2----------5----------|
A|---0----------5----------|
E|--------------3----------|


(SOLO 1) (WELL, IT ISN'T MUCH OF A SOLO, BUT WHO CARES)(GUITAR 1)


E|-------------------------------------|
B|-------------------------------------|
G|----------------------------------9~~|
D|---------------------6h7-6~~-9h10----|
A|---2-----/7---7h8-7~~----------------|
E|---0---------------------------------|


E|----------------------------------------------|
B|----------------------------------------------|
G|----------------------------8-9---11/12---8~~~|
D|-------------------6-7-9-10-------------------|
A|---2-----------7-8----------------------------|
E|---0-----0-0----------------------------------|

(GUITARS 1&2)


E|------------------------------------------|
B|--------------------------------------8---|
G|-----------------------4-5-4---8-9----9---|
D|---------------6-7-6---6-7-6---9-10-------|
A|---2---2-------7-8-7----------------------|
E|---0---0---0------------------------------|

E|----------------------------------------------------|
B|----------------------------------7-8---10-12---7~~~|
G|---------------------4-5---8-9----8-9---11-12---8~~~|
D|---------------6-7---6-7---9-10---------------------|
A|---2---2-------7-8----------------------------------|
E|---0---0---0----------------------------------------|

(CHORUS)


E|------------------------------------------------------------------|
B|------------------------------------------------------------------|
G|------------------------------------------------------------------|
D|---3---3-3-----3-----3---2h3---2----2---2-2-----2-----2---2h3---2-|
A|---3---3-3-----3-----3--------------2---2-2-----2-----2-----------|
E|---1---1-1-1—1-1-1-1-1--------------0---0-0-0-0-0-0-0-0-----------|

E|-----------------------------------|
B|-----------------------------------|
G|---3---3-3-----3-----3-------------|
D|---3---3-3-----3-----3---2h3---2---|
A|---1---1-1-1-1-1-1-1-1-------------|
E|-----------------------------------|


(BRIDGE)

E|-------------------------|
B|-------------------------|
G|-------------------------|
D|---2----------5----------|
A|---0----------5----------|
E|--------------3----------|


(FINAL BRIDGE)

E|-----------------------------------------------3--1---|
B|-----------------------------------------------0--1---|
G|-------------------------5-----3------3-----1--0--2---|
D|---2----------5----------5-----3------3-----2--0--3---|
A|---0----------5----------3-----1------1-----2--2--3---|
E|--------------3----------3------------1-----0--3--1---|

13.FADE TO BLACK

Acoustic gtr.
|------------------------|------------------------|
|------------------------|------------------------|
|-------0----------------|-------0----------------|
|----4-----4-----4-----4-|----4-----4-----4-----4-|
|-2-----------2-----5----|-0-----------0-----5----|
|------------------------|------------------------|

|------------------------|------------------------|
|------------------------|------------------------|
|-------0----------------|-------2----------------|
|----4-----4-----4-----4-|----2-----2-----2-----2-|
|-2-----------2-----5----|-4-----------4-----0----|
|------------------------|------------------------|

w/Flanger or chorus
|----------------------------------------------------------|
|-----------------------------------------------7----------|
|--------------------------------------------7-(7)---------|
|--------------------------------------/-9-----------9-----|
|----------------------------------------------------------|
|----------------------------------------------------------|

|--------------------------|-----------------------|
|-----7--8-/-10------8--10-|-12---10---8---10------|
|--------------------------|-----------------------|
|--------------------------|-----------------------|
|--------------------------|-----------------------|
|--------------------------|-----------------------|

           p  p sl  h p           h
|------------------------------|---------------------|
|-(10)---12^10^8-\-7^8^7-----7-|-7^8--7-----7--------|
|-------------------------9----|---------9-----9---7-|
|------------------------------|---------------------|
|------------------------------|---------------------|
|------------------------------|---------------------|

                    sl  sl               p
|----------------------------|-----------------|-----|
|----------------------------|---------------8-|-7---|
|----------------------7-\-6-|----------7^6----|-----|
|-7---9----------(9)-\-------|-----------------|-----|
|----------------------------|-----------------|-----|
|----------------------------|-----------------|-----|

   sl   ~~~~~~~~~~~~~~
|---------------------|
|-8-/-10--------------|
|---------------------|
|---------------------|
|---------------------|
|---------------------|
                                           full
                   p                        )\ ~~~~~~~~~~~~~
|---14-19-14-----15^14---------------------/--\------------|
|-15--------15--------15---17-15-14-------/----\-----------|
|-------------16--------14---------16-14-/----(14)---------|
|----------------------------------------------------------|
|----------------------------------------------------------|
|----------------------------------------------------------|

    h     ~~~~~~~~~~   h                  h  p
|---------------------------------------------------------|
|---------------------------------14-15-14^15^14----14^15-|
|-14^16---------------------14-16----------------16-------|
|--------14----------14^16--------------------------------|
|---------------------------------------------------------|
|---------------------------------------------------------|

                                         ~~~~~~~~~~~~~~~~~
|----19--17--15----------15--17-|-14----------------------|
|-14----------------------------|----15-------------------|
|-------------------------------|-------16----------------|
|-------------------------------|-------------------------|
|-------------------------------|-------------------------|
|-------------------------------|-------------------------|

|-14--15--14--------------14--15--14------17----15--14-----|
|---------------15--------------------15-------------------|
|------------------14--------------------------------------|
|----------------------------------------------------------|
|----------------------------------------------------------|
|----------------------------------------------------------|

                                              h  h
|------------------------|---------12-13-15-12^13^15---17--|
|------------------------|-12-13-15------------------15----|
|------------------12-14-|---------------------------------|
|----------12-14-15------|---------------------------------|
|-12-14-15---------------|---------------------------------|
|------------------------|---------------------------------|

Acoustic gtr.
|------------------------|---------------------------|
|------------------------|-------------------0----3--|
|------------------------|-------1--------1----------|
|-------0-----------2----|----2--------2-------------|
|----3-----------2-----2-|-2--------2----------------|
|-1--------1--4----------|---------------------------|

   h             h
|----------0----------|------------0----------|
|-0^1---------------1-|-(1)---1-------------0-|
|-2---2---------0^2---|--0--------------0^2---|
|-2-----2-----2-------|--2------2-----2-------|
|-0-------------------|--3--------------------|
|---------------------|-----------------------|

                                        sl
|------------3-----3--3-|---------------------|
|-(0)---3---------------|---------0--(1)-/-3--|
|--0---------------2--0-|-0-------0--(2)-/-4--|
|---------0-----0-------|-----2---------------|
|-----------------------|-------2-------------|
|--3--------------------|-0-------------------|

   h              h                       h
|----------0-----------|------------0----------|
|-0^1----------------1-|-(1)---1-------------0-|
|-2---2----------0^2---|--0--------------0^2---|
|-2-----2-----2--------|--2------2-----2-------|
|-0--------------------|--3--------------------|
|----------------------|-----------------------|

                     h p                        sl
|-------------3-------------|-0------------------------|
|-(0)---3-------------------|-0----------0---(1)-/-3---|
|--0----------------0^2^0-0-|-0----------0---(2)-/-4---|
|----------0-----0----------|-2----2-------------------|
|---------------------------|---------2----------------|
|--3------------------------|----0---------------------|

P.M.--------------------|               P.M.----------|
|------------------------|----------------------------|
|-5--5--5--5--5--5--5--5-|-0-------2--2---------------|
|-5--5--5--5--5--5--5--5-|-2-------2--2---------------|
|-2--2--2--2--2--2--2--2-|-2-------2--2---------------|
|------------------------|-0-------0--0-----------5---|
|-0--0--0--0--0--0--0--0-|---------------0--0--3------|

               P.M.-----------------------------|
|-----------------------------------------------|
|-5-------5--5----------------------------------|
|-5-------5--5----------------------------------|
|-5-------5--5----------------------------------|
|-3-------3--3-----------5----------------------|
|---------------0--0--3-------------------------|
                                 P.M.-----------|
|-----------------------------------------------|
|-2-------2--2-----7---9-----9--9---------------|
|-2-------2--2-----7---9-----9--9---------------|
|-2-------2--2-----7---9-----9--9--------5--5---|
|-0-------0--0-----5---7-----7--7--------3--2---|
|----------------------------------0--0---------|

               P.M.------|                P.M.----------|
|--------------------------|----------------------------|
|-0-------2--2-------------|-5-------5--5---------------|
|-2-------2--2-------------|-5-------5--5---------------|
|-2-------2--2-------------|-5-------5--5---------------|
|-0-------0--0-----------5-|-3-------3--3-----------5---|
|---------------0--0--3----|---------------0--0--3------|

               P.M.--|
|---------------------|------------|
|-2-------2--2--------|------------|
|-2-------2--2--------|-1----------|
|-2-------2--2--------|-2----------|
|-0-------0--0--5--5--|-2----------|
|---------------3--2--|-0----------|

    ~~~~~~~~~~~           ~~~~~    sl
|---------------------|--------------------------|
|-10-----------10--12-|-13------13-/-15--13--12--|
|--9------------9--11-|-12------12-/-14--12--11--|
|---------------------|--------------------------|
|---------------------|--------------------------|
|---------------------|--------------------------|

  ~~~~~~~~~~~~~~~~   sl       ~~~~~~~~~~~  sl        sl
|--------------------------|------------------------------|
|--------------------------|------------------------------|
|-12---------------12-/-14-|-9-----------9-/-11---11-/-12-|
|-12---------------12-/-14-|-9-----------9-/-11---11-/-12-|
|--------------------------|------------------------------|
|--------------------------|------------------------------|

                                            full
                                             /\
    sl   ~~~~~~~~~~~~~~           ~~~~~~     ) )\
|-----------------------------|-------------/-/--\---------|
|--------------------------12-|-13------15-/-/------13-----|
|-12-/-14--------------14--11-|-12------14--/-------12-----|
|-12-/-14--------------14-----|----------------------------|
|-----------------------------|----------------------------|
|-----------------------------|----------------------------|

     full    full    full    full
      /\      /\      /\      /\
      ) )     ) )     ) )     ) )\  ~~~~~~~~~~~~~~~~~~~~~~~
|----/-/-----/-/-----/-/-----/-/|-\------------------------|
|-15/-/---15/-/---15/-/---15/-/-|(15)----------------------|
|-14-/----14-/----14-/----14-/--|(14)----------------------|
|-------------------------------|--------------------------|
|-------------------------------|--------------------------|
|-------------------------------|--------------------------|

   sl                    sl          sl
|---------------------|--------------------------|
|---------------------|--------------------------|
|-7-/-9-------9---9---|-7-/-9-------9-/-12--11---|
|-7-/-9-------9---9---|-7-/-9-------9-/-12--11---|
|-5-/-7-------7---7---|-5-/-7-------7-/-10---9---|
|---------------------|--------------------------|

                        P.M.------------------------------|
|-----------------------|---------------------------------|
|-----------------------|---------------------------------|
|---7-------7---7-------|-----------------------------4---|
|---7-------7---7-------|-9-9-9--7-7-7--5-5-5--4-4-4------|
|---5-------5---5-------|---------------------------------|
|-----------------------|---------------------------------|

   sl                    sl          sl
|---------------------|--------------------------|
|---------------------|--------------------------|
|-7-/-9-------9---9---|-7-/-9-------9-/-12--11---|
|-7-/-9-------9---9---|-7-/-9-------9-/-12--11---|
|-5-/-7-------7---7---|-5-/-7-------7-/-10---9---|
|---------------------|--------------------------|

                        P.M.------------------------------|
|-----------------------|---------------------------------|
|-----------------------|---------------------------------|
|---7-------7---7-------|---------------------------------|
|---7-------7---7-------|-9-9-9--7-7-7--5-5-5--4-4-4--5---|
|---5-------5---5-------|---------------------------------|
|-----------------------|---------------------------------|

   sl              ~~~~~~~~    sl                  ~~~~~~~
|--------------------------|------------------------------|
|-7-/-8-------8---8--------|-7-/-8-------8---12---10------|
|--------------------------|------------------------------|
|-7-/-9-------9---9--------|-7-/-9-------9---12---11------|
|--------------------------|------------------------------|
|--------------------------|------------------------------|

               ~~~~~~~ P.M.----------------------------------|
|---------------------|--------------------------------------|
|-7-------7-----------|-12-12-12--10-10-10--8-8-8--7-7-7-----|
|-------------7-------|--------------------------------------|
|-7-------7---7-------|-12-12-12--11-11-11--9-9-9--7-7-7-9---|
|---------------------|--------------------------------------|
|---------------------|--------------------------------------|

    sl             ~~~~~~~                        ~~~~~~~~
|-------------------------|-------------------------------|
|-7-/-8-------8---8-------|-7---8-------8---12---10-------|
|-------------------------|-------------------------------|
|-7-/-9-------9---9-------|-7-/-9-------9---12---11-------|
|-------------------------|-------------------------------|
|-------------------------|-------------------------------|

                ~~~~~~~~~~~ P.M.-----------------------------|
|--------------------------|---------------------------------|
|--------------------------|-7-7-7--5-5-5--3-3-3--2-2-2--3---|
|--11------11--11----------|-7-7-7--6-6-6--4-4-4--2-2-2--4---|
|---7-------7---7----------|---------------------------------|
|---9-------9---9----------|---------------------------------|
|--------------------------|---------------------------------|

P.M.--------|          P.M.-----------------------|
|----------------------|--------------------------|
|----------------------|--------------------------|
|--------------9-----9-|--------------12-11-------|
|--------------9-----9-|--------------12-11-------|
|--------------7-----7-|--------------10--9-------|
|-0--0--0--0-----------|-0--0--0--0---------------|

P.M.--------|        P.M.--------------------------------|
|--------------------|-----------------------------------|
|--------------7-----|-----------------------------------|
|--------------7-----|------------------------------4----|
|--------------7-----|-9-9-9--7-7-7--5-5-5--4-4-4--(5)---|
|--------------5-----|-----------------------------------|
|-0--0--0--0---------|-----------------------------------|

       sl                                      P.M.-|
|-----------------------|--------------------------------|
|-----------------------|--------------------------------|
|-----------------------|--------------------------------|
|-------/-4-------2/5---|-(2/5)--4-------2---------------|
|-*2/5------------------|--------5-------4--2/5--4-------|
|-----------------------|------------------------5---2/5-|
*Gtr. II indicated to left slash in TAB

       sl                                   P.M.-|
|---------------------|------------------------------|
|---------------------|------------------------------|
|---------------------|------------------------------|
|-------/-4-------2/5-|-(2/5)-4-------2--------------|
|-4-------------------|-------5-------4--2/5--4------|
|-5-------------------|-----------------------5--2/5-|

        sl                                     P.M.-|
|------------------------|------------------------------|
|------------------------|------------------------------|
|------------------------|------------------------------|
|--------/-4-------2/5---|-(2/5)-4-------2--------------|
|-2----------------------|-------5-------4--2/5--4------|
|-3----------------------|-----------------------5--2/5-|

         sl                                     P.M.--|
|-------------------------|----------------------------|
|-------------------------|----------------------------|
|-------------------------|----------------------------|
|---------/-4-------2/5---|-(2/5)-7--------5--4--2--4--|
|-4-----------------------|-------5--------4--2--------|
|-5-----------------------|----------------------5--2--|

Guitar Solo:             Full    Full   Full
       sl                  )       )      )
|------------------|------/-------/------/----|
|------------------|-----/-------/------/-----|
|----------------7-|---9/------9/-----9/------|
|-------/-9---9----|--------------------------|
|------------------|--------------------------|
|------------------|--------------------------|

         Full
           )\   p
|---------/--\-------------------|
|--------/----\---------------7--|
|-(9)--9/----(9)^7--9---9---9----|
|--------------------------------|
|--------------------------------|
|--------------------------------|


   h     h p        h
|----------------------------------|
|-7^8---7^8^7------7^8-------7-----|
|---------------7----------------7-|
|----------------------------------|
|----------------------------------|
|----------------------------------|

   h                           sl              h
|-----------------------------------|----------------------|
|-7^8---7-----10---10---8---10-/-12-|-10---8--8^10---8---7-|
|----------7------------------------|----------------------|
|-----------------------------------|----------------------|
|-----------------------------------|----------------------|
|-----------------------------------|----------------------|


|-----------------------|----------------------------------|
|---8---10-----8--------|----------------------------------|
|-----------9-----9---7-|----------------------------7---9-|
|-----------------------|-----7-------9---9-------9--------|
|-----------------------|----------------------------------|
|-----------------------|----------------------------------|

    Full
      )\   p
|----/--\--------------------------|
|---/----\-------------------------|
|-9/----(9)^7--9---7---7-----7---9-|
|-------------------------9--------|
|----------------------------------|
|----------------------------------|

    Full         Full        Full        Full
      )     p      )    p      )    p      )
|----/--7---------/-7---------/-7---------/---|
|---/-----10^7---/----10^7---/----10^7---/--7-|
|-9/-----------9/----------9/----------9/-----|
|---------------------------------------------|
|---------------------------------------------|
|---------------------------------------------|

         Full       Full        Full        Full
    p      )   p      )    p      )    p      )
|---------/----------/-7---------/-7---------/-7-|
|-10^7---/-7-10^7---/----10^7---/----10^7---/----|
|------9/---------9/----------9/----------9/-----|
|------------------------------------------------|
|------------------------------------------------|
|------------------------------------------------|

    p         p    p         p    p
|-10^7----7-10^7-10^7----7-10^7-10^7----7-|
|------10-------------10-------------10---|
|-----------------------------------------|
|-----------------------------------------|
|-----------------------------------------|
|-----------------------------------------|

    p         p    p         p    p
|-10^7----7-10^7-10^7----7-10^7-10^7----7-|
|------10-------------10-------------10---|
|-----------------------------------------|
|-----------------------------------------|
|-----------------------------------------|
|-----------------------------------------|

    Full    Full
      )       )
     /       /
|-10/-----10/---10-8-7-8-7----|-7-------------------------|
|--------------------------10-|---10-8-10-8-7-8-7---7-----|
|-----------------------------|-------------------9---9-7-|
|-----------------------------|---------------------------|
|-----------------------------|---------------------------|
|-----------------------------|---------------------------|

                p
|----------------------|------7------------|
|--------------8^7---7-|-8-10---10-8-7-----|
|------------------9---|---------------9-7-|
|-7-----9---9----------|-------------------|
|----------------------|-------------------|
|----------------------|-------------------|

             p                    ~~~~~~
|-------------------|------7--8--7------7--8-|
|-----------8^7---7-|-8-10-------------------|
|---------------9---|------------------------|
|-7---9--9----------|------------------------|
|-------------------|------------------------|
|-------------------|------------------------|

|-10-8-7-8-7----7-------------|-------------------------|
|------------10---10-8-10-8-7-|-8-7---7-----------------|
|-----------------------------|-----9---9-7-9-7-6-7-6---|
|-----------------------------|-----------------------9-|
|-----------------------------|-------------------------|
|-----------------------------|-------------------------|

|------------------7--------|--------------7--------------|
|-----------7-8-10---10-8-7-|-8-7---7-8-10---10-8-7-8^7---|
|-----6-7-9-----------------|-----9---------------------9-|
|-7-9-----------------------|-----------------------------|
|---------------------------|-----------------------------|
|---------------------------|-----------------------------|

                            Full
                              _____Grad. Release
                              \    \3/4
   Full  Full  Full  Full      \            \1/2
      )     )     )     )       )                    \ 1/4
|----/-----/-----/-----/---|---/---------------------------|
|---/-----/-----/-----/----|--/----------------------------|
|-9/----9/----9/----9/-----|-9-9-9-9-9-9-9-9-9-9-9-9-9-9-9-|
|--------------------------|-------------------------------|
|--------------------------|-------------------------------|
|--------------------------|-------------------------------|

   p
|--------------10-10-10-------10-10-10-----10-10-10-|
|---------------7--7--7-------10-10-10-----10-10-10-|
|-9^7---7-------7--7--7--------7--7--7------7--7--7-|
|-----9----x-x----------x-x-x----------x-x----------|
|----------x-x----------x-x-x----------x-x----------|
|---------------------------------------------------|

    Full    Full    Full
      )       )       )~~~~~~   p
|----/-------/-------/-------------------|
|-10/-----10/-----10/---------10^7---7-8-|
|----------------------------------9-----|
|----------------------------------------|
|----------------------------------------|
|----------------------------------------|

   h p         ~~~~~~
|------------------------|-------------------------|
|-7^8^7------------------|-------------------------|
|-------9-7---7--------7-|-9-7---7-----------------|
|-----------9--------9---|-----9---9-7-9-7---7-----|
|------------------------|-----------------9---9-7-|
|------------------------|-------------------------|

                       sl.
|-------------------------12-|
|----------------------------|
|----------------------------|
|----------------------------|
|-9-7-5-7-5---5-5-5-5-7-/----|
|-----------7----------------|

    p         p     p         p     p
|-15^12--12-15^12-14^12--12-15^12-14^12--12-|
|------12--------------12--------------12---|
|-------------------------------------------|
|-------------------------------------------|
|-------------------------------------------|
|-------------------------------------------|

    p         p     p         p     p
|-15^12--12-15^12-14^12--12-15^12-14^12--12-|
|------12--------------12--------------12---|
|-------------------------------------------|
|-------------------------------------------|
|-------------------------------------------|
|-------------------------------------------|

              p         p         p
|-17-14--14-17^14--14-17^14--14-17^14--14-|\-|
|------15--------15--------15--------15------| \
|--------------------------------------------|  \
|--------------------------------------------|  /-repeat
|--------------------------------------------| /
|--------------------------------------------|

    p         p     p         p     p
|-19^15--15-19^15-17^15--15-19^15-17^15--15-| \
|------17--------------17--------------17---|
|-------------------------------------------|
|-------------------------------------------|
|-------------------------------------------|
|-------------------------------------------|

    p         p     p         p     p
|-19^15--15-19^15-17^15--15-19^15-17^15--15-|
|------17--------------17--------------17---|
|-------------------------------------------|
|-------------------------------------------|
|-------------------------------------------|
|-------------------------------------------|

    p         p         p         p
|-21^17--17-21^17--17-21^17--17-21^17--17-|
|------19--------19--------19--------19---|
|-----------------------------------------|
|-----------------------------------------| repeat
|-----------------------------------------|
|-----------------------------------------|

   Full  Full  Full  Full    Full  Full  Full  Full
     )     )     )     )       )     )     )     )~~~~~
|-22/---22/---22/---22/---|-22/---22/---22/---22/------|
|-------------------------|----------------------------|
|-------------------------|----------------------------|
|-------------------------|----------------------------|
|-------------------------|----------------------------|
|-------------------------|----------------------------|

   Full
     )\
|-22/(22)-19-22-20-19-20-19-17-19-17-15-17-15-14-|
|------------------------------------------------|
|------------------------------------------------|
|------------------------------------------------|
|------------------------------------------------|
|------------------------------------------------|

|-15-14-12-14-12-10-12-10-9-10-9-7-|
|----------------------------------|
|----------------------------------|
|----------------------------------|
|----------------------------------|
|----------------------------------|

BEGIN FADE

|-9-7--7---7----------------|------------------------|
|----10--10--8-10-8-7-8-7---|-7----------------------|
|-------------------------9-|---9-7-9-7---7--7--7--7-|
|---------------------------|-----------9------------|
|---------------------------|------------------------|
|---------------------------|------------------------|

         trem. pick
    Full  Full                               Full
      )     )- - - - - - - - - - - - -(        )
|----/-----/----------------|----------\------/-----------|
|---/-----/-----------------|-----------\----/------7---7-|
|-9/-----9------------------|-(9)------(9)-9/-------------|
|-------//------------------|-//--------------------------|
|---------------------------|-----------------------------|
|---------------------------|-----------------------------|

    Full      Full
      )        )\   p
|----/---7----/--\-----|
|-10/------10/--(10)^7-|
|----------------------|
|----------------------| repeat 2x
|----------------------|
|----------------------|

    Full          Full         Full       Full
      )\   p        )\  p        )          )
|----/--\----------/--\---------/----------/-------|
|-10/--(10)^7---10/-(10)^7---10/---10---10/---10---|
|--------------------------------------------------|
|--------------------------------------------------|
|--------------------------------------------------|
|--------------------------------------------------|

    p              p
|-10^7--------------------------------|
|------10^7----7-10^7-----------------|
|-----------10--------9-7---7-9-7-----|
|-------------------------9-------9-7-|
|-------------------------------------|
|-------------------------------------|

       p                    sl.
|------------------------------------|
|------------------------------------|
|------------------------------------|
|-7-7-9^7------------------------7-9-|
|---------9-8-7-5-7-5---5--7-/-9-----|
|---------------------7--------------|

        sl.           p
|------------------------------------12-15-|
|-------------11-12-13^12----12-x-15-------|
|-7-9-11-/-14-------------14---------------|
|------------------------------------------|
|------------------------------------------|
|------------------------------------------|


|-(15)^12----12-15^12-15^12----12-15^12-15^12----12-|
|---------15----------------15----------------15----|
|---------------------------------------------------|
|---------------------------------------------------|
|---------------------------------------------------|
|---------------------------------------------------|

     Full         Full         Full         Full
       )            )            )            )
|-----/------------/------------/------------/--------|
|-15-/---------15-/---------15-/---------15-/---------|
|-14/----------14/----------14/----------14/----------|
|-----------------------------------------------------|
|-----------------------------------------------------|
|-----------------------------------------------------|

14.KILL RIDE MEDLEY

Gtr. 1 plays this
e------------------|
B------------------|
G------------------|
D-4-4-4-4--(2)-----|
A-4-4-4-4--(2)-----|
E-2-2-2-2--(0)-----|

Guitar 2 follows up with:

e--------------------|
B--------------------|
G-7-6-5-4------7-----|
D----------5-4-------|
A----------------5-4-|
E--------------------|
(Repeat 4x)

Then Play: (This is all Palm Muted)
e----------------------------------------|
B----------------------------------------|
G--------------------------------2-------|
D-2-5-4-3-2-5-4-3-2-5-4-3-2-4-5--2-------|
A-2-5-4-3-2-5-4-3-2-5-4-3-2-4-5--0-------|
E-0-3-2-1-0-3-2-1-0-3-2-1-0-2-3----------|
(Repeat 4x)

Verse:
e----------------------------------------|
B----------------------------------------|
G----------------------------------------|
D-(2)---------------(5)------5-----------|
A-(2)---------------(5)------5-----------|
E-(0)---------------(3)------3-----------|

e----------------------------------------|
B----------------------------------------|
G----------------------------------------|
D-(2)---------------(5)-----(10)-----(7)-|
A-(2)---------------(5)-----(10)-----(7)-|
E-(0)---------------(3)------(8)-----(5)-|
(Repeat 2x)

Then The Chorus:
(Palm Mute all Open E String notes)
e----------------------------------------|
B----------------------------------------|
G------------------------------3---------|
D-------5--------7--------5----3---4-----|
A-------5--------7--------5----1---4-----|
E-0-0-0-3--0-0-0-5--0-0-0-3--------2-----|

e----------------------------------------|
B----------------------------------------|
G-------------------------------3--------|
D-------5--------7--------5-----3--4--3--|
A-------5--------7--------5-----1--4--3--|
E-0-0-0-3--0-0-0-5--0-0-0-3-0-0----2--1--|
(Repeat 2x)

e-----
B-----
G-----
D-----
A-----
E-(0)-

Then:
Gtr. 1 (No Distortion)
e------------------------|
B------------------------|
G------------------------|
D-----5------------------|
A---7-------7------------|
E-0-----6-5--------------|
(Play 8x)

Gtr. 2 (1:40)
e-0--
B-0--
G-0--
D-2--
A----
E----
Then Both Gtrs. play:
e-----------------------------|
B-----------------------------|
G-----------------------------|
D-2---------------------------|
A-2---------------5/7---------|
E-0-0-0-0-0-0-0---------------|
PM. . . . . . .
(Repeat 4x)
e-----------------------------|
B-----------------------------|
G-----------------------------|
D-2---------------------------|
A-2---------------5/7---------|
E-0-0-0-0-0-0-0-------6-------|
PM. . . . . . .
(Repeat 4x)

Sum!
e---------------------------------|
B---------------------------------|
G---------------------------------|
D-2-2-----------5-----5-----4-5-4-|
A-2-2--7--------5-----5-----4-5-4-|
E-0-0-----6-5---3--0--3--0--2-3-2-|
(Repeat 12x)

Gtr. 1 plays rhythm while Gtr. 2 plays the solo.

Gtr 1.
e------------------------------|
B------------------------------|
G------------------------------|
D-2----------------------------|
A-2--------------6/7-8\7-5/7---|
E-0-0-0-0-0-0-0--4/5-6\5-3/5---|
PM. . . . . . .
e------------------------|
B------------------------|
G------------------------|
D-2----------------------|
A-2--------------6/7-6/7-|
E-0-0-0-0-0-0-0--4/5-4/5-|
PM. . . . . . .
(Repeat 4x)

Then Gtr 1. Moves Up to:
e---------------------------------|
B---------------------------------|
G---------------------------------|
D-4-------------------------------|
A-4--------------8/9-10/9-7/9-----|
E-2-2-2-2-2-2-2--6/7--8/7-5/7-----|

e------------------------|
B------------------------|
G------------------------|
D-4----------------------|
A-4--------------8/9-8/9-|
E-2-2-2-2-2-2-2--6/7-6/7-|

Gtr 2. plays this insane solo:
e-17p12----------12-17p12----------12-17p12----------12-15p12----------12--|
B-------13-12-13----------13-12-13----------13-12-13----------13-12-13-----|
G--------------------------------------------------------------------------|
D--------------------------------------------------------------------------|
A--------------------------------------------------------------------------|
E--------------------------------------------------------------------------|

-17p12----------12-17p12----------12-17p12-------12-12-15p12----|
-------13-13-12----------13-12-13----------13-12-------------13-|
----------------------------------------------------------------|
----------------------------------------------------------------|
----------------------------------------------------------------|
----------------------------------------------------------------|

-----19-19-17-17-17-17-15-15-15-14-14-14-14-17-17-17-15-15-15-14--|
-/17--------------------------------------------------------------|
------------------------------------------------------------------|
------------------------------------------------------------------|
------------------------------------------------------------------|
------------------------------------------------------------------|

-14-14-14-14---------------------------------17h19------------------|
-------------15---15-17-17---------17p15p14--------17p15p14---------|
-------------------------------------------------------------16-14--|
--------------------------------------------------------------------|
--------------------------------------------------------------------|
--------------------------------------------------------------------|

---------------------------------------------------------------------|
------------------------------------/15--13--12------13--12------12--|
-2--4--3--2-0h2----------------------------------14----------14------|
-----------------4--2-----2-h4---------------------------------------|
----------------------(2)--------------------------------------------|
---------------------------------------------------------------------|

-----------------------------------------------------------|
-------------12----12-12-12-12-12-12-15-13-12-15-13-12-13--|
-11--12--14------------------------------------------------|
-----------------------------------------------------------|
-----------------------------------------------------------|
-----------------------------------------------------------|

-12----------12-------------14-------14-------15-15--------|
----15-15-13----15-13h15-15----17-15----15-17-------17/19--|
-----------------------------------------------------------|
-----------------------------------------------------------|
-----------------------------------------------------------|
-----------------------------------------------------------|

-17-------19-17-------17----------19-17-------17----------19-17--------|
----20-19-------19-19----21-19-19-------19-19----21-19-19-------19-19--|
-----------------------------------------------------------------------|
-----------------------------------------------------------------------|
-----------------------------------------------------------------------|
-----------------------------------------------------------------------|

-17-------------19-17-------------14--14------14------------14--|
----21b-19b-19b-------19b-19b?17b--------17b------17b-17b-------|
----------------------------------------------------------------|
----------------------------------------------------------------|
----------------------------------------------------------------|
----------------------------------------------------------------|

-19-p14------19-p14--14----------14------14------14-14-14------14-14--|
---------17b---------17b-----17b-----17b-----17b-----------17b--------|
----------------------------------------------------------------------|
----------------------------------------------------------------------|
----------------------------------------------------------------------|
----------------------------------------------------------------------|

-----15b-----15b-----15b-----15b-----17b-----17b-----18b-----18b--|
-18b-----18b-----18b-----18b-----20b-----20b-----21b-----21b------|
------------------------------------------------------------------|
------------------------------------------------------------------|
------------------------------------------------------------------|
------------------------------------------------------------------|

-----19b-----19b-22b--(22)---------------------|
-22b-----22b-----------------------------------|
-----------------------------------------------|
-----------------------------------------------|
-----------------------------------------------|
-----------------------------------------------|

After the solo Both Gtrs. play this:
e-----------------------------------------------------------------------|
B-----------------------------------------------------------------------|
G-9--------7--9----------------------------------------------------8----|
D-9--------7--9-----9--------------10-10-10-10-10-9-10-10-10-10-10-8-9--|
A-7--------5--7---7---9h10---------10-10-10-10-10-9-10-10-10-10-10-6-9--|
E-0--0-0----------------------------8--8--8--8--8-7--8--8--8--8--8---7--|
 PM  . .                            .  .  .  .       .  .  .  .
(Repeat 4x)

End with
e-----------------------|
B-----------------------|
G-----------------------|
D-7-7/6-4---------------|
A-9-9/8-6-7-6-5---------|
E---------8-7-6---------|

"Master, Master!"
e------------------|
B------------------|
G------------------|
D-2-2-3-3----------|
A-2-2-3-3----------|
E-0-0-1-1----------|


|------------------------------------------------------------------|
|------------------------------------------------------------------|
|------------------------------------------------------------------|
|----------------------12--11--10----------------------------------| x4
|----------------------12--11--10----------------------------------|
|-0-0-12-0-0-11-0-0----10--9---8----0-0-7-0-0-6-0-0-5-0-4-0-3-0-2--|
  .................                 .............................

|--------------------------------------------------------------------|
|--------------------------------------------------------------------|
|--------------------------------------------------------------------|
|--------------------------------------------------------------------| x2
|-----2-----3-----4-----3-----2-2-----2-----3------5\4---5\4---5\4---|
|-0-1---0-1---0-1---0-1---0-1-----0-1---0-1---0-0--3\2-0-3\2-0-3\2---|
  ...............................................

|-------------------------------------------------------------------------|
|-------------------------------------------------------------------------|
|-------------------------------------------------------------4-----------|
|-------------------------------------------------------------4-----------|
|-----2-----3-----4-----3-----2-2-----2-----3-----4-----3-----2-----------| \
|-0-1---0-1---0-1---0-1---0-1-----0-1---0-1---0-1---0-1---0-1--------| ---|
  ...........................................................           | x2
|--------------------------------------------------------------------| ---|
|-------------------------------------------------------------------------| /
|-------------------------------------------------------------------------|
|-------------------------------------------------------------------------|
|-----2-----3-----4-----3-----2-2-----2-----3------5\4---5\4---5\4--------|
|-0-1---0-1---0-1---0-1---0-1-----0-1---0-1---0-0--3\2-0-3\2-0-3\2--------|
  ...............................................

|-17-12------------12-17-12------------12-17-12------------12-----|
b|--------13-12-13------------13-12-13------------13-12-13--------|
g|----------------------------------------------------------------|
D|----------------------------------------------------------------|
A|----------------------------------------------------------------|
E|----------------------------------------------------------------|


e|-15-12------------12-17-12------------12-17-12------------12--|
b|--------13-12-13------------13-12-13------------13-12-13------|
g|--------------------------------------------------------------|
D|--------------------------------------------------------------|
A|--------------------------------------------------------------|
E|--------------------------------------------------------------|


e|-17-12---------12-12-15-12-----------19-19-17-17-17-17-15-15-15-15--|
b|--------13-12---------------13--/17---------------------------------|
g|--------------------------------------------------------------------|
D|--------------------------------------------------------------------|
A|--------------------------------------------------------------------|
E|--------------------------------------------------------------------|


e|-14-14-14-14-17-17-17-17-15-15-15-15-14-14----------------------------|
b|--------------------------------------------15--15-17-17b19r17b19r17--|
g|----------------------------------------------------------------------|
D|----------------------------------------------------------------------|
A|----------------------------------------------------------------------|
E|----------------------------------------------------------------------|

                                              (whammy bar)
e|-----------17p15p14--------------------------------/\/\/--|
b|-17p15p14------------17p15p14---------------------/-------|
g|--------------------------------16-14~~--<6>\----/--------|
D|---------------------------------------------\/\/---------|
A|----------------------------------------------------------|
E|----------------------------------------------------------|


e|-----------------------------------|
b|-----------------------------------|
g|-2-4-(2)h4-4-3-2-------------------|
D|------------------4-2-----(2)h4~~--|
A|-----------------------2-----------|
E|-----------------------------------|


e|-10-8-7------8-7---------------7~--|
b|---------10-------10-8-7-8-10------|
g|-----------------------------------|
D|-----------------------------------|
A|-----------------------------------|
E|-----------------------------------|


e|-7-7-7-7-7-7--10-8-7-10-8-7--12-10-8-12-10-8--14-12-10-14-10-12--|
They finally End With This:
--------------------------------------------|
--------------------------------------------|
--------------------------------------------|
-----------------------------2-2-2-2-2-2--3-|
-5/4---5/4---5/4---5/4---5/4-2-2-2-2-2-2--3-|
-3/2-0-3/2-0-3/2-0-3/2-0-3/2-0-0-0-0-0-0--1-|

15.LAST CARESS

Intro
|---------------10-12-----10-12--10---7----|
|10-------------10-12--10-10-12--10---7----|
|10--------------8-10--10--8-10---8---5----|
|-8---------------------8------------------|

Verse
   PM...................
|-------------------------10-12-|
|10-----------------------10-12-|
|10------------------------8-10-|
|-8--8-8-8-8-8-8-8-8-8-8--------|

Fill
                PM...........
|10---10---7--7------------------------------------|
|10---10---7--7---10---------------9/10-10-10------|
|-8----8---5--5---10---------------9/10-10-10------|
|------------------8--8-8-8-8-8-8--7/8---8--8------|

Chorus
|-3-----3----5-----5-----------------------------------|
|-1-----1----3-----3--8-8-8-8-7-7-7-7-5-5-5-5-5-5-5-5--|

End
|----------10-12-|
|-10-------10-12-|
|-10--------8-10-|
|--8-------------|

16.MASTER OF PUPPETS

Intro
-----------------------|
-----------------------|
-9--------7---6---5~~--|
-9--------7---6---5~~--|
-7--------5---4---3~~--|
-0---------------------|

(4 Times)
-----------------------|-------------|-----------------------------------|
-----------------------|-------------|-----------------------------------|
-----------------------|--7---6---5--|-----------------------------------|
-----------------------|--7---6---5--|-----------------------------------|
------7--------6-------|--5---4---3--|-----------------------------------|
-0-0------0-0-----0-0--|-------------|--0-0-7-0-0-6-0-0-5-0-4-0-3-0-2-0--|
 \' \'      \' \'     \' \'                   \' \'   \' \'   \' \'   \'   \'   \'   \'

(2Times)
------------------------------------------------------------------|
------------------------------------------------------------------|
------------------------------------------------------------------|
------------------------------------------------------------------|
-----2-----3-----4-----3-----2-2-----2-----3-----5/4---5/4---5/4--|
-0-1---0-1---0-1---0-1---0-1-----0-1---0-1-----0-3/2-0-3/2-0-3/2--|
 \'     \'     \'     \'     \'       \'     \'       \'     \'     \'


-----------------------------------------------------------------|
-----------------------------------------------------------------|
-----------------------------------------------------------------|
------------------------------------------------------------4----|
-----2-----3-----4-----3-----2-2-----2-----3-----4-----3----2----|
-0-1---0-1---0-1---0-1---0-1-----0-1---0-1---0-1---0-1----0------|
 \'     \'     \'     \'     \'       \'     \'     \'     \'      \'
------------------------------------------------------------------|
------------------------------------------------------------------|
------------------------------------------------------------------|
------------------------------------------------------------------|
-----2-----3-----4-----3-----2-2-----2-----3-----5/4---5/4---5/4--|
-0-1---0-1---0-1---0-1---0-1-----0-1---0-1-----0-3/2-0-3/2-0-3/2--|
 \'     \'     \'     \'     \'       \'     \'       \'     \'     \'
------------------------------------------------------------------|
------------------------------------------------------------------|
------------------------------------------------------------------|
-------------------------------------------------------------4----|
-----2-----3-----4-----3-----2-2-----2-----3-----4-----3-----2----|
-0-1---0-1---0-1---0-1---0-1-----0-1---0-1---0-1---0-1----0-------|
 \'     \'     \'     \'     \'       \'     \'     \'     \'      \'

----------------------------------------------|
----------------------------------------------|
----------------------------------------------|
----------------------------------------------|
-----2-----3-----4-----3-----2-2-----2-----3--|
-0-1---0-1---0-1---0-1---0-1-----0-1---0-1----|
 \'     \'     \'     \'     \'       \'     \'
----------------------------------------|
----------------------------------------|
----------------------------------------|
-------------------------------------2--|
--5/4---5/4---5/4---5/4---5/4---5/4--2--|
--3/2-0-3/2-0-3/2-0-3/2-0-3/2-0-3/2--0--|
      \'     \'     \'     \'     \'

Lead In
----------------------------------------|
----------------------------------------|
----------------------------------------|
------8------8------8------8------8~~~--|
----7------7------7------7------7-------|
--0------0------0------0------0---------|
  \'   *  \'   *  \'   *  \'   *  \'   *

* = Here it is a Semi-Harmonic (Give it a slightest touch of your thumb)


Verse (First Part)(6 Times)
------------------------------------------------------------|
------------------------------------------------------------|
------------------------------------------------------------|
------------------5/7--8/7--5/7-------------------5/7--5/7--|
------------------5/7--8/7--5/7-------------------5/7--5/7--|
-0-0-0-0-0-0-0-0--3/5--6/5--3/5--0-0-0-0-0-0-0-0--3/5--3/5--|
 \' \' \' \' \' \' \' \'                 \' \' \' \' \' \' \' \'

First Part With the Lyrics:

-End of passion play, crumbling away
-I\'m your source of self-destruction
-Veins that pump with fear, sucking darkest clear
-Leading on your death\'s construction


Verse (Second Part)(2 Times)
------------------------------------------------------------|
------------------------------------------------------------|
------------------------------------------------------------|
------------------4-4---5/4-4-4-------------------4----4----|
------------------0-2---3/2-0-2-------------------0h2--0h2--|
-2-2-2-2-2-2-2-2----------------2-2-2-2-2-2-2-2-------------|
 \' \' \' \' \' \' \' \'                \' \' \' \' \' \' \' \'

Second Part with the Lyrics:

-Taste me, you will see
-More is all you need
-You\'re dedicated to
-How I\'m killing you


Lead in To Pre-Chorus
------------------|
------------------|
-4-4-4-4-4-4-4-4--|
-4-4-4-4-4-4-4-4--|
-2-2-2-2-2-2-2-2--|
------------------|
 \' \' \' \' \' \' \' \'

Pre-Chorus (3 Times)
---------------------------------------------------------------------|
---------------------------------------------------------------------|
-9---------7--9-----------------------------------------------8------|
-9---------7--9--------9--------------------10---9------------8---9--|
-7---------5--7---7-9-----10-9h10-----------10---9------------6---9--|
-0----0-0---------------------------8-8-8-8--8---7---8-8-8-8------7--|
      \' \'         \' \'               \' \' \' \'          \' \' \' \'

Then This
-----------------------------------------------------------------------------|
-----------------------------------------------------------------------------|
-9---------7--9--------------------------------------------------------------|
-9---------7--9--------9--------------------10---9-----7--5--4------4--------|
-7---------5--7---7-9-----10-9h10-----------10---9-----9--7--6------6--7--6--|
-0----0-0---------------------------8-8-8-8--8---7---------------------8--7--|
      \' \'         \' \'               \' \' \' \'            \'  \'  \'      \'  \'  \'
Pre-Chorus with the Lyrics:

-Come crawling faster
-Obey your master
-Your life burns faster
-Obey your master


Lead In to Chorus
--------|--------|
--------|--------|
--------|--------|
--2--2--|--3--3--|
--2--2--|--3--3--|
--0--0--|--1--1--|

Lead In to Chorus with the Lyrics:

-Master!
-Master!

Chorus (First Part)
--------------------------------------------------|
--------------------------------------------------|
--------------------------------------------------|
----------------------------5~-------4-------2~---|
--2~-----------------5~-----3~--0-0--2--0-0--0~---|
--0~--0-0--2p0--0-0--3~---------------------------|
      \' \'       \' \'             \' \'     \' \'

--------------------------------------------------|
--------------------------------------------------|
--------------------------------------------------|
--7~-------5-------4~-------9~-------7-------5~---|
--5~-------3-------2~-------7~-------5-------3~---|
------3-3-----3-3---------------0-0-----0-0-------|
      \' \'     \' \'           \' \'     \' \'

First Chorus Part with the Lyrics:
-Master of puppets, I\'m pulling your strings
-Twisting your mind and smashing your dreams
-Blinded by me, you can\'t see a thing
-Just call my name, \'cause I\'ll hear you scream


Chorus (Second Part)
--------|--------|-------------------------|--------|--------|
--------|--------|-------------------------|--------|--------|
--------|--------|-------------------------|--------|--------|
--2--2--|--3--3--|---------------------5~--|--2--2--|--3--3--|
--2--2--|--3--3--|--2~-----------------3~--|--2--2--|--3--3--|
--0--0--|--1--1--|--0~--0-0--2p0--0-0------|--0--0--|--1--1--|
                        \' \'       \' \'

Second Chorus Part with the Lyrics:
-Master!
-Master!
-Just call my name, \'cause I\'ll hear you scream
-Master!
-Master!


------------------------------------------------------------------|
------------------------------------------------------------------|
------------------------------------------------------------------|
-------------------------------------------------------------4----|
-----2-----3-----4-----3-----2-2-----2-----3-----4-----3-----2----|
-0-1---0-1---0-1---0-1---0-1-----0-1---0-1---0-1---0-1----0-------|
 \'     \'     \'     \'     \'       \'     \'     \'     \'      \'

----------------------------------------------|
----------------------------------------------|
----------------------------------------------|
----------------------------------------------|
-----2-----3-----4-----3-----2-2-----2-----3--|
-0-1---0-1---0-1---0-1---0-1-----0-1---0-1----|
 \'     \'     \'     \'     \'       \'     \'
--------------------------------------|
--------------------------------------|
--------------------------------------|
--------------------------------------|
--5/4---5/4---5/4---5/4---5/4---5/4---|
--3/2-0-3/2-0-3/2-0-3/2-0-3/2-0-3/2---|

Verse (First Part)(6 Times)
------------------------------------------------------------|
------------------------------------------------------------|
------------------------------------------------------------|
------------------5/7--8/7--5/7-------------------5/7--5/7--|
------------------5/7--8/7--5/7-------------------5/7--5/7--|
-0-0-0-0-0-0-0-0--3/5--6/5--3/5--0-0-0-0-0-0-0-0--3/5--3/5--|
 \' \' \' \' \' \' \' \'                 \' \' \' \' \' \' \' \'

First Part With the Lyrics:

-Needlework the way, never you betray
-Life of death becoming clearer
-Pain monopoly, ritual misery
-Chop your breakfast on a mirror


Verse (Second Part)(2 Times)
------------------------------------------------------------|
------------------------------------------------------------|
------------------------------------------------------------|
------------------4-4---5/4-4-4-------------------4----4----|
------------------0-2---3/2-0-2-------------------0h2--0h2--|
-2-2-2-2-2-2-2-2----------------2-2-2-2-2-2-2-2-------------|
 \' \' \' \' \' \' \' \'                \' \' \' \' \' \' \' \'

Second Part with the Lyrics:

-Taste me, you will see
-More is all you need
-You\'re dedicated to
-How I\'m killing you


Lead in To Pre-Chorus
------------------|
------------------|
-4-4-4-4-4-4-4-4--|
-4-4-4-4-4-4-4-4--|
-2-2-2-2-2-2-2-2--|
------------------|
 \' \' \' \' \' \' \' \'

Pre-Chorus (3 Times)
---------------------------------------------------------------------|
---------------------------------------------------------------------|
-9---------7--9-----------------------------------------------8------|
-9---------7--9--------9--------------------10---9------------8---9--|
-7---------5--7---7-9-----10-9h10-----------10---9------------6---9--|
-0----0-0---------------------------8-8-8-8--8---7---8-8-8-8------7--|
      \' \'         \' \'               \' \' \' \'          \' \' \' \'

Then This
-----------------------------------------------------------------------------|
-----------------------------------------------------------------------------|
-9---------7--9--------------------------------------------------------------|
-9---------7--9--------9--------------------10---9-----7--5--4------4--------|
-7---------5--7---7-9-----10-9h10-----------10---9-----9--7--6------6--7--6--|
-0----0-0---------------------------8-8-8-8--8---7---------------------8--7--|
      \' \'         \' \'               \' \' \' \'            \'  \'  \'      \'  \'  \'
Pre-Chorus with the Lyrics:

-Come crawling faster
-Obey your master
-Your life burns faster
-Obey your master


Lead In to Chorus
--------|--------|
--------|--------|
--------|--------|
--2--2--|--3--3--|
--2--2--|--3--3--|
--0--0--|--1--1--|

Lead In to Chorus with the Lyrics:

-Master!
-Master!

Chorus (First Part)
--------------------------------------------------|
--------------------------------------------------|
--------------------------------------------------|
----------------------------5~-------4-------2~---|
--2~-----------------5~-----3~--0-0--2--0-0--0~---|
--0~--0-0--2p0--0-0--3~---------------------------|
      \' \'       \' \'             \' \'     \' \'

--------------------------------------------------|
--------------------------------------------------|
--------------------------------------------------|
--7~-------5-------4~-------9~-------7-------5~---|
--5~-------3-------2~-------7~-------5-------3~---|
------3-3-----3-3---------------0-0-----0-0-------|
      \' \'     \' \'           \' \'     \' \'

First Chorus Part with the Lyrics:
-Master of puppets, I\'m pulling your strings
-Twisting your mind and smashing your dreams
-Blinded by me, you can\'t see a thing
-Just call my name, \'cause I\'ll hear you scream


Chorus (Second Part)
--------|--------|-------------------------|--------|--------|
--------|--------|-------------------------|--------|--------|
--------|--------|-------------------------|--------|--------|
--2--2--|--3--3--|---------------------5~--|--2--2--|--3--3--|
--2--2--|--3--3--|--2~-----------------3~--|--2--2--|--3--3--|
--0--0--|--1--1--|--0~--0-0--2p0--0-0------|--0--0--|--1--1--|
                        \' \'       \' \'

Second Chorus Part with the Lyrics:
-Master!
-Master!
-Just call my name, \'cause I\'ll hear you scream
-Master!
-Master!


Interlude (James)(Clean w/Chorus effect)(2Times)
----------------------0h2p0-------3---------------------------------------------------|
----------------3------------3------------3---3-------0-------0----------0----------0-|
-------0-----2-----2------------2-------0---0---0-----------2---------2----------2----|
-----2----0----------------------------------------2--------------------------1-------|
---2---------------------------------3-------------------0-------0-2--------2---------|
-0------------------------------------------------------------------------------------|

James & Kirk Solo
-----19/22--19--------20---17-------------------20---17-------|
-20---------20---20---22---19---19---19-19-19---22---19---19--|
-21--------------21-------------19---19-19-19-------------19--|
--------------------------------------------------------------|
--------------------------------------------------------------|
--------------------------------------------------------------|

-19---15-------------------19---15--------17---15h17p15-14-------|
-20---17---17---17-17-17---20---17---17---19---17h19p17-16---17--|
-----------17---17-17-17-------------17----------------------17--|
-----------------------------------------------------------------|
-----------------------------------------------------------------|
-----------------------------------------------------------------|


-----------14-------14---16---17---19--|
-16---17--------17--16---17---19---20--|
-16---17--/19---17---------------------|
---------------------------------------|
---------------------------------------|
---------------------------------------|

James Solo
---------------14-15---14-15-17-15-14-19-15-12h15p12----------------|
-17---------17---------------------------------------13-----15b-15b-|
--------------------------------------------------------------------|
--------------------------------------------------------------------|
--------------------------------------------------------------------|
--------------------------------------------------------------------|

-15-14------15-14-------------------------------------------------|
-------12---------12h15p12-------------15b------------------------|
--------------------------------12-14--14b--14b---12----12--------|
-----------------------------------------------------14-----12----|
------------------------------------------------------------------|
------------------------------------------------------------------|

----------------------------------------------------------------------------|
----------------------------------------------------------------------------|
-12----14-12---11--------14---12---11h12p11---------------------------------|
--------------------12----------------------10------------9-10--------9-10--|
-------------------------------------------------------12-------------------|
----------------------------------------------------------------------------|

-----------------------------------15---14--11h12p11-----------/19--|
-------------------------12--------------------------12---10--------|
-------------9--11--12-------12-------------------------------------|
-12--10--12---------------------------------------------------------|
--------------------------------------------------------------------|
--------------------------------------------------------------------|

Now Back to this:
-----19/22--19--------20---17-------------------20---17-------|
-20---------20---20---22---19---19---19-19-19---22---19---19--|
-21--------------21-------------19---19-19-19-------------19--|
--------------------------------------------------------------|
--------------------------------------------------------------|
--------------------------------------------------------------|

-19---15-------------------19---15--------17---15h17p15-14-------|
-20---17---17---17-17-17---20---17---17---19---17h19p17-16---17--|
-----------17---17-17-17-------------17----------------------17--|
-----------------------------------------------------------------|
-----------------------------------------------------------------|
-----------------------------------------------------------------|


-----------14-------14---16---17---19--|
-16---17--------17--16---17---19---20--|
-16---17--/19---17---------------------|
---------------------------------------|
---------------------------------------|
---------------------------------------|

(James)(Distorted)(2Times)
----------------------0h2p0-------3---------------------------------------------------|
----------------3------------3------------3---3-------0-------0----------0----------0-|
-------0-----2-----2------------2-------0---0---0-----------2---------2----------2----|
-----2----0----------------------------------------2--------------------------1-------|
---2---------------------------------3-------------------0-------0-2--------2---------|
-0------------------------------------------------------------------------------------|
 \' \' \' \'  \'  \'  \'  \'                 \'  \'   \'   \'  \'     \'  \'    \' \'  \

Build Up (First Part)
-----------------------------------|
-----------------------------------|
-4-4-4-4-4-4-4-4--4-4-4-4-4-4-4-4--|
-2-2-2-2-2-2-2-2--2-2-2-2-2-2-2-2--|
-2-2-2-2-2-2-2-2--2-2-2-2-2-2-2-2--|
-0-0-0-0-0-0-0-0--0-0-0-0-0-0-0-0--|
 \' \' \' \' \' \' \' \'  \' \' \' \' \' \' \' \'

Build Up (Second Part)(6 Times)
-------------------------------------|
-------------------------------------|
-------------------------------------|
-----------------------------------6-|
--4-4-5-4-4-4-5-4-4--4-4-5-4-4-4-5-4-|
--2-2-3-2-2-2-3------2-2-3-2-2-2-3---|
  \' \' \' \' \' \' \' \' \'  \' \' \' \' \' \' \' \'

Second Part of Build Up with lyrics:

-Master, master
-Where\'s the dreams that I\'ve been after?
-Master, master
-You promised only lies
-Laughter, laughter
-All I hear and see is laughter
-Laughter, laughter
-Laughing at my cries


Lead In
-------------------|
-------------------|
-------------------|
--5~~~----4~~~-----|
--5~~~----4~~~-----|
--3~~~----2~~~-----|


Lead In with Lyrics:

-Fix Me!


Kirk Fast Solo
-17p12----------12-17p12----------12-17p12----------12-15p12----------12--|
-------13-12-13----------13-12-13----------13-12-13----------13-12-13-----|
--------------------------------------------------------------------------|
--------------------------------------------------------------------------|
--------------------------------------------------------------------------|
--------------------------------------------------------------------------|

-17p12----------12-17p12----------12-17p12-------12-12-15p12----|
-------13-13-12----------13-12-13----------13-12-------------13-|
----------------------------------------------------------------|
----------------------------------------------------------------|
----------------------------------------------------------------|
----------------------------------------------------------------|

-----19-19-17-17-17-17-15-15-15-14-14-14-14-17-17-17-15-15-15-14--|
-/17--------------------------------------------------------------|
------------------------------------------------------------------|
------------------------------------------------------------------|
------------------------------------------------------------------|
------------------------------------------------------------------|

-14-14-14-14---------------------------------17h19------------------|
-------------15---17b--17b---------17p15p14---------15p14-----------|
-----------------------------------------------------------16-14-==-|
--------------------------------------------------------------------|
--------------------------------------------------------------------|
--------------------------------------------------------------------|

-x-------------------------------------------------------------|
---------------------------------------------------------------|
---------------------------------------------------------2--4--|
---------------------------------------------------------------|
---------------------------------------------------------------|
---------------------------------------------------------------|

x = This note produced by pulling string off edge of fretboard and
\"fretting\" it against pickup.

---------------------------------------------------------------------|
------------------------------------/15--13--12------13--12----------|
-2b-4--0--2-0h2----------------------------------14----------14--12--|
-----------------4--2---2-h4-----------------------------------------|
---------------------------------------------------------------------|
---------------------------------------------------------------------|

-----------------------------------------------------------|
-------------12----12-12-12-12-12-12-15-13-12-15-13-12-13--|
-11--12--14------------------------------------------------|
-----------------------------------------------------------|
-----------------------------------------------------------|
-----------------------------------------------------------|

-12----------12-------------14-------14-------15-15--------|
----15-15-13----15-13h15-15----17-15----15-17-------17/19--|
-----------------------------------------------------------|
-----------------------------------------------------------|
-----------------------------------------------------------|
-----------------------------------------------------------|

-17-------19-17-------17----------19-17-------17----------19-17--------|
----20-19-------19-19----21-19-19-------19-19----21-19-19-------19-19--|
-----------------------------------------------------------------------|
-----------------------------------------------------------------------|
-----------------------------------------------------------------------|
-----------------------------------------------------------------------|

-17-------------19-17-------------14--14------14------------14--|
----21b-19b-19b-------19b-19b-17b--------17b------17b-17b-------|
----------------------------------------------------------------|
----------------------------------------------------------------|
----------------------------------------------------------------|
----------------------------------------------------------------|

-19-p14------19-p14--14----------14------14------14-14-14------14-14--|
---------17b---------17b-----17b-----17b-----17b-----------17b--------|
----------------------------------------------------------------------|
----------------------------------------------------------------------|
----------------------------------------------------------------------|
----------------------------------------------------------------------|

-----15b-----15b-----15b-----15b-----17b-----17b-----18b-----18b--|
-18b-----18b-----18b-----18b-----20b-----20b-----21b-----21b------|
------------------------------------------------------------------|
------------------------------------------------------------------|
------------------------------------------------------------------|
------------------------------------------------------------------|

-----19b-----19b-22b-----/////---------------|
-22b-----22b---------------------------------|
---------------------------------------------|
---------------------------------------------|
---------------------------------------------|
---------------------------------------------|


Post solo (2Times)
----------------------------------------------------------------|
----------------------------------------------------------------|
----------------------------------------------------------------|
-----3-----3-----3-----3-------------3-----3-----3-----3-----4--|
-----3-----3-----3-----3-----2-2-----3-----3-----3-----3-----2--|
-0-0-1-0-0-1-0-0-1-0-0-1-0-0-----0-0-1-0-0-1-0-0-1-0-0-1-0-0----|
 \' \'   \' \'   \' \'   \' \'   \' \'     \' \'   \' \'   \' \'   \' \'   \' \'
Then this -
------------------------------------------------------------------|
------------------------------------------------------------------|
------------------------------------------------------------------|
------------------------------0-2-4-5------------------0----------|
------------------------0-2-3---------3------3-3-3-2-3---3-2------|
-0-0-0-0-0-0-0-0--0-2-3--------------------------------------3-2--|
 \' \' \' \' \' \' \' \'  \' \' \' \' \' \' \' \'            \' \' \' \' \' \' \' \' \' \'


Two guitars
-------------------------------------------------------------------------|
-------------------------------------------------------------------------|
----------------------------------------2-4------------------------------|
-------------------------------0-4-2/5--4-5-2------2-2-2-0-2-4-2-0-------|
-------------------------0-2-3--------------3------3-3-3-2-3-5-3-2-3-2---|
-0-0-0-0-0-0-0-0-0-0-2-3-------------------------------------------3-2---|
 \' \' \' \' \' \' \' \' \' \' \' \' \' \' \' \' \' \' \'             \' \' \' \' \' \' \' \' \' \'
------------------------------------------------------------------------|
---------------------------------------------5~~------------------------|
----------------------------------------2-4--5~~------------------------|
-------------------------------0-4-2/5--4-5--5~~------------------------|
-------------------------0-2-3---------------3~~---3-3-3-2-3-5-3-2------|
-0-0-0-0-0-0-0-0-0-0-2-3-------------------------------------------3-2--|
 \' \' \' \' \' \' \' \' \' \' \' \' \' \' \' \' \' \' \'             \' \' \' \' \' \' \' \' \' \'

-------------------------------------|
-------------------------------------|
-4~~--------------------2------------|
-2~~------------5-5-5-4-----5-4-2-4--|
-2~~------------3-3-3-2-3-5-3-2------|
-0~~----------------------------3-2--|
                \' \' \' \' \' \' \' \' \' \'

------------------------------------------------------------------|
------------------------------------------------------------------|
------------------------------------------------------------------|
------------------------------------------------------------------|
-----2-----3-----4-----3-----2-2-----2-----3-----5/4---5/4---5/4--|
-0-1---0-1---0-1---0-1---0-1-----0-1---0-1-----0-3/2-0-3/2-0-3/2--|
 \'     \'     \'     \'     \'       \'     \'       \'     \'     \'

----------------------------------------------|
----------------------------------------------|
----------------------------------------------|
----------------------------------------------|
-----2-----3-----4-----3-----2-2-----2-----3--|
-0-1---0-1---0-1---0-1---0-1-----0-1---0-1----|
 \'     \'     \'     \'     \'       \'     \'

--------------------------------------|
--------------------------------------|
--------------------------------------|
--------------------------------------|
--5/4---5/4---5/4---5/4---5/4---5/4---|
--3/2-0-3/2-0-3/2-0-3/2-0-3/2-0-3/2---|
      \'     \'     \'     \'     \'

Verse (First Part)(6 Times)
------------------------------------------------------------|
------------------------------------------------------------|
------------------------------------------------------------|
------------------5/7--8/7--5/7-------------------5/7--5/7--|
------------------5/7--8/7--5/7-------------------5/7--5/7--|
-0-0-0-0-0-0-0-0--3/5--6/5--3/5--0-0-0-0-0-0-0-0--3/5--3/5--|
 \' \' \' \' \' \' \' \'                 \' \' \' \' \' \' \' \'

First Part With the Lyrics:

-Hell is worth all that, natural habitat
-Just a rhyme without a reason
-Never-ending maze, drift on numbered days
-Now your life is out of season


Verse (Second Part)(2 Times)
------------------------------------------------------------|
------------------------------------------------------------|
------------------------------------------------------------|
------------------4-4---5/4-4-4-------------------4----4----|
------------------0-2---3/2-0-2-------------------0h2--0h2--|
-2-2-2-2-2-2-2-2----------------2-2-2-2-2-2-2-2-------------|
 \' \' \' \' \' \' \' \'                \' \' \' \' \' \' \' \'

Second Part with the Lyrics:

-I will occupy
-I will help you die
-I will run through you
-Now I rule you, too


Lead in To Pre-Chorus
------------------|
------------------|
-4-4-4-4-4-4-4-4--|
-4-4-4-4-4-4-4-4--|
-2-2-2-2-2-2-2-2--|
------------------|
 \' \' \' \' \' \' \' \'

Pre-Chorus (3 Times)
---------------------------------------------------------------------|
---------------------------------------------------------------------|
-9---------7--9-----------------------------------------------8------|
-9---------7--9--------9--------------------10---9------------8---9--|
-7---------5--7---7-9-----10-9h10-----------10---9------------6---9--|
-0----0-0---------------------------8-8-8-8--8---7---8-8-8-8------7--|
      \' \'         \' \'               \' \' \' \'          \' \' \' \'

Then This
-----------------------------------------------------------------------------|
-----------------------------------------------------------------------------|
-9---------7--9--------------------------------------------------------------|
-9---------7--9--------9--------------------10---9-----7--5--4------4--------|
-7---------5--7---7-9-----10-9h10-----------10---9-----9--7--6------6--7--6--|
-0----0-0---------------------------8-8-8-8--8---7---------------------8--7--|
      \' \'         \' \'               \' \' \' \'            \'  \'  \'      \'  \'  \'
Pre-Chorus with the Lyrics:

-Come crawling faster
-Obey your master
-Your life burns faster
-Obey your master


Lead In to Chorus
--------|--------|
--------|--------|
--------|--------|
--2--2--|--3--3--|
--2--2--|--3--3--|
--0--0--|--1--1--|

Lead In to Chorus with the Lyrics:

-Master!
-Master!

Chorus (First Part)
--------------------------------------------------|
--------------------------------------------------|
--------------------------------------------------|
----------------------------5~-------4-------2~---|
--2~-----------------5~-----3~--0-0--2--0-0--0~---|
--0~--0-0--2p0--0-0--3~---------------------------|
      \' \'       \' \'             \' \'     \' \'

--------------------------------------------------|
--------------------------------------------------|
--------------------------------------------------|
--7~-------5-------4~-------9~-------7-------5~---|
--5~-------3-------2~-------7~-------5-------3~---|
------3-3-----3-3---------------0-0-----0-0-------|
      \' \'     \' \'           \' \'     \' \'

First Chorus Part with the Lyrics:
-Master of puppets, I\'m pulling your strings
-Twisting your mind and smashing your dreams
-Blinded by me, you can\'t see a thing
-Just call my name, \'cause I\'ll hear you scream


Chorus (Second Part)
--------|--------|-------------------------|--------|--------|
--------|--------|-------------------------|--------|--------|
--------|--------|-------------------------|--------|--------|
--2--2--|--3--3--|---------------------5~--|--2--2--|--3--3--|
--2--2--|--3--3--|--2~-----------------3~--|--2--2--|--3--3--|
--0--0--|--1--1--|--0~--0-0--2p0--0-0------|--0--0--|--1--1--|
                        \' \'       \' \'

Second Chorus Part with the Lyrics:
-Master!
-Master!
-Just call my name, \'cause I\'ll hear you scream
-Master!
-Master!


Outro
------------------------------------------------------------|
------------------------------------------------------------|
------------------------------------------------------------|
-2----------------5/7--8/7--5/7--2----------------5/7--5/7--|
-2----------------5/7--8/7--5/7--2----------------5/7--5/7--|
-0-0-0-0-0-0-0-0--3/5--6/5--3/5--0-0-0-0-0-0-0-0--3/5--3/5--|
   \' \' \' \' \' \' \'                   \' \' \' \' \' \' \'


Ending
----------------------------------|---------|
----------------------------------|---------|
----------------------------------|--4~~~~--|
----------------------------------|--2~~~~--|
-----------------5/4---5/4---5/4--|--2~~~~--|
-----------------3/2-0-3/2-0-3/2--|--0~~~~--|
                     \'     \'

Ending With Psychotic Laughter

17.ENTER SANDMAN

Intro : 6x


|----------------------------------------------------------|
|----------------------------------------------------------|
|----------------------------------------------------------|
|-----------5-----------------------5----------------------|
|-------7-------------7---------8--------------7-----------|
|---0----------6---5--------0-----------6---5--------------|
|                                                          |
|---0------------------------------------------------------|
|---0------------------------------------------------------|
|---0------------------------------------------------------|
|---2------------------------------------------------------|
|----------------------------------------------------------|
|----------------------------------------------------------|
           ^
W/ Wah - Listen to recording, he does it twice. At 0:07 and 0:16

0:23

Play this Twice

|----------------------------------------------------------|
|----------------------------------------------------------|
|----------------------------------------------------------|
|-2--------------------------------------------------------|
|-2--2--2--2--2--2--2--5/7---2--2--2--2--2--2--2--2--5/7---|
|-0--0--0--0--0--0--0--------0--0--0--0--0--0--0--0--------|
|  							   |
|----------------------------------------------------------|
|----------------------------------------------------------|
|----------------------------------------------------------|
|-2------------(2)-------------(2)-------------(2)---------|
|-2------------(2)-------------(2)-------------(2)---------|
|-0------------(0)-------------(0)-------------(0)---------|

0:32

Play this twice

|----------------------------------------------------------|
|----------------------------------------------------------|
|----------------------------------------------------------|
|----------------------------------------------------------|
|-2--2---5/7----2--2--2--3-----2--2---5/7-----2--2--2--3---|
|-0--0-------6--0--0--0--1-----0--0--------6--0--0--0--1---|
|  							   |
|----------------------------------------------------------|
|----------------------------------------------------------|
|--------------------------------------------------------2-|
|-2------------(2)-------------(2)-------------(2)-------2-|
|-2------------(2)-------------(2)-------------(2)-------0-|
|-0------------(0)-------------(0)-------------(0)---------|

0:39
Play this 4 times.

|----------------------------------------------------------|
|----------------------------------------------------------|
|----------------------------------------------------------|
|----------------------------------------------------------|
|-2--2---5/7-------2--2--3-----2--2---5/7--------2--2--3---|
|-0--0-------6--5--0--0--1-----0--0--------6--5--0--0--1---|
|  							   |
|----------------------------------------------------------|
|----------------------------------------------------------|
|----------------------------------------------------------|
|-2------------(2)-------------(2)-------------(2)---------|
|-2------------(2)-------------(2)-------------(2)---------|
|-0------------(0)-------------(0)-------------(0)---------|


0:55
Main Riff : play twice

<-------3x---------------------------------------------------|
|-----------------------|------------------------------------|
|-----------------------|------------------------------------|
|-----------------------|------------------------------------|
|-----------------------|------------------------------------|
|-2----2-----7----------|-----5------4-------4---5---4-------|
|-0----0---------6----5-|-----3---0--2---0---2---3---2-------|
|  							   |
|-----------------------|----------------------------------|
|-----------------------|----------------------------------|
|-----------------------|----------------------------------|
|-----------------------|----------------------------------|
|-2----2-----7----------|-----5------4-------4---5---4-----|
|-0----0---------6----5-|-----3---0--2---0---2---3---2-----|

Verse Riff
|----------------------------------------------------------|
|----------------------------------------------------------|
|----------------------------------------------------------|
|-2--------------------------------------------------------|
|-2--2--2--2--2--2--2--3------2--2--2--2--2--2--2--2--3----|
|-0--0--0--0--0--0--0--1------0--0--0--0--0--0--0--0--1----|
|  							   |
|------------------------------------------------------------|
|------------------------------------------------------------|
|------------------------------------------------------------|
|------------------------------------------------------------|
|----------------------32----------------------------32------|
|-0--0--0--0--0--0--0--1----0--0--0--0--0--0--0--0--1--------|

1Say your prayers little one,          Don\'t forget my son
2      I tuck you in,  warm within, Keep you free from sin


|-----------------------------------------------------|
|-----------------------------------------------------|
|-----------------------------------------------------|
|-----------------------------------------------------|
|-2--2--2--2--2--2--2-----5------4-------4---5---4----|
|-0--0--0--0--0--0--0-----3---0--2---0---2---3---2----|
|  					              |
|-----------------------------------------------------|
|-----------------------------------------------------|
|-----------------------------------------------------|
|-----------------------------------------------------|
|-------------------------5------4-------4---5---4----|
|-0--0--0--0--0--0--0-----3---0--2---0---2---3---2----|

1       To include Every      One
2            Till the sandman he comes.           Ah

Pre chorus.
|--------3x---------|

|---------------------|---------------------------|
|---------------------|---------------------------|
|----------2----------|---------------------------|
|------4--------------|---------------------------|
|-------------3---2---|--4--4--4--4--2--3--4------|
|--2------------------|--2--2--2--2--0--1--2------|
|  						  |
|---------------------|---------------------------|
|---------------------|---------------------------|
|----------2----------|----------2----------------|
|------4--------------|-------4-------------------|
|-------------3---2---|--------------3---2--------|
|--2------------------|---2------------------14/--|

Sleep with one eye open, Gripping your pillow tight.

Chorus

|------3x------|

|---------------|-------------------------------------------|
|---------------|-------------------------------------------|
|---------------|-------------------------------------------|
|--------5----4-|---2---------------------------------------|
|---4----3----2-|---2---------------------------------------|
|---2-----------|---0---------------------------------------|
|  						 	    |
|---------------|-------------------------------------------|
|---------------|-------------------------------------------|
|---------------|-------------------------------------------|
|---------------|------------------------4--0---------------|
|--------3----2-|------5---2---5---4--0---------------------|
|---2-----------|-------------------------------------------|

Exit Light
Enter Ni-ight


|---------------|-------------------------------------------|
|---------------|-------------------------------------------|
|---------------|-------------------------------------------|
|--------5----4-|---2---------------------------------------|
|---4----3----2-|---2---------------------------------------|
|---2-----------|---0---------------------------------------|
|  						 	    |
|---------------|-------------------------------------------|
|---------------|-------------------------------------------|
|---------------|-------------------------------------------|
|---------------|------------------------2------------------|
|--------3----2-|------5---2---5---2--2-----2---------------|
|---2-----------|-------------------------------------------|

Take my hand

|-------------------------------|
|-------------------------------|
|-------------------------------|
|-------------------------------|
|---5------4-------4---5---4----|
|---3---0--2---0---2---3---2----|
|                               |
|-------------------------------|
|-------------------------------|
|-------------------------------|
|-------------------------------|
|-------------------------------|
|-------------------------------|

We\'re off to never-never land


<-------3x---------------------------------------------------|
|-----------------------|------------------------------------|
|-----------------------|------------------------------------|
|-----------------------|------------------------------------|
|-----------------------|------------------------------------|
|-2----2-----7----------|-----5------4-------4---5---4-------|
|-0----0---------6----5-|-----3---0--2---0---2---3---2-------|
|  							   |
|-----------------------|----------------------------------|
|-----------------------|----------------------------------|
|-----------------------|----------------------------------|
|-----------------------|----------------------------------|
|-2----2-----7----------|-----5------4-------4---5---4-----|
|-0----0---------6----5-|-----3---0--2---0---2---3---2-----|


<-------3x---------------------------------------------------|
|-----------------------|------------------------------------|
|-----------------------|------------------------------------|
|-----------------------|------------------------------------|
|-----------------------|------------------------------------|
|-2----2-----7----------|-----5------4-------4---5---4-------|
|-0----0---------6----5-|-----3---0--2---0---2---3---2-------|
|  							   |
|-----------------------------Gradually Bend----------12/--|
|-12hb----14-12-14------14fb--------------------------14/--|
|-12------14-12-14------14fb-------------------------------|
|-------15----------12-------------------------------------|
|----------------------------------------------------------|
|----------------------------------------------------------|
W/Wah

|----------------------------------------------------------|
|----------------------------------------------------------|
|----------------------------------------------------------|
|-2--------------------------------------------------------|
|-2--2--2--2--2--2--2--3------2--2--2--2--2--2--2--2--3----|
|-0--0--0--0--0--0--0--1------0--0--0--0--0--0--0--0--1----|
|  							   |
|------------------------------------------------------------|
|------------------------------------------------------------|
|------------------------------------------------------------|
|------------------------------------------------------------|
|----------------------32----------------------------32------|
|-0--0--0--0--0--0--0--1----0--0--0--0--0--0--0--0--1--------|

Somethings wrong, shut the light, heavy thoughts tonight

|-----------------------------------------------------|
|-----------------------------------------------------|
|-----------------------------------------------------|
|-----------------------------------------------------|
|-2--2--2--2--2--2--2-----5------4-------4---5---4----|
|-0--0--0--0--0--0--0-----3---0--2---0---2---3---2----|
|  					              |
|-----------------------------------------------------|
|---------------------------12fb--12fb--12fb----------|
|---------------------------12hb--12fb--12fb----------|
|---------------------------------------------14/-----|
|-----------------------------------------------------|
|-0--0--0--0--0--0--0---------------------------------|
			     W/Wah

And they arent of snow wh-------ite


|----------------------------------------------------------|
|----------------------------------------------------------|
|----------------------------------------------------------|
|-2--------------------------------------------------------|
|-2--2--2--2--2--2--2--3------2--2--2--2--2--2--2--2--3----|
|-0--0--0--0--0--0--0--1------0--0--0--0--0--0--0--0--1----|
|  							   |
|------------------------------------------------------------|
|------------------------------------------------------------|
|------------------------------------------------------------|
|------------------------------------------------------------|
|----------------------32----------------------------32------|
|-0--0--0--0--0--0--0--1----0--0--0--0--0--0--0--0--1--------|

Dreams of war, dreams of lies, dreams of dragons fire


|-----------------------------------------------------|
|-----------------------------------------------------|
|-----------------------------------------------------|
|-----------------------------------------------------|
|-2--2--2--2--2--2--2-----5------4-------4---5---4----|
|-0--0--0--0--0--0--0-----3---0--2---0---2---3---2----|
|  					              |
|-----------------------------------------------------|
|-----------------------------------------------------|
|-----------------------------------------------------|
|-----------------------------------------------------|
|-------------------------5------4-------4---5---4----|
|-0--0--0--0--0--0--0-----3---0--2---0---2---3---2----|

And of things that will bite, yeah!


Pre chorus.
|--------3x-----------------------------------------|
|---------------------|-----------------------------|
|---------------------|-----------------------------|
|----------2----------|-----------------------------|
|------4--------------|-----------------------------|
|-------------3---2---|--4--4--4--4--2--3--4--------|
|--2------------------|--2--2--2--2--0--1--2--------|
|  						  |
|---------------------|---------------------------|
|---------------------|---------------------------|
|----------2----------|----------2----------------|
|------4--------------|-------4-------------------|
|-------------3---2---|--------------3---2--------|
|--2------------------|---2------------------14/--|

Sleep with one eye open, Gripping your pillow tight.

Chorus

|------3x------|

|---------------|-------------------------------------------|
|---------------|-------------------------------------------|
|---------------|-------------------------------------------|
|--------5----4-|---2---------------------------------------|
|---4----3----2-|---2---------------------------------------|
|---2-----------|---0---------------------------------------|
|  						 	    |
|---------------|-------------------------------------------|
|---------------|-------------------------------------------|
|---------------|-------------------------------------------|
|---------------|------------------------4--0---------------|
|--------3----2-|------5---2---5---4--0---------------------|
|---2-----------|-------------------------------------------|

Exit Light
Enter Ni-ight


|---------------|-------------------------------------------|
|---------------|-------------------------------------------|
|---------------|-------------------------------------------|
|--------5----4-|---2---------------------------------------|
|---4----3----2-|---2---------------------------------------|
|---2-----------|---0---------------------------------------|
|  						 	    |
|---------------|-------------------------------------------|
|---------------|-------------------------------------------|
|---------------|-------------------------------------------|
|---------------|------------------------2------------------|
|--------3----2-|------5---2---5---2--2-----2---------------|
|---2-----------|-------------------------------------------|


Take my hand
|-------------------------------|
|-------------------------------|
|-------------------------------|
|-----------------------------2-|
|---5------4-------4---5---4--2-|
|---3---0--2---0---2---3---2--0-|
|                               |
|-------------------------------|
|-------------------------------|
|-------------------------------|
|-----------------------------2-|
|-----------------------------2-|
|-----------------------------0-|
We\'re off to never-never land


Note : This tab for the solo is greatly inspired by the original
tab of the solo, and many thanks to the author of that tab. It
Was quite accurate but wrong in a couple of places, basiclly here
I changed it to be as close as possible to Kirk.

For the solo, James plays the main riff twice, then his part of
the prechorus, and his part of the chorus. Its amazing how well
the solo fits in.

W/Wah
|---------------------------------------------------------|
|-15---15---15---12-----15---------12-12----15fb-15bfb-/--|
|-14hb-14hb-14hb--14fb--14fb---14hb------14---------------|
|---------------------------------------------------------|
|---------------------------------------------------------|
|---------------------------------------------------------|


Rock back and forth on pedal
|---------------------------------------------------|
|---------------------------------------------------|
|-12/14-14-14-1412-12-12-12/14-14-14-1412-12-12-----|
|-10/12-12-12-1210-10-10-10/12-12-12-1210-10-10-----|
|---------------------------------------------------|
|---------------------------------------------------|


|---------------------------------------|
|---------------------------------------|
|-14p12---------------------------------|
|-------14-14p12------------------------|
|----------------14-14p12---------------|
|--------------------------15--12~~-----|


|-------12-10-12-------12-10-12------12-12-12-------12-12-12-|
|-15fb----------15fb--------------15fb-----------15fb--------|
|------------------------------------------------------------|
|------------------------------------------------------------|
|------------------------------------------------------------|
|------------------------------------------------------------|

|-12-12-12-15-12-15p12h15-12h15p12-12-15-12-12-14-14-|
|----------------------------------------------------|
|----------------------------------------------------|
|----------------------------------------------------|
|----------------------------------------------------|
|----------------------------------------------------|

|-17p14----17p14----17p14-19p15----19p15----19p15-|
|-------14-------14-------------17-------17-------|
|-------------------------------------------------|
|-------------------------------------------------|
|-------------------------------------------------|
|-------------------------------------------------|

|-21p17----21p17----21p17----22fb~~~~~~(R)/-------------------|
|-------17-------17-------17---------------9hb--------9hb---9-|
|------------------------------------------9fb--------9fb---9-|
|-------------------------------------------------------------|
|-------------------------------------------------------------|
|-------------------------------------------------------------|

|---------------------------------------------------------------|
|-9hb--9hb-----------------10------10-8-7---7/87---7------------|
|-9fb--9fb--7--9--------7-----------------9-------9---9-7---7---|
|------------------7h9------------------------------------9-----|
|---------------------------------------------------------------|
|---------------------------------------------------------------|

			      Lots of wah. Treble on all notes in
			      16th fret. Bass on 14th.(toe up)

|-------------------------------------------------------------------|
|-------------------------------------------------------------------|
|-9p7--------------------------16fb-14-----14-16-16fb--14------14---|
|-----9p7---7-9-7----------------------16---------------16----------|
|---------9-------9-6-7---------------------------------------------|
|-----------------------10-7----------------------------------------|


|--------------------------------------|
|--------------------------------------|
|-16-16fb-14----14-16-16fb-14-------14-|
|---------------16------------16-16----|
|--------------------------------------|
|--------------------------------------|


                        Note : Slowly release bend while tremelo picking.

|-----------------------------------------------|
|---------17---------17--------17---------------|
|-16bfb----16hb----16fb----------16fb---(R)-----|
|-----------------------------------------------|
|-----------------------------------------------|
|-----------------------------------------------|


|-21p17---21p17---21p17---21p17---21p17---21p17---|
|------17------17------17------17------17------17-|
|-------------------------------------------------|
|-------------------------------------------------|
|-------------------------------------------------|
|-------------------------------------------------|


|-22fb--21-22--22fb--21-22-22fb~~~~~--22----|
|-------------------------------------------|
|-------------------------------------------|
|-------------------------------------------|
|-------------------------------------------|
|-------------------------------------------|


|----------------------------------------------------|
|-10p9p8p7-------------------------------------------|
|----------9-9p7-------------------------------------|
|----------------9-9p7-5--7fb----5~~-----------------|
|-------------------------------------7~~~~~~~~~-5h7-|
|----------------------------------------------------|

|--------------------------------------------------|
|--------------------------------------------------|
|--------------------------------------------------|
|--------------------------------------------------|
|-4~~~~~~~~~~--0--2--2--2--2--2--2--2--2--2--2--2--|
|--------------------------------------------------|
    Wah off.      Dip bar and release on each stroke.


Back to the usual tab form.

Play 4x

|----------------------------------------------------------|
|----------------------------------------------------------|
|----------------------------------------------------------|
|-----------5-----------------------5----------------------|
|-------7-------------7---------7--------------7-----------|
|---0----------6---5--------0-----------6---5--------------|
|                                                          |
|----------------------------------------------------------|
|----------------------------------------------------------|
|----------------------------------------------------------|
|----------------------------------------------------------|
|----------------------------------------------------------|
|----------------------------------------------------------|

|--------8x-----------------------------------------|
|---------------------|-----------------------------|
|---------------------|-----------------------------|
|----------2----------|-----------------------------|
|------4--------------|-----------------------------|
|-------------3---2---|--4--4--4--4--2--3--4--------|
|--2------------------|--2--2--2--2--0--1--2--------|
|  						  |
|---------------------|---------------------------|
|---------------------|---------------------------|
|----------2----------|----------2----------------|
|------4--------------|-------4-------------------|
|-------------3---2---|--------------3---2--------|
|--2------------------|---2------------------14/--|

Chorus

|------3x------|

|---------------|-------------------------------------------|
|---------------|-------------------------------------------|
|---------------|-------------------------------------------|
|--------5----4-|---2---------------------------------------|
|---4----3----2-|---2---------------------------------------|
|---2-----------|---0---------------------------------------|
|  						 	    |
|---------------|-------------------------------------------|
|---------------|-------------------------------------------|
|---------------|-------------------------------------------|
|---------------|------------------------4---0--------------|
|--------3----2-|------5---2---5---4--0---------------------|
|---2-----------|-------------------------------------------|

Exit Light
Enter Ni-ight


|---------------|-------------------------------------------|
|---------------|-------------------------------------------|
|---------------|-------------------------------------------|
|--------5----4-|---2---------------------------------------|
|---4----3----2-|---2---------------------------------------|
|---2-----------|---0---------------------------------------|
|  						 	    |
|---------------|-------------------------------------------|
|---------------|-------------------------------------------|
|---------------|-------------------------------------------|
|---------------|-------------------------------------------|
|--------3----2-|-------------------------------------------|
|---2-----------|-------------------------------------------|

Grain of sand


|------3x------|

|---------------|-------------------------------------------|
|---------------|-------------------------------------------|
|---------------|-------------------------------------------|
|--------5----4-|---2---------------------------------------|
|---4----3----2-|---2---------------------------------------|
|---2-----------|---0---------------------------------------|
|  						 	    |
|---------------|-------------------------------------------|
|---------------|-------------------------------------------|
|---------------|-------------------------------------------|
|---------------|------------------------4--0---------------|
|--------3----2-|------5---2---5---4--0---------------------|
|---2-----------|-------------------------------------------|

Exit Light
Enter Ni-ight


|---------------|-------------------------------------------|
|---------------|-------------------------------------------|
|---------------|-------------------------------------------|
|--------5----4-|---2---------------------------------------|
|---4----3----2-|---2---------------------------------------|
|---2-----------|---0---------------------------------------|
|  						 	    |
|---------------|-------------------------------------------|
|---------------|-------------------------------------------|
|---------------|-------------------------------------------|
|---------------|------------------------4------------------|
|--------3----2-|------5---0---5---2--2-----4---------------|
|---2-----------|-------------------------------------------|

Take my hand
|-------------------------------|
|-------------------------------|
|-------------------------------|
|-----------------------------2-|
|---5------4-------4---5---4--2-|
|---3---0--2---0---2---3---2--0-|
|                               |
|-------------------------------|
|-------------------------------|
|-------------------------------|
|-----------------------------2-|
|-----------------------------2-|
|-----------------------------0-|

We\'re off to never-never land

<-------2x----------------|
|-------------------------|
|-------------------------|
|-------------------------|
|-------------------------|
|-2----2-----7------------|
|-0----0---------6----5---|
|  			|
|-----------------------|
|-----------------------|
|-----------------------|
|-(2)-------------------|
|-(2)-------------------|
|-(0)-------------------|

<-------4x---------------------------------------------------|
|-----------------------|------------------------------------|
|-----------------------|------------------------------------|
|-----------------------|------------------------------------|
|-----------------------|------------------------------------|
|-2----2-----7----------|-----5------4-------4---5---4-------|
|-0----0---------6----5-|-----3---0--2---0---2---3---2-------|
|  							   |
|-----------------------|----------------------------------|
|-----------------------|----------------------------------|
|-----------------------|----------------------------------|
|-----------------------|----------------------------------|
|-2----2-----7----------|-----5------4-------4---5---4-----|
|-0----0---------6----5-|-----3---0--2---0---2---3---2-----|

|----------------------------------------------------------|
|----------------------------------------------------------|
|----------------------------------------------------------|
|----------------------------------------------------------|
|-2--2---5/7-------2--2--3-----2--2---5/7--------2--2--3---|
|-0--0-------6--5--0--0--1-----0--0--------6--5--0--0--1---|
|							   |
|----------------------------------------------------------|
|----------------------------------------------------------|
|----------------------------------------------------------|
|-----------5--------------------------5-------------------|
|-------7-------------7------------7--------------7--------|
|---0----------6---5-----------0-----------6---5-----------|

Repeat and fade.
===================

For a Big ending while plaing it Live just do this:

|-----------------------------------------|
|-----------------------------------------|
|-----------------------------------------|
|--------------------------------------2--|
|---5------4-------4------5------4-----2--|
|---3---0--2---0---2------3------2-----0--|
|                                         |
|-----------------------------------------|
|-----------------------------------------|
|-----------------------------------------|
|--------------------------------------2--|
|---5------4-------4------5------4-----2--|
|---3---0--2---0---2------3------2-----0--|

Those extra spaces are there for a reason :-)

18.MOTORBREATH

Tempo=180

|---------------|------------------------------|
|---------------|------------------------------|
|---------------|------------------------------|
|---------------|------------------------------|
|--------7---8--|-9----------------------------|
|--------5---6--|-7--7-7-7--7-7-7--7-7-7-7-7-7-|
		    PM........................|


|------------------------------|------------------------------|
|------------------------------|------------------------------|
|------------------------------|------------------------------|
|------------------------------|------------------------------|
|------------------------------|------------------------------|
|-3--3-3-3--3-3-3--3-3-3-3-3-3-|-5--5-5-5--5-5-5--5-5-5-5-5-5-|
 PM..........................................................|


|------------------------------|-------------------------------|
|------------------------------|-------------------------------|
|------------------------------|-------------------------------|
|------------------------------|-------------------------------|
|------------------------------|-------------------------------|
|-2--2-2-2--2-2-2--2-2-3-3-5-5-|-7--7-7-7--7-7-7-7-7-7-7-7-7-7-|
 PM...........................................................|


|-------------------------------|-------------------------------|
|-------------------------------|-------------------------------|
|-------------------------------|-------------------------------|
|-------------------------------|-------------------------------|
|-------------------------------|-------------------------------|
|-3--3-3-3--3-3-3-3-3-3-3-3-3-3-|-5--5-5-5--5-5-5-5-5-5-5-5-5-5-|
 PM............................................................|


|-------------------------------|
|-------------------------------|
|-------------------------------|
|-------------------------------|
|-------------------------------|
|-2--2-2-2--2-2-2-2-2-2-2-2-2-2-|
 PM............................|


 S/S
  Rhy Fig 1
||------------------------|---------------------|
||------------------------|---------------------|
||o-----------------------|---------------------|
||o-----------------------|---------------------|
||--9--9---7--9--9---7--7-|-5-5--4-4--5--5--4-4-|
||--7--7---5--7--7---5--5-|-3-3--2-2--3--3--2-2-|
			   PM..................|

			    end Rhy Fig 1
|---------------------|------------------||
|---------------------|------------------||
|---------------------|-----------------o||
|---------------------|-----------------o||
|-7-7--5-5--7--7--5-5-|-4-4-----4-4--7---||
|-5-5--3-3--5--5--3-3-|-2-2--0--2-2--5---||
 PM...................................|


Verses

  Living and dying	   laughing and crying
||------------------------|---------------------|
||------------------------|---------------------|
||o-----------------------|---------------------|
||o-----------------------|---------------------|
||--9--9---7--9--9---7--7-|-5-5--4-4--5--5--4-4-|
||--7--7---5--7--7---5--5-|-3-3--2-2--3--3--2-2-|
			   PM..................|


 Once...	       never be the same
|---------------------|-----------------|
|---------------------|-----------------|
|---------------------|-----------------|
|---------------------|-----------------|
|-7-7--5-5--7--7--5-5-|-4-4-----4-4--7--|
|-5-5--3-3--5--5--3-3-|-2-2--0--2-2--5--|
 PM...................................|


 Life...		 just how it seems
|-----------------------|---------------------|
|-----------------------|---------------------|
|-----------------------|---------------------|
|-----------------------|---------------------|
|-9--9---7--9--9---7--7-|-5-5--4-4--5--5--4-4-|
|-7--7---5--7--7---5--5-|-3-3--2-2--3--3--2-2-|
			 PM..................|



 Hard...		dirty and mean
|---------------------|-----------------|
|---------------------|-----------------|
|---------------------|-----------------|
|---------------------|-----------------|
|-7-7--5-5--7--7--5-5-|-4-4-----4-4--7--|
|-5-5--3-3--5--5--3-3-|-2-2--0--2-2--5--|
 PM...................................|


|----------------|----------------|
|----------------|----------------|
|----------------|----------------|
|----------------|----------------|
|-9-9--7--9-9--7-|-9-9--7--9-9--7-|
|-7-7--5--7-7--5-|-7-7--5--7-7--5-|


 Chorus

 Motorbreath    It's how I live...   I can't take it  any other way
|----------------|------------------|----------------|---------------|
|----------------|------------------|----------------|---------------|
|----------------|------------------|----------------|---------------|
|-4--4-----------|-7--7----4--------|----------------|---------------|
|-2--2----5--5---|-5--5----2--4--4--|-5--5----2--2---|-4-4-4--4--4---|
|---------3--3---|------------2--2--|-3--3----0--0---|-2-2-2--2--2---|


							    3rd time to Coda
 Motorbreath    The sign...	     It's going to    take your breath away
|----------------|------------------|----------------|----------------------|
|----------------|------------------|----------------|----------------------|
|----------------|------------------|----------------|----------------------|
|-4--4-----------|-7--7----4--------|----------------|----------------------|
|-2--2----5--5---|-5--5----2--4--4--|-5--5----2--2---|-4-4-4-4-4-4-4-4--4---|
|---------3--3---|------------2--2--|-3--3----0--0---|-2-2-2-2-2-2-2-2--2---|


|--------------------------------|--------------------------------|
|--------------------------------|--------------------------------|
|--------------------------------|--------------------------------|
|--4p2---4p2---4p2---4p2---4--2--|--4p2---4p2---4p2---4p2---4--2--|
|------2-----2-----2-----2-------|------2-----2-----2-----2-------|
|--------------------------------|--------------------------------|


|--------------------------------|--------------------------------|
|--------------------------------|--------------------------------|
|--------------------------------|--------------------------------|
|--4p2---4p2---4p2---4p2---4--2--|--4p2---4p2---4p2---4p2---4--2--|
|------0-----0-----0-----0-------|------2-----2-----2-----2-------|
|--------------------------------|--------------------------------|


|--------------------------------|--------------------------------|
|--------------------------------|--------------------------------|
|--------------------------------|--------------------------------|
|--4p2---4p2---4p2---4p2---4--2--|--4p2---4p2---4p2---4p2---4--2--|
|------2-----2-----2-----2-------|------2-----2-----2-----2-------|
|--------------------------------|--------------------------------|


|--------------------------------|---------------------------------||
|--------------------------------|---------------------------------||
|--------------------------------|--------------------------------o||
|--4p2---4p2---4p2---4p2---4--2--|--4p2---4p2---4p2---4p2---4--2--o||
|------0-----0-----0-----0-------|------2-----2-----2-----2--------||
|--------------------------------|---------------------------------||


|----------------------|
|----------------------|
|----------------------|
|--4---------4----5----|
|--2---------2----3----|
|----------------------|


Solo 1

*w/Wah
|----------------|-----------------------------------------|
|-12---------9-9-|-12p9----9-12p9----9-12p9----9-12p9----9-|
|-11-------------|------11--------11--------11--------11---|
|----------------|-----------------------------------------|
|----------------|-----------------------------------------|
|----------------|-----------------------------------------|


|-----9----------9----------9----------9------|
|-12^---12p9-12^---12p9-12^---12p9-12^---12p9-|
|---------------------------------------------|
|---------------------------------------------|
|---------------------------------------------|
|---------------------------------------------|


|--------------------------------------|------------------------------------|
|-----9-12p9---------------------------|------------------------------------|
|-11^--------11-9----9-11p9------------|-------------------------------9-11-|
|-----------------11--------11-9-------|--------------9-9-11p9----9-11------|
|--------------------------------11-9\-|-----7-9-9/11----------11-----------|
|--------------------------------------|-/9---------------------------------|


|-------------------------------|
|----------------------------16-|
|-11p9----9-11p9----9-9\/18^----|
|------11--------11-------------|
|-------------------------------|
|-------------------------------|

							     DS al Coda
|-----16-----16-----16-19p16-------------------|-----------------------|
|-19^----19^----19^----------19-16-16-16-19p16-|----16-19p16-19^-------|
|----------------------------------------------|-18--------------------|
|----------------------------------------------|-----------------------|
|----------------------------------------------|-----------------------|
|----------------------------------------------|-----------------------|


Coda

|--------------|
|--------------|
|--------------|
|----4----5----|
|----2----3----|
|--------------|


Solo 2

|--12p9------12p9------12p9------12p9------|
|-------12p9------12p9------12p9------12p9-|
|------------------------------------------|
|------------------------------------------|
|------------------------------------------|
|------------------------------------------|


|--12p9------12p9------12p9------12p9---------|
|-------12p9------12p9------12p9------12p9h12-|
|---------------------------------------------|
|---------------------------------------------|
|---------------------------------------------|
|---------------------------------------------|


|--12p9-12p9-11-8-8-10-7-7-9-6-6-8-5-5-7-4-4-4-4-4-|
|--------------------------------------------------|
|--------------------------------------------------|
|--------------------------------------------------|
|--------------------------------------------------|
|--------------------------------------------------|


|--4----4-7p4--------------------|-----------------------------|
|-----7-------7-4-7-4------------|----4----4----4----6--4------|
|---------------------6-4-4^---4-|----4----4----4----6--4----4-|
|----------------------------6---|--6----6----6----6-------6---|
|--------------------------------|-----------------------------|
|--------------------------------|-----------------------------|

|-----------------------------------|-------------------------------|
|-----4-7p4-------------------------|-------------------------------|
|--6^-------4h6p4---4-6-4-----------|--------------------------4-6--|
|-----------------6-------6-4-------|------------4-4-6p4---4-6------|
|-----------------------------6--4\-|-----2-4/6----------6----------|
|-----------------------------------|--4----------------------------|


|---------------------------------|------9-9-----------9-----------|
|---------------------------------|----------12^--9-9----12^-12^~--|
|--6^---4-6p4---4-6p4---4/-9--11--|--11^---------------------------|
|-----6-------6-------6-----------|--------------------------------|
|---------------------------------|--------------------------------|
|---------------------------------|--------------------------------|


|--------9---------------9-------------|
|------9---12^---9-9-------12^-12^-12^-|
|--11^---------------11^---------------|
|--------------------------------------|
|--------------------------------------|
|--------------------------------------|


|----------------9h12p9---------------------|
|--12p9-9-9-12p9--------12p9----9-12p9------|
|----------------------------12--------11-9-|
|-------------------------------------------|
|-------------------------------------------|
|-------------------------------------------|


|-----------------------------------16-|
|--------------------------------19----|
|--9-9-11p9----------------------------|
|-----------11-9-9-9-11-9--------------|
|-------------------------11-9^--------|
|--------------------------------------|


|--16--16--16--16--16--16-19p16----16-19p16-21p16-|
|--19^-----19^-----19^----------19----------------|
|-------------------------------------------------|
|-------------------------------------------------|
|-------------------------------------------------|
|-------------------------------------------------|


|--19p16----16-19p16-21p16-19p16----16-19p16-------|
|--------19----------------------19----------19-19-|
|--------------------------------------------------|
|--------------------------------------------------|
|--------------------------------------------------|
|--------------------------------------------------|

|---------------16h19p16--------------------19p16-------|
|------16-19p16----------19-16-----16-19p16-------19-16-|
|--18^-------------------------18^----------------------|
|-------------------------------------------------------|
|-------------------------------------------------------|
|-------------------------------------------------------|


|---------------19p16----16-19^--19^----|--19^---------------|
|------16-19p16-------19----------------|--------------------|
|--18^----------------------------------|--------------------|
|---------------------------------------|--------------------|
|---------------------------------------|--------------------|
|---------------------------------------|--------------------|
comments
print report bad tab
8 comments total. Showing first comments.
0 reply
monkey_xxx2003 wrote on March 23 2005, 12:00 am

shiit. where do you get the time to tab this shiit out man

0 reply
VANHALENSMASTER wrote on January 29 2006, 08:25 pm

Dude your my ****ing god.

0 reply
SomeKindOfKirk wrote on February 6 2006, 01:18 pm

Good Tab But It Can't Be That He Tabbed It Out His Own I Mean
Look At How Many Tabs he Submitted Something Like 1600
I Mean Nobody Has That Much Time
but... Good Tab

I want to post or [tab]
guest
You may want to rate the tab now too:
select rating
Please do not post tabs as comments. Select "correction" instead!