Oops, an error
Loading. Please wait.

Damage Case Tab

ver2
ver2

Whole song

More versions @911Tabs.com
4,181 views 1 this week
1 commentread comment
1 2 3 4 5
excellent!
x 1
Autoscroll
+/-
esc
set tempo
stop
Contributor
WARNING: You are trying to view
                                    content from Ultimate-Guitar.com
                                    in an unauthorized application,
                                    which is prohibited.

                                    Please use an official Ultimate
                                    Guitar Tabs application for iPhone,
                                    iPad or Android to access legitimate
                                    chords, guitar, bass, and drum tabs
                                    from Ultimate-Guitar.com database.

                                    Type "ultimate guitar tabs" in Apple
                                    App Store's or Android Market's
                                    search to find the application.
Band- Metallica
Song- Damage Case

tr I (Eb Ab Db Gb Bb Eb) - 'James Hetfield - Rhythm w/dist'
Gtr II (Eb Ab Db Gb Bb Eb) - 'Kirk Hammett - Rhythm / Lead w/dist'

Intro
  Q=156(8=s8)
 4/4
  Gtr I
  Q  H         E  Q.    E  Q.      E  Q.    E  Q.       q  E E q  E E
|---------||--------------------|--------------------||----------------|
|---------||o-------------------|-------------------o||----------------|
|---------||-----12-------12----|----12-------14-----||----------------|
|---------||-----12-------12----|----12-------14-----||----------------|
|---------||o-14-------14-------|-14-------14-------o||-7--7-5-7--7-5--|
|---------||--------------------|--------------------||-0--0---0--0----|
|                                                     |-Rhy Fig 1A
| Gtr II
|                                              ~~~
| Q  H         E  Q.    E  Q.      E  Q.    E  Q.       q  q   q  q
|---------||--------------------|--------------------||----------------|
|---------||o-------------------|-------------------o||----------------|
|---------||--------------------|--------------------||----------------|
|---------||------5--------5----|-----5--------7-----||----------------|
|---------||o-----5--------5----|-----5--------7----o||-7--7---7--7----|
|---------||---0--------0-------|--0--------0--------||-0--0---0--0----|
                                                      |-Rhy Fig 1

  q  E E E  E E  E      +Q    q  q  E E   Q  E E E  E E  E  3x
|------------------||-------------------|-------------------||
|------------------||o------------------|------------------o||
|----------12---12-||--(12)\------------|----------12---12--||
|----------12---12-||--(12)\------------|----------12---12--||
|-7--7-5-7---------||o--------7--7--7p5-|-7--7p5-7---------o||
|-0--0---0---------||---------0--0--0---|-0--0---0----------||
|   end Rhy Fig 1A-||-Rhy Fig 2A             end Rhy Fig 2A-|
|
| q  E E E  E E  E      +Q    q  q  E E   Q  E E E  E E  E  3x
|------------------||-------------------|-------------------||
|------------------||o------------------|------------------o||
|------------------||-------------------|-------------------||
|-----------5----5-||---(5)-------------|-----------5----5--||
|-7--7-5-7--5----5-||o--(5)---7--7--7p5-|-7--7p5-7--5----5-o||
|-0--0---0---------||---------0--0--0---|-0--0---0----------||
     end Rhy Fig 1-||-Rhy Fig 2               end Rhy Fig 2-|

   Verse 1
   Rhy Fig 2 + 2 A x3.5 (both)


  q  E E E E E E
|----------------|
|----------------|
|----------------|
|----------------|
|-7--7p5-7-7-7-0-|
|-0--0---0-0-0---|
|-Rhy Fill 1   --|

 Chorus
  $
  Gtrs I, II
|-Rhy Fig 3
  B5              G5   D5           B5
  Q  Q  +E E Q    Q  E E +E E E E   Q  Q  +E E E E
  |  |   | | |    |  | |  | | | |   |  |   | | | |
  /  /   / / /    /  / /  / / / /   /  /   / / / /
|---------------|-----------------|----------------|


  G5   D5           B5              G5   D5
  Q  E E +E E E E   Q  Q  +E E Q    Q  E E +E E Q
  |  | |  | | | |   |  |   | | |    |  | |  | | |
  /  / /  / / / /   /  /   / / /    /  / /  / / /
|-----------------|---------------|----------------|


              end Rhy Fig 3-|
  E5                    A A#  B5
  Q  Q  H      H    E E E E   Q  Q  E E Q
  |                   | | |   |  |  | | |
  /                   x o o   /  /  / / /
|------------|--------------|--------------|


                      To Coda
  A5             E5 D5 E5 D5   E5A A#B
  Q  Q  E E Q    Q  Q  Q  Q    E E E E +H
  |  |  | | |    |  |  |  |    | | | |  |
  /  /  / / /    /  /  /  /    / o o o  /
|--------------|-------------|---------------||


 Verse 2
Rhy Fig 1 + 1A
Rhy Fig 2 + 2A x2.5
Rhy Fill 1 ->D.S. al Coda


        ~~~~~~
  E E E E +E  E E E
|-------------------||
|-------------------||
|-7-----------------||
|-7-----------------||
|-5-----------------||
|---5-6-7-(7)-7-7-7-||



 Guitar Solo
w/Rhy Fig 1A
  Gtr II
          ~~~~~~~~~~~~~~                               ~~~~~
                                |--3--|
   Q      Q        +Q.     E    E  E  E  E     E      +H
|----------------------------|-12----------------------------------|
|-15b17--15b17====(15)r------|----15-12-15b17-15b17==(15)r---------|
|--------------------------0-|-------------------------------------|
|----------------------------|-------------------------------------|
|----------------------------|-------------------------------------|
|----------------------------|-------------------------------------|

w/Rhy Fig 2A x3.5
    |----3-----|             |---3----|
    E     +E   E  E  E      +E   +E   E  E  E
|---------------------------------------------|
|--15b17r(15)-12------------------------------|
|----------------14-14b16==(14)r(14)p12----12-|
|---------------------------------------14----|
|---------------------------------------------|
|---------------------------------------------|


   E  E  E  E      +Q        E  E
|---------------------------------|
|---------------------------------|
|----------12b13==(12)r\--------7-|
|-14-12-14------------------/9----|
|---------------------------------|
|---------------------------------|


                                         ~~~~~~
                    |-3--|                        |--3---|
    E   E     +Q    E E  E E  E   E  E E E +Q     E E    E
|-------------------------------|---------------------------|
|-------------------------------|---------------------------|
|---9---9b12==(9)r--9p7----7----|------7--------------------|
|-----------------------11---11-|-9-11---7-(7)----7-7----7s=|
|-------------------------------|---------------------------|
|-------------------------------|---------------------------|


                 |-----3-----|
    Q    E E E E E     +E    E
|------------------------------|
|------------------------------|
|--------7---7-9-9pb12r(9)p==7-|
|---9--------------------------|
|----------7-------------------|
|------------------------------|


          ~~~~~~~
  S E S E E +E    E a E  E     Q     Q   S  E S E E
|--------------------------|---------7--------------|
|--------------------------|------------10-10-8-7---|
|-9p7---9-7-(7)\---------7-|---9b11---------------9-|
|-----9-----------7-7s9----|------------------------|
|--------------------------|------------------------|
|--------------------------|------------------------|


                 ~~~
  |-3-|                       |-3--|         |--3--|
  E E E E E +E  +Q      E     E  E E E E E E E E   E
|-------------------------|--------------------------|
|-7h8p7---7-(7)-(7)-----7-|---8p=7---7---7-----------|
|-------9-----------------|--------9---9---9-7h8---9-|
|-------------------------|--------------------------|
|-------------------------|--------------------------|
|-------------------------|--------------------------|
|
| q     E E  E   E   E  E    +Q      q   q   E   E
|-------------------------|--------------------------|
|---------------14--14-12-|-(12)---------------------|
|---------------14--14-12-|-(12)---------------------|
|---------------14--14-12-|-(12)---------------------|
|-7-----7p5--7------------|----------7---7---7p==5---|
|-0-----0----0------------|----------0---0---0-------|


           ~~~~~~
  Q      E E +Q     +Q
|---------------------------|
|---------------------------|
|-8tr9----------------------|
|-------10-7-(7)----(7)/----|
|---------------------------|
|---------------------------|
|
| Q      E E  E   E  E    E
|---------------------------|
|---------------------------|
|----------------12------12-|
|----------------12------12-|
|-7------7p5--7-------------|
|-0------0----0-------------|


w/Rhy Fig a x1.5
    ~~~~~
         |3|
    Q    E Q Q  E E   +E   E Q   E  E  E  S S
|-------------------|-------------------------|
|-------------------|-------------------------|
|-------------------|--------7---9--9\--------|
|---7----9------7-7-|-(7)S11-----------4-/9-9-|
|----------7-9------|-------------------------|
|-------------------|-------------------------|

                      |-w/Rhy Fill 1
                                ~~~~~~~PM
    E   E E E E E E E   +E  E E E +E   E E  E
|---------------------|-----------------------|
|-------------8p7---7-|-(7)-------------------|
|---------9-------9-7-|-(7)---7-9-(9)\-4-x-11-|
|---9---7-------------|-----9------------x----|
|-----------x---------|-----------------------|
|---------------------|-----------------------|


w/Rhy Fig 3
                          ~~~~~                      ~~~~~
                                                            |---3---|
   E     E  E  E  E      +Q.        E  E  E  E      +Q      E  E    E
|----------12--------------------|-12---------------------------------|
|-------12----12-15b17==(15)r----|-12-15-12---------------------------|
|-14b16--------------------------|----------14b16==(14)r---14p12------|
|--------------------------------|---------------------------------14-|
|--------------------------------|------------------------------------|
|--------------------------------|------------------------------------|


                                                 ~~~~~~~
                           |---3----|   |---3----|
   E  E  Q   E  E  E  E    E     E  E  +E   E    E  +Q     E  E
|-----------------15-17-|-17b19====17r(17)p15----------------15--|
|-----------15-17-------|-----------------------17-(17)---17-----|
|-12-12s16--------------|----------------------------------------|
|-----------------------|----------------------------------------|
|-----------------------|----------------------------------------|
|-----------------------|----------------------------------------|


          |--3--|
   Q      E  E  E  E  E  E  E
|-17b19--17p15----15----------|
|--------------17----15----15-|
|-----------------------16----|
|-----------------------------|
|-----------------------------|
|-----------------------------|



   E  E    E  E  E      +E   +Q       W            W
|-----------------------------------|------------|--------------|
|-17-17b20---19-19b21==(19)-(19)r\--|------------|--------------|
|-----------------------------------|------------|--------------|
|-----------------------------------|------------|--------------|
|-----------------------------------|------------|--------------|
|-----------------------------------|------------|--------------|


  Gtrs I, II
  Q  Q  Q  E E   Q  Q  Q  Q     Q  q  q  q    q  E E E E E E
|--------------|-------------||-------------|----------------||
|--------------|-------------||-------------|----------------||
|--------------|-------------||-2-----------|----------2---2-||
|-9--9--9--9-9-|-7--7--7--7--||-2--4--4--4--|-4--4---4-2---2-||
|-9--9--9--9-9-|-7--7--7--7--||-0--4--4--4--|-4--4---4-0---0-||
|-7--7--7--7-7-|-5--5--5--5--||----2--2--2--|-2--2p0-2-------||
                              |-Rhy Fig 4      end Rhy Fig 4-|

   Verse 3
                     1.,2.,3.            4.
    +Q   E E q  E E   q  E E E E E E     Q  E E E E E E
||------------------|-----------------||----------------||
||o-----------------|----------------o||----------------||
||--(2)-------------|----------2---2--||----------------||
||--(2)--4---4--4---|-4--4---4-2---2--||-4--4---4-4-4-4-||
||o-(0)--4---4--4---|-4--4---4-0---0-o||-4--4---4-4-4-4-||
||-------2p0-2--2p0-|-2--2p0-2--------||-2--2p0-2-2-2-2-||
 |-Rhy Fig 5            end Rhy Fig 5-||-Rhy Fill 3    --|

 Chorus
  Gtrs I, II
|-Rhy Fig 6
  C#5             A5   E5          C#5             A5   E5
  Q  Q  +E E Q    Q  E E +E E Q    Q  Q  +E E Q    Q  E E +E E Q
  |  |   | | |    |  | |  | | |    |  |   | | |    |  | |  | | |
  /  /   / / /    /  / /  / / /    /  /   / / /    /  / /  / / /
|---------------|----------------|---------------|-----------------|


                                                end Rhy Fig 6-|
  C#5             A5   E5           F#5                   B C
  Q  Q  +E E Q    Q  E E +E E E E   Q  Q  H      H    E E E E
  |  |   | | |    |  | |  | | | |   |                   | | |
  /  /   / / /    /  / /  / / / /   /                   x o o
|---------------|-----------------|------------|---------------|


  Gtr I
|-Rhy Fig 7
  C#5C#C#5   C#6   B5(B6pB5(type 2)
  Q  E E E E Q     Q  Q  Q  E E
  |  | | | | |     |  |  |  | |
  /  / / / / /     /  /  /  / /

  Gtr II
  Q  E E Q   E E   Q  Q  Q  Q
|----------------|--------------|
|----------------|--------------|
|----------------|--------------|
|-6--6p4-6---6s4-|-4--4--4--4S==|
|-4--4---4---4s2-|-2--2--2--2S==|
|----------------|--------------|

                       end Rhy Fig 7-|
  F#5  F#6F#5 F#6  F#5B C C#
   E E Q   Q  q     E E E E +Q   E E
   | | |   |  |     | | | |  |   | |
   / / /   /  /     / o o o  /   x x

                          ~~~~~~
   Q   Q   Q  Q     E E E E +H
|----------------|-------------------||
|----------------|-------------------||
|----------------|-------------------||
|-11---9--11--9--|-11----------------||
|--9---7---9--7--|--9----------------||
|----------------|----7-8-9-(9)------||


 Guitar Solo
w/Rhy Fig 4
  Gtr II
      ~~~~~~~~~~
                 |-3-|   |-3-| |-3-| |--3--| |----3----|
  E   Q.    +Q   E E E   E E E Q   E E E   E E E      +E
|----------------------|----------------------------------|
|----------------------|----------------------------------|
|-2b4------------------|-2---2-----2h3-----2---2b3====(2)r|
|-----4-----(4)--4p2-4-|---------------4------------------|
|----------------------|----------------------------------|
|----------------------|----------------------------------|

w/Rhy Fig 5 x10.5
       |--3--| |-3-|
  +Q   E E   E E E E S S S S
|----------------------------|
|----------------------------|
|-(2)--------------2-2h4p2---|
|------4p2-----2h4---------4-|
|------------4---------------|
|----------------------------


            ~~~~~~
      |--3--|
  E E E E   E +E  E E E
|--------------------------|
|--------------------------|
|-2-4-2h4---2-(2)-2-2-4b6==|
|--------------------------|
|--------------------------|
|--------------------------|


                      |---3----|   |--3--|         |--3--|
  +E  E  E  +E  E   E E    E   E   E +E  E E E E E E E   E
|--------2------------2----------|--------------------------|
|--------2------------2----2---2-|-------2---------------5--|
|-(4)-4-(4)r(4)-4b6-4-4b6========|=4r(4)-2-4-2h3-2-2-4------|
|--------------------------------|--------------------------|
|--------------------------------|--------------------------|
|--------------------------------|--------------------------|


             ~~~~~~
  +E  Q      E +E  E E E
|---------------------------|
|-(5)--------5-(5)-2--------|
|-----7pb8---4-(4)-2-4-4b5==|
|---------------------------|
|---------------------------|
|---------------------------|


  +E  +E  a E E +E  E Q      Q   E  E  E       Q    E
|-------------------------|---------------------------|
|-------------------2-----|------------------------14-|
|-(4)r(4)-2h4-4-(4)-2-----|-----------14b14.5------14-|
|---------------------4s==|=10--10-10---------10------|
|-------------------------|---------------------------|
|-------------------------|---------------------------|


   E  E  E  E  +E   E E  E        +E   +E   E  E  E  Q    E
|------------------------------|----------------------------|
|-14----14---------14---14b15==|=(14)r(14)-------14---------|
|-14---------------14---14b15==|=(14)r(14)-------14---------|
|----16----16-(16)-------------|-----------16-14----16---16-|
|------------------------------|----------------------------|
|------------------------------|----------------------------|


   E  E  E       E  +E   E  E  E
|------------------------------------|
|-14---------------------------------|
|-14----14b14.5------------14-16b18==|
|----16---------16-(16)-16-----------|
|------------------------------------|
|------------------------------------|


            ~~~~~~~~
                |---3----|
   +Q    E  E  +E   +E   E  E  E
|------------------------------------|
|-------17--------------------17-----|
|-(16)-----16-(16)r(16)p14-16-16b18==|
|------------------------------------|
|------------------------------------|
|------------------------------------|


    |---3----|              |----3-----|
   +E   +E   E  E  E       +E   +E     E  E  E
|--------------------------------------------------|
|-(17)---------17-17------(17)---------------------|
|-(16)r(16)p14-16-16pb18==(16)r(16)p==14-16-16b18r=|
|--------------------------------------------------|
|--------------------------------------------------|
|--------------------------------------------------|


                               |--3--|  |---3---|  |---3---|  |---3---|
   +E   E  E  E  E  E  E  E    E  E  E  E  E    E  E  E    E  E  E    E
|---------------------------|-------------------------------------------|
|---------------------------|-------------------------------------------|
|-(16)p14-16p14-16p14-16p14-|-16p14----14h16p==14-16p14------14------14h|
|---------------------------|-------16--------------------16----16------|
|---------------------------|-------------------------------------------|
|---------------------------|-------------------------------------------|


   |-------5--------|  |--3--|  |---3---|
   E   E  E    E    E  E  E  E  E  E    E
|------------------------------------------|
|------------------------------------------|
|-16p=14------14---16-14----14-16-14-------|
|--------16--------------16------------16--|
|------------------------------------------|
|------------------------------------------|


    |--3---|  |---3---|  |--3--|    |-----3-----|
   +E   E  E  E  E    E  E  S  E.  +E   a  E    E
|-------------------------------------------------|
|-------------------------------------------------|
|------16p14---------16p14-------------16p14h==16-|
|-(16)-------16p14---------16p14--(14)------------|
|-------------------------------------------------|
|-------------------------------------------------|


                      TP TP  TP
   |---3---|  |---3---|
   S   E.  E  E  E    E  Q   Q
|--------------------------------|
|---------------------------14---|
|---------14h16p14---14-16-------|
|-14h=16-------------------------|
|--------------------------------|
|--------------------------------|


   TP  TP      ~~~~~
   Q   Q       Q       E  E        +Q     Q       E    E  Q
|-----14------14------14-14-----|-(14)---14------14------14------|
|-17--17b18---17b19---17-17b19==|=(17)r--17b19---17b19---17b19---|
|-------------------------------|--------------------------------|
|-------------------------------|--------------------------------|
|-------------------------------|--------------------------------|
|-------------------------------|--------------------------------|


                                      ~~
              |-----3------|
   E      E   E      E     E  E  E E  E
|-14-----14--14-----14----17------------|
|-17b19r(17)-17b19r(17)---17-16-14---14-|
|----------------------------16-14---14-|
|---------------------------------------|
|---------------------------------------|
|---------------------------------------|


    ~~~~                         |-w/Rhy Fill 3
                     |--3---|        |------3------|   |3-|          |---3---|
   +Q    E  E  E  E  E E    E       +E       +E   +E   E  Q    E  E  Q    S  S
|--------------------------------|---------------------------------------------|
|-(14)---------------------------|---------------------------------------------|
|-(14)-----------14-16-----16b18r|=(16)b18==(16)r(16)p14------------14h==16p14-|
|-------16-14-16-----------------|-----------------------16---14-16------------|
|--------------------------------|---------------------------------------------|
|--------------------------------|---------------------------------------------|


w/Rhy Fig 6
          ~~~~~                                           ~~~~~~~
                      |----3-----|    |----3-----|
   Q      H           E     +E   E    E     +E   E  E     E  +Q     E  E
|----------------------------------|-------------------------------------|
|----------------------------------|-------------------------------------|
|-16b18--16b18-------16b18r(16)p14-|-16b18r(16)p14-16b17-14-(14)---------|
|----------------------------------|-------------------------------16-14-|
|----------------------------------|-------------------------------------|
|----------------------------------|-------------------------------------|


           ~~~~~~~
   E  E E  E  +Q     E  E    E  E  E  E      +Q      E  E
|-------------------------|--------------------------------|
|---------14-(14)---------|-------------------------17-17--|
|----14---14-(14)---------|----14-16-16b18==(16)r----------|
|-16----------------16-14-|-16-----------------------------|
|-------------------------|--------------------------------|
|-------------------------|--------------------------------|


                    ~~
                                                  |---3---|
   +E   E  E  E  E  Q    E    E  E  E  E  +Q      E  E    E
|---------------17-17---17-|-17h19p17-----------------------|
|-(17)-17-17s19------------|----------19-(19)\---14------14-|
|--------------------------|---------------------14h16------|
|--------------------------|--------------------------------|
|--------------------------|--------------------------------|
|--------------------------|--------------------------------|


                                                       ~~~~~~~
                 |----3-----|         |----3-----|
   Q      Q      E     +E   E  e E    E     +E   E  E  E  +Q     E  E
|----------------------------------|-----------------------------------|
|-17-----17-----17------------17---|-----------------------------------|
|-16b18--16b18--16b18r(16)p14-16---|-16b18r(16)p14-16-14-(14)----------|
|----------------------------------|----------------------------16-14--|
|----------------------------------|-----------------------------------|
|----------------------------------|-----------------------------------|


w/Rhy Fig 7
                 ~~~~~~~~~~~
                                         |-3-|
   E  E  Q       Q        Q     E  +E   +E   Q  Q   a  Q
|----------------------------|------------------------------|
|----------------------------|------------------------------|
|----14-16b18---16b18====16--|-16r(16)-(16)p14--------------|
|-16-------------------------|-----------------16--14h16\---|
|----------------------------|------------------------------|
|----------------------------|------------------------------|


               ~             ~~~~~~
  |---3---|
  E  E    E Q  Q  Q    E E E E +Q.    +E
|--------------------|---------------------||
|--------------------|---------------------||
|--------------------|---------------------||
|-4s10---10----------|---------------------||
|-----------7--9--7--|-9-------------------||
|--------------------|---7-8-9-(9)----(9)\-||


 Outro - Free Time
  Gtr II
  ~~
           |-3--|               |------3------|          |---3---|
  H.       E  E E   E   E      +E   +E       +E   +E  E  E    E  E
|-----------------:------------------------------------------------:
|-----------------:-------------------------------------------9--9-:
|---------------9-:----11b13==(11)r(11)b13==(11)r(11)p9-------9--9-:
|----------9h11---:-------------------------------------11---------:
|-9---------------:------------------------------------------------:
|-----------------:------------------------------------------------:
|
| Gtr I
| TP                TP
|                                                        |---3---|
| H     H           H.                                   E   +E  E
|-----------------:------------------------------------------------:
|-----------------:------------------------------------------------:
|-----------------:--------------------------------------4b6r(4)p2-:
|-4-----4---------:-4----------------------------------------------:
|-4-----4---------:-4----------------------------------------------:
|-2-----2---------:-2----------------------------------------------:


      ~~~
             |-----3-----|
   E  Q.     E     E     E     E       +E
|---------------------------------------------:
|-----------12----12----12----12--------------:
|-11-11-----11b13-11b13-11b13-11b13r==(11)----:
|---------------------------------------------:
|---------------------------------------------:
|---------------------------------------------:
|
|                              |-----3-----|
|  E  E  Q   Q                 E    E      E
|---------------------------------------------:
|--------2------------------------------------:
|------------------------------2-----------2h=:
|--4--------------------------------4---------:
|---------------------------------------------:
|-----2------2--------------------------------:


                      ~~~
                                                    |--3--|
   E  E  E      +E    Q.     S  S   H.       E E    Q  S  S  Q    H
|---------------------------------:--------------:---------------------*|
|-12----12-----------12-----------:--------------:---------------------*|
|--9h11-11b13==(11)r-11------9h11p:=9----------0-:-11-11-11-11\--------*|
|---------------------------------:----------0---:-11-11-11-11\--------*|
|---------------------------------:----------0---:--9--9--9--9\--------*|
|---------------------------------:--------------:---------------------*|
|
|                                   TP    ~
|  Q     Q            E  E E E      H     H         Q       +Q    H
|---------------------------------:-2-----2------:--2-------(2)\-------*|
|------------------------2---2----:-2-----2------:--2-------(2)\-------*|
|--3-------------------------3----:-3-----3------:--3-------(3)\-------*|
|--------4------------------------:-4-----4------:--4-------(4)\-------*|
|---------------------------------:-4-----4------:--4-------(4)\-------*|
|---------------------2----2------:-2-----2------:--2-------(2)\-------*|
comments
We did not receive enough feedback on this tab! Please rate:
print report bad tab
1 2 3 4 5
1 comment total.
+1 reply
Basti5857 wrote on August 22 2008, 03:07 pm

Great tab dude*****

I want to post or [tab]
guest
You may want to rate the tab now too:
select rating
Please do not post tabs as comments. Select "correction" instead!