Oops, an error
Loading. Please wait.

Death Magnetic Bass Tab

ver1
ver1

Album

Interactive

More versions @911Tabs.com
23,946 views 1 this week
2 commentsread comments
1 2 3 4 5
accurate
x 6
Autoscroll
+/-
esc
set tempo
stop
Contributor
Difficulty
intermediate
WARNING: You are trying to view
                                    content from Ultimate-Guitar.com
                                    in an unauthorized application,
                                    which is prohibited.

                                    Please use an official Ultimate
                                    Guitar Tabs application for iPhone,
                                    iPad or Android to access legitimate
                                    chords, guitar, bass, and drum tabs
                                    from Ultimate-Guitar.com database.

                                    Type "ultimate guitar tabs" in Apple
                                    App Store's or Android Market's
                                    search to find the application.
Metallica
Death Magnetic
BASS TABS

Here it is! After over a hole month of tabbing, I finally completed the hole
 album bass tab of "Death Magnetic".

Contents:

1.  That Was Just Your Life
2.  The End of the Line
3.  Broken, Beat & Scarred
4.  The Day That Never Comes
5.  All Nightmare Long
6.  Cyanide
7.  The Unforgiven III
8.  The Judas Kiss
9.  Suicide & Redemption
10. My Apocalypse

-----------------------------------------------------------------------------
That Was Just Your Life
Metallica
Death Magnetic
Bass Tab
Tuning: Standard (E, A, D, G)

0:22                               (x4) 0:44                           (
|-------------------------------------|---------------------------------|
|-*--------------5--5\--------------*-|-*-------------------------------|
|-*-----------7---------------------*-|-*-------------------------------|
|---0-(0)--------------0-(0)---0-(0)--|--0----0-0--0-0----0---0---1-(1)-|

x4) 1:07                                  1:17   (x4) 1:27
--|--------------------------------------|-----------|------------------|
*-|-*----------------------------------*-|-*-------*-|------------------|
*-|-*----------------------------------*-|-*-------*-|------------------|
--|--0-(0)---------3--3--3--3-3--3-3--2--|--0--3--5--|--0-----------0-0-|

                               1:38
------------------------------|------------------------------------------|
------------------------------|-*----------------------------------------|
------------------------------|-*----------7-----------------7-----------|
0----0-0-0----0-0-0----0---0--|--0-0-0-5-6---6-5-6-0-0-0-5-6---6-5-6-0-0-|

                                 1:48
--------------------------------|---------------------------------------|
------------------------------*-|-*-------------------------------------|
-------7----------------------*-|-*----7--7-(7)-------7--7-(7)-------7--|
-0-5-6---6-5-6-5-3-5-6-5-4-3-2--|--5-6------------5-6------------5-6----|

---------------|
-------------*-|
7-(7)--------*-|
--------5---3--|

1:58
|-----------------------------------------------------------------------|
|-*---------------------------------------------------------------------|
|-*----------7-----------------7-----------------7----------------------|
|--0-0-0-5-6---6-5-6-0-0-0-5-6---6-5-6-0-0-0-5-6---6-5-6--5-3-5-6-5-4-3-|

------------------------------------------------------------------------|
------------------------------------------------------------------------|
-------------7-----------------7-----------------7----------------------|
2--0-0-0-5-6---6-5-6-0-0-0-5-6---6-5-6-0-0-0-5-6---6-5-6--3-0-0-0-2-0-0-|

---|
-*-|
-*-|
0--|

2:18
|------------------------------------------------------|
|------------------------------------------------------|
|------7--7-(7)-------7--7-(7)-------7--7-(7)----------|
|--5-6------------5-6------------5-6------------5---3--|

2:23                                                              (x3)
|--------------------------------------------------------------------|
|-*----------------------------------------------------------------*-|
|-*----------------------------------------------------------------*-|
|--0--0-0-0-0-0-0-0--0--0-0-0-0-0-0-0--0-0-0-0-0-0--5-3-5-6-5-4-3-2--|

2:39
|---------------------------------------------------|
|---------------------------------------------------|
|---------------------------------------------------|
|--0--0--3----0--0--3----0--0--3---5-0-0-0-3-0-0-0--|

2:44
|-----------------------------------------------------------------------|
|-*---------------------------------------------------------------------|
|-*---------------------------------------------------------------------|
|--5-5-5-5-5-5-5-5-3-3-3-3-3-3-5-4-3-5-4-3--5-5-5-5-5-5-5-5-3-3-3-3---3-|

       (1,2,3)   (4)
|------------|-----|
-------------|-----|
-------------|---*-|
-------------|---*-|
-3--3--3--3--|--3--|

3:05
|-----------------------------------------------------------------------|
|-*---------------------------------------------------------------------|
|-*----------7-----------------7-----------------7----------------------|
|--0-0-0-5-6---6-5-6-0-0-0-5-6---6-5-6-0-0-0-5-6---6-5-6--5-3-5-6-5-4-3-|

---|
-*-|
-*-|
2--|

3:15
|------------------------------------------------------|
|------------------------------------------------------|
|------7--7-(7)-------7--7-(7)-------7--7-(7)----------|
|--5-6------------5-6------------5-6------------5---3--|

3:20
|-----------------------------------------------------------------------|
|-*---------------------------------------------------------------------|
|-*----------7-----------------7-----------------7----------------------|
|--0-0-0-5-6---6-5-6-0-0-0-5-6---6-5-6-0-0-0-5-6---6-5-6--5-3-5-6-5-4-3-|

------------------------------------------------------------------------|
------------------------------------------------------------------------|
-------------7-----------------7-----------------7----------------------|
2--0-0-0-5-6---6-5-6-0-0-0-5-6---6-5-6-0-0-0-5-6---6-5-6--3-0-0-0-2-0-0-|

---|
-*-|
-*-|
0--|

3:40
|------------------------------------------------------|
|------------------------------------------------------|
|------7--7-(7)-------7--7-(7)-------7--7-(7)----------|
|--5-6------------5-6------------5-6------------5---3--|

3:45
|--------------------------------------------------------------------|
|-*----------------------------------------------------------------*-|
|-*----------------------------------------------------------------*-|
|--0--0-0-0-0-0-0-0--0--0-0-0-0-0-0-0--0-0-0-0-0-0--5-3-5-6-5-4-3-2--|

4:01
|---------------------------------------------------|
|---------------------------------------------------|
|---------------------------------------------------|
|--0--0--3----0--0--3----0--0--3---5-0-0-0-3-0-0-0--|

4:07
|-----------------------------------------------------------------------|
|-*---------------------------------------------------------------------|
|-*---------------------------------------------------------------------|
|--5-5-5-5-5-5-5-5-3-3-3-3-3-3-5-4-3-5-4-3--5-5-5-5-5-5-5-5-3-3-3-3---3-|

       (1,2,3)   (4)
|------------|-----|
-------------|-----|
-------------|---*-|
-------------|---*-|
-3--3--3--3--|--3--|

4:27                 (x8) 4:47               (x3) 4:51
|-----------------------|-----------------------|-----------------------|
|-*-------------------*-|-*-------------------*-|-----------------------|
|-*-------------------*-|-*-------------------*-|-----------------------|
|--0-0-0----------1--0--|--0-0-0---0-0-0-0-0-0--|--0-0-0--0-0-0--0-0-0--|

-------|
-------|
-------|
0-0-0--|

4:52                                   (x4)
|-----------------------------------------|
|-*-------------------------------------*-|
|-*-7-(7)-------------------------------*-|
|----------6--5-(5)----4--3-(3)----2-(2)--|  (Last note doesn't sustain)

5:13
|-----------------------------------------------------------------------|
|-*---------------------------------------------------------------------|
|-*----------7-----------------7-----------------7----------------------|
|--0-0-0-5-6---6-5-6-0-0-0-5-6---6-5-6-0-0-0-5-6---6-5-6--5-3-5-6-5-4-3-|

------------------------------------------------------------------------|
------------------------------------------------------------------------|
-------------7-----------------7-----------------7----------------------|
2--0-0-0-5-6---6-5-6-0-0-0-5-6---6-5-6-0-0-0-5-6---6-5-6--3-0-0-0-2-0-0-|

---|
-*-|
-*-|
0--|

5:33                 (x4) 5:42              (x3) 5:47
|-----------------------|-----------------------|-----------------------|
|-*-------------------*-|-*-------------------*-|-----------------------|
|-*-------------------*-|-*-------------------*-|-----------------------|
|--0-0-0----------1--0--|--0-0-0---0-0-0-0-0-0--|--0-0-0--0-0-0--0-0-0--|

        5:48                                     5:53
-------|----------------------------------------|-----------------------|
-------|----------------------------------------|-*---------------------|
-------|------7-(7)-----7-(7)-----7-(7)---------|-*----7-(7)------5-(5)-|
0-0-0--|--5-6-------5-6-------5-6---------------|--5-6--------5-6-------|

                                                          6:13
---------------------------------------------------------|-------|
-------------------------------------------------------*-|-------|
---3-(3)------2-(2)------3-(3)---2-(2)---3-(3)---5-(5)-*-|-------|
----------2-3--------------------------------------------|--17\--|

6:14                 (x4) 6:23               (x3) 6:27
|-----------------------|-----------------------|-----------------------|
|-*-------------------*-|-*-------------------*-|-----------------------|
|-*-------------------*-|-*-------------------*-|-----------------------|
|--0-0-0----------1--0--|--0-0-0---0-0-0-0-0-0--|--0-0-0--0-0-0--0-0-0--|

-------|
-------|
-------|
0-0-0--|

6:29
|-----------------------------------------------------------------------|
|-*---------------------------------------------------------------------|
|-*----------7-----------------7-----------------7----------------------|
|--0-0-0-5-6---6-5-6-0-0-0-5-6---6-5-6-0-0-0-5-6---6-5-6--5-3-5-6-5-4-3-|

    6:38
---|---------------------------------------------------------------------|
-*-|-*-------------------------------------------------------------------|
-*-|-*-------------------------------------------------------------------|
2--|--5-5-5-5-5-5-5-5-3-3-3-3-3-3-5-4-3-5-4-3--5-5-5-5-5-5-5-5-3-3-3-3-3-|

     (x3) 6:54
--------|---------------------------------------------------------------|
------*-|---------------------------------------------------------------|
------*-|---------------------------------------------------------------|
-3-3-3--|--5-5-5-5-5-5-5-5-3-3-3-3-3-3-5-4-3-5-4-3--5-5-5-5-5-5-5-5-3-3-|

---------|
---------|
---------|
3-3---3--|

6:59
|-----------------------------------------------------------------------|
|-----------------------------------------------------------------------|
|------------7-----------------7-----------------7----------------------|
|--0-0-0-5-6---6-5-6-0-0-0-5-6---6-5-6-0-0-0-5-6---6-5-6--5-3-5-6-5-4-3-|

   7:04
---|-----|
---|-----|
---|-----|
2--|--0--|

END

-----------------------------------------------------------------------------
The End of the Line
Metalllica
Death Magnetic
Tuning: standard

0:00
|-----------------------------------------------------------|
|--------------------15-15-15-15-14---14-17---17-14-14-14\--|
|-----------------------------------------------------------|
|--1--0--3-3--0-(0)-----------------------------------------|

0:04                                                     (x3)
|-----------------------------------------------------------|
|-*------------------15-15-15-15-14---14-17---17-14-14-14\-*|
|-*--------------------------------------------------------*|
|-0-0-0-1--0--3-3--0-(0)------------------------------------|

0:19                               (x4) 0:29
|-------------------------------------|----------------------------------|
|-*---------------------------------*-|----------------------------------|
|-*---------------------------------*-|--2--1--4-4--2---3--2--5-5-2------|
|--1-1-1--0--0--1-2-3--0-0-0-0-0-0-0--|------------------------------0---|(

                         0:42                       (x3) 0:48
------------------------|------------------------------|----------------|
------------------------|-*--------------------------*-|----------------|
------------------------|-*--------------------5-6-7-*-|----------------|
0)---------------5/8\5--|--0--0--5h7--0--5-6-7---------|--0--0--5h7--0--|

              0:52                       (x3) 0:58
-------------|------------------------------|----------------------------|
----------7--|-*--------------------------*-|----------------------------|
------9-7----|-*--------------------5-6-7-*-|----------------------------|
5-6-7--------|--0--0--5h7--0--5-6-7---------|--0--0--5h7--0--3-3-3-3-3-3-|

       1:00                             1:05
------|--------------------------------|---------------------------------|
------|--------------------------------|-*-------------------------------|
------|--------------------------------|-*-------------------------------|
-3-3--|--0--5/6----5/6----5/7---5/6----|---5/6-0-0-0-0-5/6-0-0-5/7-0-0-0-|

 (x3) 1:11                                       1:14
----|-------------------------------------------|----------------------|
--*-|-------------------------------------------|-*--------------------|
--*-|-------------------------------------------|-*--------------------|
-0--|--2-0-0-0-0-3-0-0-0-0-5-0-0-0-0-6-0-0-0-0--|--5/6-0-0-0-0-0-0-0-0-|

-------------------------------------------------------------------------|
-------------------------------------------------------------------------|
-------------------------------------------------------------------------|
0-0--3--5/6-0-0-0-0-0-0-0-0-0-0-0-0--3--5/6-0-0-0-0-0-0-0-0-0-0-0-3--2-0-|

                                       1:32                    1:34
--------------------------------------|-----------------------|----------|
------------------------------------*-|-----------------------|-*--------|
------------------------------------*-|-----------------------|-*--------|
-0-0-0-3-0-0-0-0-5-0-0-0-0-6-0-0-0-0--|--0--5/6----5/6---5/7--|--0--0-5--|h

                (x3) 1:40                           1:42
-------------------|-------------------------------|---------------------|
-----------------*-|-------------------------------|-*-------------------|
------------5-6-7*-|-------------------------------|-*-------------------|
7--0--5-6-7--------|--0--0-5h7-0--3-3-3-3-3-3-3-3--|--0--5/6-0-0-0-0-5/6-|

       (x3) 1:49                                       1:51
----------|-------------------------------------------|------------------|
--------*-|-------------------------------------------|-*----------------|
--------*-|-------------------------------------------|-*----------------|
-0-0-5/7--|--2-0-0-0-0-3-0-0-0-0-5-0-0-0-0-6-0-0-0-0--|--5/6-0-0-0-0-0-0-|

-------------------------------------------------------------------------|
-------------------------------------------------------------------------|
-------------------------------------------------------------------------|
-0-0-0-0-0-0--3--5/6-0-0-0-0-0-0-0-0-0-0-0-0--3--5/6-0-0-0-0-0-0-0-0-0-0-|

                                                   2:10
--------------------------------------------------|----------------------|
------------------------------------------------*-|----------------------|
------------------------------------------------*-|----------------------|
-0-0--3--2-0-0-0-0-3-0-0-0-0-5-0-0-0-0-6-0-0-0-0--|--0----5/6----5/6---5-|

     2:12                                 (x10) 2:33
----|-----------------------------------------|------------------------|
----|-*-------------------------------------*-|------------------------|
----|-*-------------------------------------*-|------------------------|
/7--|--0h3h5-0h3h5-0h3h5-0h3h5-0h3h5-5-5-5-5--|--3---3---3---3---3--1--|

2:35                        (x3) 2:41
|------------------------------|----------------------------|
|-*--------------------------*-|--------------------------7-|
|-*--------------------5-6-7-*-|----------------------9-7---|
|--0--0--5h7--0--5-6-7---------|--0--0--5h7--0--5-6-7-------|

2:44                        (x3) 2:50
|------------------------------|---------------------------------|
|-*--------------------------*-|---------------------------------|
|-*--------------------5-6-7-*-|---------------------------------|
|--0--0--5h7--0--5-6-7---------|--0--0--5h7--0--3-3-3-3-3-3-3-3--|

2:52                              2:57
|--------------------------------|---------------------------------|
|--------------------------------|-*-------------------------------|
|--------------------------------|-*-------------------------------|
|--0--5/6----5/6----5/7---5/6----|---5/6-0-0-0-0-5/6-0-0-5/7-0-0-0-|

 (x3) 3:03                                       3:06
----|-------------------------------------------|----------------------|
--*-|-------------------------------------------|-*--------------------|
--*-|-------------------------------------------|-*--------------------|
-0--|--2-0-0-0-0-3-0-0-0-0-5-0-0-0-0-6-0-0-0-0--|--5/6-0-0-0-0-0-0-0-0-|

-------------------------------------------------------------------------|
-------------------------------------------------------------------------|
-------------------------------------------------------------------------|
0-0--3--5/6-0-0-0-0-0-0-0-0-0-0-0-0--3--5/6-0-0-0-0-0-0-0-0-0-0-0-3--2-0-|

                                       3:23
--------------------------------------|-----------------------|
------------------------------------*-|-----------------------|
------------------------------------*-|-----------------------|
-0-0-0-3-0-0-0-0-5-0-0-0-0-6-0-0-0-0--|--0--5/6----5/6---5/7--|

3:26                                  (x10) 3:47
|-----------------------------------------|------------------------|
|-*-------------------------------------*-|------------------------|
|-*-------------------------------------*-|------------------------|
|--0h3h5-0h3h5-0h3h5-0h3h5-0h3h5-5-5-5-5--|--3---3---3---3---3--1--|

3:49                 (x12) 4:18
|------------------------|----------------------------------------------|
|-*--------------------*-|-*--------------------------------------------|
|-*--------------------*-|-*--------------------------------------------|
|--0---0---0---0--4b-4b--|--0---0-0-0-0--0--0-0-0-0---5---5-5-5-5--5--5-|

     (x4)
--------|
------*-|
------*-|
-5-5-5--|


|-----------------------------------------------|---------|
|-*------15-15-15-15-14---14-17---17-14-14-14\*-|-*-----*-|
|-*-------------------------------------------*-|-*-----*-|
|--0-(0)----------------------------------------|--0-(0)--|

4:39                               (x8)
|-------------------------------------|
|-*---------------------------------*-|
|-*---------------------------------*-|
|--1-1-1--0--0--1-2-3--0-0-0-0-0-0-0--|

4:58
|-----------------------------------------------------------|
|--------------------15-15-15-15-14---14-17---17-14-14-14\--|
|-----------------------------------------------------------|
|--1--0--3-3--0-(0)-----------------------------------------|

5:03                                                         5:13
|-----------------------------------------------------------|-----------|
|-*------------------15-15-15-15-14---14-17---17-14-14-14\-*|-----------|
|-*--------------------------------------------------------*|-----------|
|-0-0-0-1--0--3-3--0-(0)------------------------------------|--0-0-0-1--|

----------------|
----------------|
----------------|
0--3-3--0----0--|

5:15                                   (x4) 5:23 (x4) 5:33
|-----------------------------------------|---------|------------------|
|-*-------------------------------------*-|-*-----*-|-*--------------*-|
|-*-------------------------------------*-|-*-----*-|-*--------------*-|
|--0h3h5-0h3h5-0h3h5-0h3h5-0h3h5-5-5-5-5--|--0-(0)--|--0-0---0---0--0--|

5:42
|----------------------------------------------------------------------|
|----------------------------------------------------------------------|
|----------------------------------------------------------------------|
|--0-(0)---------------------------------------------------------------|

6:00
|---------------------------------------------------------------|
|---------------------------------------------------------------|
|------9\7-(7)--------------------------------------------------|
|--0------------------------------------------------------------|

6:10                                                         (x3)
|-----------9----9-(9)------------------------------------------|
|-*----7--9---------------------------------------------------*-|
|-*-----------------------------------------------------------*-|
|--0--------------------------------0-(0)-----------------------|

6:37                                                   6:46
|-----------9----9-(9)--------------------------------|-------|
|------7--9-------------------------------------------|-------|
|-----------------------------------------------------|-------|
|--0--------------------------------3-3-3-3-3-3-------|--17\--|

6:47                                   (x8) 7:03    (x12) 7:11
|-----------------------------------------|-------------|----------------|
|-*-------------------------------------*-|-*----------*|----------------|
|-*-------------------------------------*-|-*--7-6-5-6-*|----------------|
|--0h3h5-0h3h5-0h3h5-0h3h5-0h3h5-5-5-5-5--|--0----------|---------12\--3-|

---------------------|
---------------------|
---------------------|
---3---3---3---3--1--|

 7:13                       (x3) 7:19
|------------------------------|--------------------------|
|-*--------------------------*-|--------------------------|
|-*--------------------5-6-7-*-|--------------------------|
|--0--0--5h7--0--5-6-7---------|--0--0--5h7--0--3---3--1--|

7:22
|-----------------------------------------------------|
|-*------------------------------------------------*--|
|-*--------------------5-6-7-----------------------*--|
|--0--0--5h7--0--5-6-7--------0--0--5h7--0--3---3--1--|

7:31
|----------------------------------------------------------------------|
|----------------------------------------------------------------------|
|----------------------5-6-7-------------------------------------------|
|--0--0--5h7--0--5-6-7--------0--0--5h7--0--3---3---3---3---3--1--0-(0)|

END  

-----------------------------------------------------------------------------
Song: Broken, Beat & Scarred
Band: Metallica
Album: Death Magnetic
Year: 2008
Tunning: Standard (E, A, D, G)
BASS TAB

0:00         (x4) 0:08          (x5) 0:17          (x6) 0:29
|---------------|------------------|------------------|-----------------|
|-*-----------*-|-*--------------*-|-*--------------*-|-----------------|
|-*5/7\5------*-|-*-5/7\5--------*-|-*--------------*-|-----------------|
|--------0---0--|--------0---0--0--|--0-0-0-0--0-0-0--|--0-0-0-0--0-0---|

------------------------------------------------------------------------|
------------------------------------------------------------------------|
----------------------------------------------------------------------7-|
0-0-0-3-0-0-0-3-0-0-0-0--0-0-0-3-0-0-0-5-0-0-0-6-0-0-0-0--5-0-0-7--9----|

      0:37                        0:40        (x8) 0:56
-----|---------------------------|---------------|-----------------------|
-----|---------------------------|-*-----------*-|-----------------------|
(7)--|---------------------------|-*-5/7\5-----*-|-----------------------|
-----|--0-0-1--0-0-1--0-0--0--0--|--------0---0--|--0-0-1--0-0-1--0-0--0-|

                       0:58                 1:00
-------14-------------|--------------------|----------------------------|
----12-----15--14-12--|--------------------|-*--------------------------|
----------------------|--------------------|-*-10-11-10h11p10-9-7-7-----|
--0-------------------|--0-0-1--0-0-1--0--0|----------------------0-0-0-|

                                               (x3) 1:12
--------------------------------------------------|---------------------|
------------------------------------------------*-|---------------------|
7-------------7-7------------7-7-7-------7-7----*-|--10-11-10h11p10-9-7-|
--0-0-0-0-0-0----0-0-0-0-0-0------0-0-0-0----0-0--|---------------------|

                                                          1:16
---------------------------------------------------------|---------------|
---------------------------------------------------------|-*-------------|
7------7-----------7-7-7-----------7-7-7---------7-7-7\--|-*10-11-10h11p-|
-0-0-0---0-0-0-0-0-------0-0-0-0-0-------0-0-0-0---------|---------------|

                                                                    (x4)
-----------------------------------------------------------------------|
---------------------------------------------------------------------*-|
10-9-7---------------------------------------------------------------*-|
-------0-0-0-0-0-0-0---0-0-0---0--0--0-0-0-0-0---0---0--0-0-0-0--0-0-0-|

1:32
|-----------------------------------------------------------------------|
|-*---------------------------------------------------------------------|
|-*10-11-10h11p10--9-7-----------------------------------10-11-10h11p10-|
|-----------------------5-----3----2-----0-0-0-0-0-0-0-0----------------|

-----------------------------------------------------------------------|
---------------------------------------------------------------------*-|
9-7------------------------------------------------------------------*-|
----0-0-0-0-0----0-0-0-0-0---0-0---0--0-0-0-0-0-0--0--0-0-0-0-0--0-0-0-|

1:48
|------------------------------------------------------------------------|
|------------------------------------------------------------------------|
|--10-11-10h11p10--9-7---------------------------------------------------|
|----------------------3-0-0-3-0-0-0-0-0-0-0-0--3-0-0-5-0-0-6-0-0--0-0-0-|

-----------------------------------------------------------------14---12-|
-------------------------------------------------------------12----------|
-------------------------------------------------5/7\5-------------------|
-0-0-0-0-0--5-0-0-2-0-0-2-0-0-0-0-0-0----0--0-----------0--0-------------|

                           2:00                 (x8) 2:16
h14p12---------------------|-----------------------|--------------------|
-------15-14---------------|-*-------------------*-|-*---------14-------|
---------------------7-(7)-|-*-------------------*-|-*12-13-14------13--|
-------------7---9---------|--3-0-0-0-0-0-0-0-3-2--|--------------0-----|

         2:20
--------|-----------------------------------------|
---14-*-|-----------------------------------------|
14----*-|----------7-(7)--------------------------|
--------|--7---9--------------0-0-1---0-0-1--0-0--|

2:22         (x4) 2:30
|---------------|-----------------------|
|-*-----------*-|-----------------------|
|-*-5/7\5-----*-|-----------------------|
|--------0---0--|--0-0-1--0-0-1--0-0--0-|

                       2:33                 2:35
-------14-------------|--------------------|----------------------------|
----12-----15--14-12--|--------------------|----------------------------|
----------------------|--------------------|---10-11-10h11p10-9-7-7-----|
--0-------------------|--0-0-1--0-0-1--0--0|----------------------0-0-0-|

                                                   2:38
--------------------------------------------------|---------------------|
--------------------------------------------------|---------------------|
7-------------7-7------------7-7-7-------7-7------|--10-11-10h11p10-9-7-|
--0-0-0-0-0-0----0-0-0-0-0-0------0-0-0-0----0-0--|---------------------|

                                                          2:43
---------------------------------------------------------|---------------|
---------------------------------------------------------|-*-------------|
7------7-----------7-7-7-----------7-7-7---------7-7-7\--|-*10-11-10h11p-|
-0-0-0---0-0-0-0-0-------0-0-0-0-0-------0-0-0-0---------|---------------|

                                                                    (x4)
-----------------------------------------------------------------------|
---------------------------------------------------------------------*-|
10-9-7---------------------------------------------------------------*-|
-------0-0-0-0-0-0-0---0-0-0---0--0--0-0-0-0-0---0---0--0-0-0-0--0-0-0-|

2:58
|-----------------------------------------------------------------------|
|-*---------------------------------------------------------------------|
|-*10-11-10h11p10--9-7-----------------------------------10-11-10h11p10-|
|-----------------------5-----3----2-----0-0-0-0-0-0-0-0----------------|

-----------------------------------------------------------------------|
---------------------------------------------------------------------*-|
9-7------------------------------------------------------------------*-|
----0-0-0-0-0----0-0-0-0-0---0-0---0--0-0-0-0-0-0--0--0-0-0-0-0--0-0-0-|

3:15
|------------------------------------------------------------------------|
|------------------------------------------------------------------------|
|--10-11-10h11p10--9-7---------------------------------------------------|
|----------------------3-0-0-3-0-0-0-0-0-0-0-0--3-0-0-5-0-0-6-0-0--0-0-0-|

-----------------------------------------------------------------14---12-|
-------------------------------------------------------------12----------|
-------------------------------------------------5/7\5-------------------|
-0-0-0-0-0--5-0-0-2-0-0-2-0-0-0-0-0-0----0--0-----------0--0-------------|

                            3:27                (x8) 3:42
h14p12---------------------|-----------------------|--------------------|
-------15-14---------------|-*-------------------*-|-*---------14-------|
---------------------7-(7)-|-*-------------------*-|-*12-13-14------13--|
-------------7---9---------|--3-0-0-0-0-0-0-0-3-2--|--------------0-----|

         3:45                                      3:53
--------|-----------------------------------------|---------------------|
---14-*-|-----------------------------------------|-*-------------------|
14----*-|----------7-(7)--------------------------|-*------1-------1--1-|
--------|--7---9--------------0-0-1---0-0-1--0-0--|--0-0-0---0-0-0------|

-------------------------------|
-----------------------------*-|
-0--1-------1---------1-2b-1-*-|
------0-0-0----0-0-0-----------|

4:00
|---------------------|
|-*-------------------|
|-*------1-------1--1-|
|--0-0-0---0-0-0------|

--------------------------------------|
-----------------------------------*--|
-0--1-------1----------------------*--|
------0-0-0----0-0-1--0--0--1--0--0---|

4:09
|---------------------|
|---------------------|
|--------1-------1--1-|
|--0-0-0---0-0-0------|

--------------------------------------------------|
--------------------------------------------------|
-0--1-------1-------------------------------------|
------0-0-0----0-0-1--0--0--1--0--0--1--0--0--1---|

4:13
|---------------------|
|-*-------------------|
|-*------1-------1--1-|
|--0-0-0---0-0-0------|

-----------------------------|
-----------------------------|
-0--1-------1---------1-2b-1-|
------0-0-0----0-0-0---------|

--------------------|
--------------------|
-------1-------1--1-|
--0-0-0---0-0-0-----|

--------------------------------------|
------------------------------------*-|
-0--1-------1-----------------------*-|
------0-0-0----0-0-1--0--0--1--0--0---|

4:28
|-----------------|
|-*-------------*-|
|-*--5-------3--*-|
|--3---3---1---1--|

4:32
|-------------------|
|-------------------|
|------1-------1--1-|
|-0-0-0---0-0-0-----|

-------------------------------------|
-------------------------------------|
-0--1-------1------------------------|
------0-0-0----0-0-1--0--0--1--0--0--|

4:36           (x4) 4:43
|-----------------|-------------------|
|-*-------------*-|-------------------|
|-*--5-------3--*-|-------------------|
|--3---3---1---1--|--0-0-0-0-0-0-0-0--|

4:45                                             (x4)
|---------------------------------------------------|
|-*-----------------------------------------------*-|
|-*------2-1-------1-0----------------------------*-|
|--0-0-0-----0-0-0-----0-0-0--4-3--0-0-0-0-0-0-0-0--|

5:01
|----------------------|
|----------------------|
|--------1-------1--1--|
|--0-0-0---0-0-0-------|

-----------------------------|
-----------------------------|
-0--1-------1---------1-2b-1-|
------0-0-0----0-0-0---------|

--------------------|
--------------------|
-------1-------1--1-|
--0-0-0---0-0-0-----|

-------------------------------------------------------------------------|
-------------------------------------------------------------------------|
-0--1-------1------------------------------------------------------------|
------0-0-0----0-0-3--0--0--3--0-0-3--0--0--3--0-0-0-0--3-0-0-0-0--3-0-0-|

------------------------------------------------------------------------|
------------------------------------------------------------------------|
------------------------------------------------------------------------|
0--5-0-0-0--6-0-0-0--0-0-0-0-0--5-0-0-0--2-0-0-0--2-0-0-0----0---0----0-|

---------------------------------|
---------------------------------|
---------------------------------|
---0------0----0-----0---0-------|

5:19                (x16) 5:50
|-----------------------|--------------------|
|-*-------------------*-|-*---------14-------|
|-*-------------------*-|-*12-13-14------13--|
|--3-0-0-0-0-0-0-0-3-2--|--------------0-----|

         5:53
--------|---------------------------------------------------------------|
---14-*-|---------------------------------------------------------------|
14----*-|---------------------------------------------------------------|
--------|0-0-3-0-0--3-0-0--0-0-0-0--3-0-0-5-0-0-6-0-0--0-0-0-0--5-0-020-|

          5:58                                            (x4)
---------|---------------------------------------------------|
---------|-*-----------------------------------------------*-|
---------|-*-----------------7----------------------7---9--*-|
0-2-0-0--|--0--0--0-0-0-0-0-----5--0--0--0-0-0-0-0----5---7--|

6:11
|---------------------------------------------------------------|
|---------------------------------------------------------------|
|---------------------------------------------------------------|
|0-0-3-0-0--3-0-0--0-0-0-0--3-0-0-5-0-0-6-0-0--0-0-0-0--5-0-020-|

          6:16
---------|---------------------------------------------------|
---------|---------------------------------------------------|
---------|-------------------7----------------------7---9----|
0-2-0-0--|--0--0--0-0-0-0-0-----5--0--0--0-0-0-0-0----5---7--|

6:19
|-------------------------------|
|-------------------------------|
|-------------------7-----------|
|--0--0--0-0-0-0-0-----5--0--0--|

END

-----------------------------------------------------------------------------
The Day That Never Comes
Metallica
Death Magnetic
Bass Tab
Tuning: Standard (E,A,D,G)

0:14                (x4) 0:45
|----------------------|-------------------------------|
|-*------------------*-|-------------------------7-(7)-|
|-*------------------*-|-------------------7-8-9-------|
|---5---5---5--5-(5)---|--5---5---5--7-8-9-------------|

0:56                                  1:04
|-------------------------------------|--------------|
|-------------------------------------|-*------------|
|-------------------------------5-(5)-|-*------------|
|--5-(5)---3-(3)---0-(0)--7-(7)-------|--5--5-5--5-4-|

                                         1:20
-----------------------------------------|------------------------------|
---------------------------------------*-|----------5-7\----------------|
---------------------------------------*-|------5-7---------------------|
3--3-3--2-1--0--0-0--0-0--7---7-7-2-3-4--|--5------------3--3-3--2-1-0--|

                        1:29
-----------------------|-----------------------------------------------|
-----------------------|-*---------------------------------------------|
-----------------------|-*---------------------------------------------|
0-0--0-0-7---7-7-7--0--|--5--5-5--5-4--3--3-3--2-1--0--0-0--0-0--7---7-|

      (x3) 1:53
---------|-------------------------------------------------------------|
-------*-|-*-----------------------------------------------------------|
-------*-|-*-3---3-3---------------------------------------------------|
7-2-3-4--|----------0-0-0-0-0-0-0-0--3-(3)--0-0-0-0-0-0-0-0--0-(0)---0-|

        (x4) 2:23                             2:28    2:30
-----------|--------------------7-8-9--------|-------|-----------------|
---------*-|--------------7-8-9--------------|-------|-*---------------|
---------*-|--------7-8-9-------------7-(7)--|-------|-*---------------|
7-6-0-7-6--|--7-8-9--------------------------|--0-5--|--7--7-7--7-5-3--|

                                       1.                     2.
                      |-----------------|----------------------| 2:45---|
----------------------------------------|----------------------|--------|
----------------------------------------|--------------------*-|-*------|
----------------------------------------|--------------------*-|-*------|
3-3-2-1-0--0-0--0-3-4-5b-5b-4--9b-9b-8--|--5/-17b---16-15-14\--|--5--5--|

                                           (x4) 3:17
----------------------------------------------|------------------------|
--------------------------------------------*-|-*----------------------|
--------------------------------------------*-|-*-3--3-3---------------|
5-5-4-3--3-3--2-1-0--0-0--0-0--7---7-7-2-3-4--|----------0-0-0-0-0-0-0-|

                                          (x4) 3:47
---------------------------------------------|--------------------7-8-9-|
-------------------------------------------*-|--------------7-8-9-------|
-------------------------------------------*-|--------7-8-9-------------|
0-3-(3)---0-0-0-0-0-0-0-0-(0)---0-7-6-0-7-6--|--7-8-9-------------------|

------------------------------------------------------------------------|
------------------------------------------------------------------------|
-7-(7)---------7-8-9--5-(5)-------7-8-9-0-(0)-------3-------2-------7-8-|
---------7-8-9--------------7-8-9-------------7-8-9---7-8-9---7-8-9-----|

               3:58                      4:05
--------7-8-9-|-------------------------|------------------------------|
--7-8-9-------|-*--------------------*--|-*----------------------------|
9-------------|-*-3-(3)-----2-(2)----*--|-*--------7---7--------7---7--|
--------------|-------0-(0)-----0-(0)---|--0-0--0---0---0-0--0---0---0-|

                        (x4) 4:35      (x3) 4:42
---------------------------|--------------|-------------------------|
---------------------------|-*----------*-|-------------------------|
-----7---7---------------*-|-*----------*-|-------------------------|
0--0---0---7-6-0-0-0-0-0-0-|--3-2--5-3-5--|--3--5--3--5--9--7--9--7\|

 4:45
|---------------------------------------------7-8-9---------------------|
|---------------------------------------7-8-9---------------------------|
|---------------------------------7-8-9-------------7-(7)---------7-8-9-|
|--9--8--7-(7)--9--8--7-(7)--7-8-9--------------------------7-8-9-------|

                               5:01
------7-8-9--------------------|-----------------------------------------|
7-8-9--------------------------|-*---------------------------------------|
------------7-(7)--------------|-*---------------------------------------|
-------------------------------|---0-0-0-0-0-0-0-0-0-0-0-0-0-0-0-0-2-1-0-|

------------------------------------------------------------------------|
------------------------------------------------------------------------|
------------------------------------------------------------------------|
--0-0-0-0-0-0-0-0-0-0-0-0-0-0-0-0-2-1-0---0-0-0-0-0-0-0-0-2-1-0---0-0-0-|

                                              5:16
---------------------------------------------|-------------------------|
-------------------------------------------*-|-*-----------------------|
-------------------------------------------*-|-*-----------------------|
0-0-0-0-0-2-1-0---0-0-0-0-0-0-0-0-2-1-0---0--|---0-0-0-0-0-0-0-0-0-0-0-|

                  5:20
-----------------|-----------------------------------------------------|
---------------*-|-*---------------------------------------------------|
---------------*-|-*-7-7-7-7-7-7-7-7-9-9-9-9-9-9-9-9-11-11-11-11-11-11-|
0-0-0-0-0-2-1-0--|-----------------------------------------------------|

------------------------------------------------------------------------|
------------------------------------------------------------------------|
11-11-11-11-11-11-11-11-11-11-15-15-15-15-15-15-15-15-14-14-14-14-14-14-|
------------------------------------------------------------------------|

                                                      1.
            |------------------------------------------|-----------------|
-------------------------------------------------------|-19-18-17--18-17-|
-------------------------------------------------------|-----------------|
14-14-12-12-12-12-12-12-12-12-12-12-12-12-12-12-12-12--|-----------------|
-------------------------------------------------------|-----------------|

                                            2.
---------------------------------------------| 5:36---------------------|
-16--17-16-15--16-15-14--15-14-13--14-13-12--|--------------------------|
-------------------------------------------*-|-*------------------------|
-------------------------------------------*-|-*--3-(3)------2-(2)------|
---------------------------------------------|----------0-(0)------0----|(0)

  5:44  (x6)         (x6)    (x4)
--|*---------|----------|-----*|
*-|-*-----*--|-*------*-|------|
*-|-*-----*--|-*------*-|------|
--|*--0h5h8--|--0h5h7---|--0--*|

                                  6:05          6:07       (x6)
|---------------------------------|-------------|--------------|
|-*-----------------------------*-|-------------|-*-----------*|
|-*-3-(3)-----2-(2)-------------*-|-------------|-*-7---7---7-*|
|--------0-(0)-----0-0-0-0-0-0-0--|--0-(0)------|-----0---0----|

6:13                             (x4) 6:27                          (x4)
|-----------------------------------|----------------------------------|
|-*----------------------5--------*-|-*------------------------------*-|
|-*--------------------5---7-5----*-|-*------------------------------*-|
|--7-5-3-5-7-5-3-5-7-5---------7-5--|--7-7-7-7-7-7-7-7-7-7-7-7-7-7-7-7-|

6:34                             (x4) 6:41
|-----------------------------------|------------------------------------|
|-*-------------------------------*-|------------------------------------|
|-*-------------------------------*-|------------------------------------|
|--3-3-3-3-3-3-3-3-3-3-3-3-3-3-3-3--|--5-5-5-5-5-5-5-5-5-5-5-5-5-5-5-5-5-|

                      6:45
---------------------|--------------------------------------------------|
---------------------|-*------------------------------------------------|
---------------7--9--|-*------------------------------------------------|
-5-5-5-5-5-5-5-------|--7-7-7-7-7-7-7-7-7-7-7-7-7-7-7-7-3-3-3-3-3-3-3-3-|

-------------------------------------------------------------------------|
-------------------------------------------------------------------------|
-------------------------------------------------------------------------|
-3-3-3-3-3-3-3-3-5-5-5-5-5-5-5-5-5-5-5-5-5-5-5-5-3-3-3-3-3-3-3-3-3-3-3-3-|

          6:59           (x16) 7:06  (x6)        (x6)    (x4)
---------|-------------------|*----------|-----------|-----*|
---------|-*---------------*-|-*-------*-|-*------*--|------|
-------*-|-*---------------*-|-*-------*-|-*------*--|------|
-3-3-3-3-|--0-0-0-0-0-0-0-0--|*--0h5h8---|--0h5h7----|--0--*|

7:20                    7:24
|------------------------|----------|
|------------------------|-*--------|
|--3-(3)-----2-(2)-------|-*-3-(3)--|
|-------0-(0)-----0-(0)--|--------0-|

                           7:31                        7:38
--------------------------|---------------------------|-----------------|
------------------------*-|-*------3----------------*-|-*---------------|
----2-(2)---------------*-|-*-3--2---3--------------*-|-*-----0-(0)-----|
-(0)-----3-2-1-0-3-2-1-0--|-------------3--2--0--(0)--|--2-(2)------3-2-|

          7:44                       7:48  (x4)
---------|--------------------------|---------|---------|
-------*-|-------3------------------|-*-----*-|-*-----*-|
-------*-|--3--2---3----------------|-*-----*-|-*-----*-|
1-3-2-1--|------------3--2--0--(0)--|--0h5h8--|--0h5h7--|

7:51
|-----------------|
|-----------------|
|-----------------|
|--3-3-3-3-3-3-0--|

*NOTES*

At 5:01, I'm not sure if the bass is even playing while the lead guitar does
 the fast riff. I just tabbed it out as if it the bass was playing.

At 6:07, you can barely hear the bass behind the sustaining lead guitar
 notes, and the drums. The bass follows the beat of the drums.

At 1:53, and at 3:17, you repeat the chorus riff three times, then you do
the following:

G|--------------------------------------------------------------------------|
D|--------------------------------------------------------------------------|
A|--3---3-3-----------------------------------------------------------------|
E|----------0-0-0-0-0-0-0-0-0-0-0-0-0-0-0-0-0-0-0-0-0-0-0-(0)--0-7-6-0-7-6--|

This song is really fun to play on bass! Hope you have fun learning it!

ENJOY!

-----------------------------------------------------------------------------
All Nightmare Long
Metallica
Death Magnetic
BASS TAB
Tuning: Drop D (D, A, D, G,)

(Only tune the 4th string to Drop D)

0:16                       0:24                        0:27
|-------------------------|---------------------------|-----------------|
|-*---------------------*-|---------------------------|-----------------|
|-*---------------------*-|---------------------------|-----------------|
|--0-------6---5----0--0--|--0--------6---5----0-0-0--|--0--------6---5-|

         0:30          (x3) 0:37                           (x4)
---------|----------------|-----------------------------------|
---------|-*------------*-|-*-------------------------------*-|
---------|-*------------*-|-*-------------------------------*-|
---0--0--|--0------0---0--|--0-0-0-0-0-0-0-0-0-0-0-0-0-0-0-0--|

0:42                                       (x4)
|---------------------------------------------|
|-*-----------------------------------------*-|
|-*-----------------------------------------*-|
|--3-2-1--0-0-0-0--0-0-0-0--0-0-0-0--0-0-0-0--|

0:53                                        (x4)
|----------------------------------------------|
|-*------------------------------------------*-|
|-*------------------------------------------*-|
|--3-2-1--0-0-0-0--1--1--0-0-0-0--3-2-1-3-2-1--|

 1:03                                                  (x3)
|--------------------------------------------------------|
|-*----------------------------------------------------*-|
|-*----------------------------------------------------*-|
|--3-2-1--0-0-0-0--0-0-0--1--1--0--0--1--1--3-2-1-3-2-1--|

1:12                                        1:14
|-------------------------------------------|-----------|
|-------------------------------------------|-*-------*-|
|-------------------------------------------|-*-------*-|
|--3-2-1--0-0-0-0--0-0-0--1--1--0--0--1--1--|--2--0--3--|

1:16
|------------------------------------------------------------------------|
|-*----------------------------------------------------------------------|
|-*----------------------------------------------------------------------|
|--0--0--3--0-0-0-0-0-0-0-0--0--0--3--0-0-0-0-0-0-0-0--0--0--3-0-0-0-0-0-|

                         1:27
------------------------|-----------------|
----------------------*-|-----------------|
-------5-5-5-7-7-8-9\-*-|-----------------|
-0-0-0------------------|--3---4---5---6--|

1:29
|--------------------------------------------|
|--------------------------------------------|
|--------------------------------------------|
|--5--5-5-5--5-5-5--5-5-5--5-5-5--5-5-5-5-5--|

1:31
|------------------------------------------------------------------------|
|------------------------------------------------------------------------|
|------------------------------------------------------------------------|
|--0--0--3--0-0-0-0-0-0-0-0--0--0--3--0-0-0-0-0-0-0-0--0--0--3-0-0-0-0-0-|

                         1:37
------------------------|-----------------|
------------------------|-----------------|
-------5-5-5-7-7-8-9\---|-----------------|
-0-0-0------------------|--3---4---5---6--|

1:39
|-----------------------|
|-----------------------|
|-----------------------|
|--5-5-5-5--5-5-5-5--5--|

1:41
|-----------------------------------------------------------------------|
|-----------------------------------------------------------------------|
|-----------------------------------------------------------------------|
|--0-(0)--------------------0-(0)-----------------3--------2--------3---|

                 2:03       (x4) 2:09               2:12
-----------------|-------------|-------------------|--------------------|
-----------------|-*---------*-|-*---------------*-|--------------------|
-----------------|-*-2-------*-|-*---------------*-|--------------------|
--2-----3-----2--|------2---3--|--0-0-0-0-0-2-1-0--|--3---4---5---6---5-|

---------------|
---------------|
---------------|
5-5-5-5-5-5-5--|

2:15
|------------------------------------------------------------------------|
|------------------------------------------------------------------------|
|------------------------------------------------------------------------|
|--0--0--3--0-0-0-0-0-0-0-0--0--0--3--0-0-0-0-0-0-0-0--0--0--3-0-0-0-0-0-|

                         2:21
------------------------|-----------------|
------------------------|-----------------|
-------5-5-5-7-7-8-9\---|-----------------|
-0-0-0------------------|--3---4---5---6--|

2:23
|-----------------------|
|-----------------------|
|-----------------------|
|--5-5-5-5--5-5-5-5--5--|

                                           (x4)
2:25                (x3)                       2:48
|*---------------------|---------------------*|-------------|
|-*------------------*-|----------------------|-------------|
|-*--------8-8-8-7-7-*-|--\-3--3--3-2-2-1-0---|-------------|
|*--0---0--------------|---------------------*|--0---0---0--|

2:49                                                  (x3)
|--------------------------------------------------------|
|-*----------------------------------------------------*-|
|-*----------------------------------------------------*-|
|--3-2-1--0-0-0-0--0-0-0--1--1--0--0--1--1--3-2-1-3-2-1--|

2:57                                         3:00
|-------------------------------------------|-----------|
|-------------------------------------------|-*-------*-|
|-------------------------------------------|-*-------*-|
|--3-2-1--0-0-0-0--0-0-0--1--1--0--0--1--1--|--2--0--3--|

3:02
|------------------------------------------------------------------------|
|-*----------------------------------------------------------------------|
|-*----------------------------------------------------------------------|
|--0--0--3--0-0-0-0-0-0-0-0--0--0--3--0-0-0-0-0-0-0-0--0--0--3-0-0-0-0-0-|

                         3:12
------------------------|-----------------|
----------------------*-|-----------------|
-------5-5-5-7-7-8-9\-*-|-----------------|
-0-0-0------------------|--3---4---5---6--|

3:15
|-----------------------|
|-----------------------|
|-----------------------|
|--5-5-5-5--5-5-5-5--5--|

3:16
|-----------------------------------------------------------------------|
|-----------------------------------------------------------------------|
|-----------------------------------------------------------------------|
|--0-(0)--------------------0-(0)-----------------3--------2--------3---|

                  3:38      (x4) 3:44               3:48
-----------------|-------------|-------------------|--------------------|
-----------------|-*---------*-|-*---------------*-|--------------------|
-----------------|-*-2-------*-|-*---------------*-|--------------------|
--2-----3-----2--|------2---3--|--0-0-0-0-0-2-1-0--|--3---4---5---6---5-|

---------------|
---------------|
---------------|
5-5-5-5-5-5-5--|

3:51
|------------------------------------------------------------------------|
|------------------------------------------------------------------------|
|------------------------------------------------------------------------|
|--0--0--3--0-0-0-0-0-0-0-0--0--0--3--0-0-0-0-0-0-0-0--0--0--3-0-0-0-0-0-|

                        3:56
------------------------|-----------------|
------------------------|-----------------|
-------5-5-5-7-7-8-9\---|-----------------|
-0-0-0------------------|--3---4---5---6--|

3:59
|-----------------------|
|-----------------------|
|-----------------------|
|--5-5-5-5--5-5-5-5--5--|

                                           (x4)
4:01                (x3)                       4:23
|*---------------------|---------------------*|-------------|
|-*------------------*-|----------------------|-------------|
|-*--------8-8-8-7-7-*-|--\-3--3--3-2-2-1-0---|-------------|
|*--0---0--------------|---------------------*|--0---0---0--|

4:25                               4:26         (x4) 4:37
|----------------------------------|---------------|-------------|
|----------------------------------|-*----------*--|-------------|
|----------------------------------|-*----------*--|-------------|
|--0-0-0--0-0-0--0-0-0--0-0-0--0---|--0--0-0-0--0--|--3---3---3--|

4:38                            (x8) 4:58                       (x3)
|----------------------------------|-------------------------------|
|-*------------------------------*-|-*---------------------------*-|
|-*------------------------------*-|-*---------------------------*-|
|--0-0-0--7--7-7--0-0-0--3--0-2-0--|--0-0-0-7-0-9-0-0-0-7-0-0-0-5--|

5:06                                     5:09        (x3) 5:16
|---------------------------------------|---------------|---------------|
|---------------------------------------|-*-----------*-|-*-------------|
|---------------------------------------|-*-----------*-|-*-------------|
|--0-0-0-7-0-9-0-0-0-7-0-0-0-0-0-0-0-0--|--0-0-0-0---0--|--0-0-0-0--9b--|

              5:21   5:22
-------------|------|----------------------------------------------------|
-----------*-|------|-*--------------------------------------------------|
-----------*-|------|-*--------------------------------------------------|
0-0-0-9b--7--|--7\--|--5-7-5-4-0-0--5-7-5-4-3-0---5-7-5-4-0-0--5-7-5-4-3-|

                                                            5:41
-----------------------------------------------------------|------------|
---------------------------------------------------------*-|-*----------|
---------------------------------------------------------*-|-*----------|
-0--5-7-5-4-0-0--3-3-3--0-0-0--3-3-2--0-0-0--3-3-1--0-0-0--|--0-0-0-0-0-|

                        5:47            (x3) 5:51          5:52
-----------------------|-------------------|--------------|--------------|
---------------------*-|-*---------------*-|--------------|-*------------|
---------------------*-|-*---------------*-|--------------|-*------------|
0-0-0-0-0-0-0-0-0-0-0--|--3-3-3-3-3-3-3-3--|--7--5--7--5--|--3-3-3-3--3--|

       5:55                5:57                6:00               6:02
------|-------------------|-------------------|------------------|------|
----*-|-*---------------*-|-*---------------*-|-*--------------*-|-*----|
----*-|-*---------------*-|-*---------------*-|-*--------------*-|-*----|
------|--5-5-5-5--5-------|--7-7-7-7--7-------|--5-5-5-5--5------|--3-3-|

     (x4) 6:05      (x4) 6:07      (x4) 6:10      (x4) 6:13      (x3)
--------|--------------|--------------|--------------|--------------|--|
------*-|-*----------*-|-*----------*-|-*----------*-|-*----------*-|--|
------*-|-*----------*-|-*----------*-|-*----------*-|-*----------*-|--|
3-3--3--|--5-5-5-5--5--|--7-7-7-7--7--|--5-5-5-5--5--|--0-0-0-0--0--|3\|

6:16                                 6:20
|-----------------------------------|-----------------------------------|
|-*------------------------------*--|-*---------------------------------|
|-*------------------------------*--|-*---------12-11-10-11-12-13-------|
|--0-0-0-0-0-0-0-0-0-0-0-0-0-0-0-0--|--0-0-0--0-------------------0-0-0-|

                       6:31
----------------------|--------------------------------------------------|
--------------------*-|--------------------------------------------------|
--------------------*-|-----------12-11-10-11-12-13-10-9-8-7-6-5---------|
0-0-0-0-0-0-0-0-0--0--|--0-0-0--0--------------------------------0-0-0-0-|

           6:39                                     (x6) 6:54
----------|--------------------------------------------|------------|
----------|-*----------------------------------------*-|--Short-----|
----------|-*--------------------------------7--6--5-*-|--Pause-----|
-0-0-0-0--|--0-0-0-0-0-0-0-0-0-0-0-0-0-0-0-0-----------|------------|

                                           (x4)
6:56                (x3)                       7:19
|*---------------------|---------------------*|-------------|
|-*------------------*-|----------------------|-------------|
|-*--------8-8-8-7-7-*-|--\-3--3--3-2-2-1-0---|-------------|
|*--0---0--------------|---------------------*|--0---0---0--|

7:20
|--------------------------------------------------------|
|-*----------------------------------------------------*-|
|-*----------------------------------------------------*-|
|--3-2-1--0-0-0-0--0-0-0--1--1--0--0--1--1--3-2-1-3-2-1--|

7:26                                   (x4)
|-----------------------------------------|
|-*-------------------------------------*-|
|-*-------------------------------------*-|
|--0-0-0-0-0-0-0-0-0-0-0-0-0-0-0-0-2-0-2--|

7:36         7:37                    (x3) 7:44       7:45         (x4)
|-----------|---------------------------|-----------|----------------|
|-----------|-*-----------------------*-|-----------|-*--------1-2-*-|
|-----------|-*-----------------------*-|-----------|-*------------*-|
|--2-0-4-0--|--2-0-4-0-2-0-3-0-2-0-3-0--|--2-0-4-0--|--0--0-1-0------|

7:49
|-------------------------------------|
|-------------------------------------|
|-------------------------------------|
|--2--0--5--6--5-(5)------3--2--3--0--|

END

-----------------------------------------------------------------------------
Song: Cyanide 
Band: Metallica
Year: 2008
Album: Death Magnetic
Tuning: Standard (E, A, D, G)

Updated for studio version! 

Riff A: (x4)

G|----------------------------------|
D|----------------------------------|
A|--------------1---1---1-----------| 
E|--0--0--0---------------0-0-0-----|

Bass Solo Riff: (x24)

G|---------------|
D|---------------|
A|---------------|
E|--0---0-0---0--|

Riff B: (x8)

G|------------|
D|------------|
A|-------7-5--|
E|--0--0------|

Verse (Bass Solo Riff (x16)

Riff C: 

G|------------------------------------------------------------------------|
D|------------------------------------------------------------------------|
A|--5-5-5-5-5-5-5-5-5-5-5-5-5-5-5-5--2-2-2-2-2-2-2-2-2-2-2--2--2--5--5-5--|
E|------------------------------------------------------------------------|

Riff B (x4)
Riff C 
Riff B (x5)

Chorus:

G|---------------------------------------|
D|---------------------------------------|
A|---------------------------------------|
E|--3-3-3-0-0-0-0-0-0-0-0-0-0-0-0-0-0-0--|

   Suicide....
G|-----------------------------------------------------------------------|
D|--------------------------------------5h7------------------------------|
A|--7-----------5-6-7-------------5-6-7-----7-6--------------------------|
E|----5-4-0-0-0-------5-4-0-0-0-5---------------5-4-0-0-0-0-0-0-0-0-0-0--|

   Cyanide....
G|-------------------------------------------------------------------------|
D|-------------------------------------------------------------------------|
A|--2-----------2-3-4---------------2-3-4--2h4-4-3-2-----------1-1-1-------|
E|----2-1-0-0-0-------2-1-0-0-0-2-3------------------2-1-0-0-0-------0-0-0-|

Bass Solo Riff: (x18)
Riff B (x8)
Verse (Bass Solo Riff (x16)
Riff C
Riff B (x4)
Riff C
Riff B (x5)
Chorus

Riff D (x2)

G|--------------------------------------------------|
D|--------------------------------------------------|
A|--------------------------------------------------|
E|--0--0-0-0--0--0-0-0--3-4-5-4---5-5-5--4-3-0-3-0--|

Riff E: (x4)

G|---------------------|
D|---------------------|
A|--3-3-3-3-4-1-3-(3)--|
E|---------------------|

Verse 2 (x8)

G|-------------|
D|----5--------|
A|------7-(7)--|
E|--0----------|

Riff E: (x4)
Verse 2: (x8)
During Solo Riff A (Riff F (x8)

G|---------------|
D|---------------|
A|---------------|
E|--5--3--0-(0)--|


During Solo Riff B (x2)

G|-----------------|-------------|
D|-*-------------*-|-*---------*-|
A|-*-------------*-|-*---------*-|
E|--3--5--5-3-0-3--|--0-3-4-3-0--|

During Solo Riff C

G|-----------------|----------------------------|
D|-*-------------*-|----------------------------|
A|-*-------------*-|----------------------------|
E|--3--5--5-3-0-3--|--0-0-0-0-0-0-0--0-0-0-0-0--| 

                  (X4)
G|-------------------|
D|-*---------------*-|
A|-*-12-11-10-(10)-*-|
E|-------------------|

There is a pause where there is only guitar and drums, then:

         (x4)
G|-----------|
D|-*--------*|
A|-*--------*|
E|--0-0-5h7--|

Riff C
Riff B (x8)
Bass Solo Riff (x20)
Riff B (x8)
Riff C 
Riff B (x4)
Riff C
Riff B (x5)
Chorus
Riff A (x4)

END
-----------------------------------------------------------------------------
The Unforgiven III
Metallica
Death Magnetic
BASS TAB
Tunning: Standard (E, A, D, G)

0:55       (x8) 1:11                                    1:27
|-------------|----------------------------------------|-----------------|
|-*---------*-|-*--------------------------------5-4-*-|-----------------|
|-*---------*-|-*---------------3-------2----3-2-----*-|-----------------|
|--0-----1/2--|--1/2--0-----1/2------------------------|--0----1/2-0--1--|

           1:35                                                     (x4)
----------|------------------------------------------------------------|
----------|-*---------------5------------------5--7--------------5---*-|
----------|-*---------5--7-----7---------5--7---------------5--7---7-*-|
2----0----|--0--5--7---------------5--7---------------5--7-----------7-|

2:07
|-----------------------------------------------------------------------|
|-----------------------------------------------------------------------|
|-------------------------------5-4--4-3--3-2--2-1----------------------|
|--7---7--5---5--4---4--3---3-----------------------7---7--5---5--4---4-|

---------------------------------------------------------------------|
---------------------------------------------------------------------|
---------5-4--4-3--3-2--2-1b-----------------------------------------|
-3---3------------------------5-4--4-3--3-2--2-1--0---1/2---0---1/2--|

2:26                                 (x4) 2:57
|----------------------------------------|------------------|
|-*--------------------------------5-4-*-|------------------|
|-*---------------3-------2----3-2-----*-|------------------|
|--1/2--0-----1/2------------------------|--0----1/2-0---1--|

           3:04                                                     (x4)
----------|------------------------------------------------------------|
----------|-*---------------5------------------5--7--------------5---*-|
----------|-*---------5--7-----7---------5--7---------------5--7---7-*-|
2----0----|--0--5--7---------------5--7---------------5--7-----------7-|

3:35
|-----------------------------------------------------------------------|
|-----------------------------------------------------------------------|
|-------------------------------5-4--4-3--3-2--2-1----------------------|
|--7---7--5---5--4---4--3---3-----------------------7---7--5---5--4---4-|

---------------------------------------------------------------------|
---------------------------------------------------------------------|
---------5-4--4-3--3-2--2-1b-----------------------------------------|
-3---3------------------------5-4--4-3--3-2--2-1--0---------0--------|

3:54                                  (x4) 4:25
|----------------------------------------|-----------------|
|-*--------------------------------5-4-*-|-----------------|
|-*---------------3-------2----3-2-----*-|-----------------|
|--1/2--0-----1/2------------------------|--0----1/2--0-1--|

           4:33               5:04
----------|------------------|------------------------------------------|
----------|--4:33--to--5:04--|-*----------------------------------------|
----------|------NO BASS-----|-*-------------------------------------3--|
2----0----|------------------|--0-0-0-0--0-0--1-2--0-0-0-0--0-0--2-3----|

                                    (x3) 5:26
---------------------------------------|--------------------------------|
-------------------------------------*-|--------------------------------|
------------------2------------------*-|--------------------------------|
0-0-0-0--0-0--2-3----0-0-0-0--0-0-0-0--|--0-0-0-0--0-0--1-2--0-0-0-0--0-|
(Third time: Increase tempo speed)

------------------------------------------------|
------------------------------------------------|
-------3---------------------2------------------|
0--2-3----0-0-0-0--0-0--2-3-----0-0-0-0--0---0--|

5:34                                                      (x6)
|------------------------------------------------------------|
|-*---------------5------------------5--7--------------5---*-|
|-*---------5--7-----7---------5--7---------------5--7---7-*-|
|--0--5--7---------------5--7---------------5--7-----------7-|

6:18
|-----------------------------------------------------------------------|
|-----------------------------------------------------------------------|
|-------------------------------5-4--4-3--3-2--2-1----------------------|
|--7---7--5---5--4---4--3---3-----------------------7---7--5---5--4---4-|

                                                      6:32
-----------------------------------------------------|-----------------|
-----------------------------------------------------|-----------------|
---------5-4--4-3--3-2--2-1b-------------------------|-----------------|
-3---3------------------------5-4--4-3--3-2--2-1--0--|--1/2--0----1/2-0|

6:37                                    6:45
|--------------------------------------|-------------------------------|
|---------------------------------5-4--|-------------------------------|
|----------------3-------2----3-2------|----------------------3----2---|
|--1/2--0-----1/2----------------------|--0----1----2----3-------------|

6:50                                  (x4) 7:23
|----------------------------------------|-----------------------------|
|-*--------------------------------5-4-*-|-----------------------------|
|-*---------------3-------2----3-2-----*-|-----------------------------|
|--1/2--0-----1/2------------------------|--0---1/2--0----1/2-0---0-(0)|

END
-----------------------------------------------------------------------------
The Judas Kiss
Metallica
Death Magnetic
BASS TAB
Tuning: Standard (E, A, D, G,)

0:00                                0:05
|----------------------------------|--------------------------|
|----------------------------------|--------------------------|
|----------------------------------|--------------------------|
|--0---3---0-0-0-0--3--5-(5)-------|--0---3---0-0-0-0--3--5\--|

0:08
|----------------------------------|
|----------------------------------|
|----------------------------------|
|--0---3---0-0-0-0--3--5-(5)-------|

0:12
|-----------------------------------------------------------------------|
|-----------------------------------------------------------------------|
|--2-------3-------0-------2---------------2-------3-------5-------5----|
|----0-0-0---0-0-0---0-0-0---0-0-0-1---0-----0-0-0---0-0-0---0-0-0----0-|

-----------------------------|
-----------------------------|
-----------------------------|
-1--2--3--0---0---0---0---0--|

0:24                                (x8)
|--------------------------------------|
|-*----------------------------------*-|
|-*7/8--------7/8--------------------*-|
|------0---0------0---0--0-0-0--0-0-0--|

0:46                             0:53
|-------------------------------|----------------------------------------|
|-*---------------------------*-|----------------------------------------|
|-*9-----9--------------------*-|--9-----9-----------------9----9--------|
|-----9-----8--8--8-8-8--8-8-8--|-----9-----8--8--8--8--8-----9--8\3-2-3-|

    0:58                                        1:07
---|-------------------------------------------|------------------------|
---|-*---------------------------------------*-|-*----------------------|
---|-*---------------------------------------*-|-*----------------------|
p--|--0-0-3ph3p--0-0-3ph3--0-0--3ph5ph3ph5ph3p-|--0-0-0-0--3p--0-0-0-0--|

                              1:14
-----------------------------|-----------------------------------------|
---------------------------*-|-----------------------------------------|
---------------------------*-|--7--7--7--7--7--7--10--10--10--10--10-10|
3p--0-0-0-0--3ph5ph3ph5ph3p--|-----------------------------------------|

1:18                                       1:21
|-----------------------------------------|------------------------------|
|-----------------------------------------|-*----------------------------|
|-----------------------------------------|-*----------------------------|
|--3p--0-0-0-0--3p--0-0-0-0--3p--0-0-0-0--|--0-0-0-0--3p--0-0-0-0--3p--0-|

                         1:31
------------------------|--------------------------------------------|
----------------------*-|--------------------------------------------|
----------------------*-|--7--7--7--7--7--7--10--10--10--10--10--10--|
-0-0-0--3ph5ph3ph5ph3p--|--------------------------------------------|

1:35
|-----------------------------------------------------------------------|
|-----------------------------------------------------------------------|
|-------------------------------------------------------------------7-7-|
|-3p--0-0-0-0--3p--0-0-0-0--3p--0-0-0-0-0-0-0-0--0-3--0-3--0-3--0-3-----|

                                 1:44
--------------------------------|----------------------------------------|
--------------------------------|-*--------------------------------------|
7-7--------------------7-7-7-7--|-*5h7-------5h8-------5h6-------5h6-----|
----0-3--0-3--0-3--0-3----------|------0-0-0-----0-0-0-----0-0-0-----0-0-|

(x3) 1:52                            1:53
---|--------------------------------|------------------------------------|
-*-|--------------------------------|*-----------------------------------|
-*-|--------------------------------|*5h7-------5h8-------5h6-------5h6--|
-0-|5-5-5-5-5-5-5-5-5-5-5-5-5-5-5-5-|----0-0-0-----0-0-0-----0-0-0-----0-|

   (x3) 2:01                                             2:04
------|-------------------------------------------------|----------------|
----*-|-------------------------------------------------|----------------|
----*-|-------------------------------------------------|----------------|
-0-0--|-5-5-5-5-5-5-5-5-5-5-5-5-5-5-5-5-5-5-5-5-5-5-5-5-|--0-3--0-3--0-3-|

---------------------------------------------------------------|
---------------------------------------------------------------|
------7-7-7-7--------------------7-7-7-7-----------------------|
--0-3---------0-3--0-3--0-3--0-3----------0--2--2----2--3--3\--|

2:11                                (x4)
|--------------------------------------|
|-*----------------------------------*-|
|-*7/8--------7/8--------------------*-|
|------0---0------0---0--0-0-0--0-0-0--|

2:22                             2:27
|-------------------------------|----------------------------------------|
|-*---------------------------*-|----------------------------------------|
|-*9-----9--------------------*-|--9-----9-----------------9----9--------|
|-----9-----8--8--8-8-8--8-8-8--|-----9-----8--8--8--8--8-----9--8\3-2-3-|

    2:34                                        2:42
---|-------------------------------------------|------------------------|
---|-*---------------------------------------*-|-*----------------------|
---|-*---------------------------------------*-|-*----------------------|
p--|--0-0-3ph3p--0-0-3ph3--0-0--3ph5ph3ph5ph3p-|--0-0-0-0--3p--0-0-0-0--|

                              2:49
-----------------------------|-----------------------------------------|
---------------------------*-|-----------------------------------------|
---------------------------*-|--7--7--7--7--7--7--10--10--10--10--10-10|
3p--0-0-0-0--3ph5ph3ph5ph3p--|-----------------------------------------|

2:54                                       2:56
|-----------------------------------------|------------------------------|
|-----------------------------------------|-*----------------------------|
|-----------------------------------------|-*----------------------------|
|--3p--0-0-0-0--3p--0-0-0-0--3p--0-0-0-0--|--0-0-0-0--3p--0-0-0-0--3p--0-|

                         3:05
------------------------|--------------------------------------------|
----------------------*-|--------------------------------------------|
----------------------*-|--7--7--7--7--7--7--10--10--10--10--10--10--|
-0-0-0--3ph5ph3ph5ph3p--|--------------------------------------------|

3:10
|-----------------------------------------------------------------------|
|-----------------------------------------------------------------------|
|-------------------------------------------------------------------7-7-|
|-3p--0-0-0-0--3p--0-0-0-0--3p--0-0-0-0-0-0-0-0--0-3--0-3--0-3--0-3-----|

                                 3:19
--------------------------------|----------------------------------------|
--------------------------------|-*--------------------------------------|
7-7--------------------7-7-7-7--|-*5h7-------5h8-------5h6-------5h6-----|
----0-3--0-3--0-3--0-3----------|------0-0-0-----0-0-0-----0-0-0-----0-0-|

(x3) 3:27                            3:28
---|--------------------------------|------------------------------------|
-*-|--------------------------------|*-----------------------------------|
-*-|--------------------------------|*5h7-------5h8-------5h6-------5h6--|
-0-|5-5-5-5-5-5-5-5-5-5-5-5-5-5-5-5-|----0-0-0-----0-0-0-----0-0-0-----0-|

   (x3) 3:36                                             3:39
------|-------------------------------------------------|----------------|
----*-|-------------------------------------------------|----------------|
----*-|-------------------------------------------------|----------------|
-0-0--|-5-5-5-5-5-5-5-5-5-5-5-5-5-5-5-5-5-5-5-5-5-5-5-5-|--0-3--0-3--0-3-|

---------------------------------------------------------------|
---------------------------------------------------------------|
------7-7-7-7--------------------7-7-7-7-----------------------|
--0-3---------0-3--0-3--0-3--0-3----------0--2--2----2--3--3\--|

3:46                                    3:51
|--------------------------------------|---------------------------------|
|-*----------------------------------*-|-*-------------------------------|
|-*7/8--------7/8--------------------*-|-*-9---9---------------------9---|
|------0---0------0---0--0-0-0--0-0-0--|-----9---8--8--8-8-8--8-8-8----7-|

                         4:02                         4:09
------------------------|----------------------------|-------------------|
----------------------*-|-*------------------------*-|-*-----------------|
--9-------------------*-|-*---4-----3------1-------*-|-*-9-----9---------|
----6--6--6-6-6--6-6-6--|--2-----2-----3-2---2p-0-0--|------9-----8--7-6-|

------------|
----------*-|
-5---7----*-|
-------0-0--|

4:16
|-----------------------------------------------------------------------|
|-----------------------------------------------------------------------|
|--2-------3-------0-------2---------------2-------3-------5-------5----|
|----0-0-0---0-0-0---0-0-0---0-0-0-1---0-----0-0-0---0-0-0---0-0-0----0-|

                          4:27             (x4) 4:38
-------------------------|--------------------|-----------------|
-------------------------|-*----------------*-|-*-------------*-|
-------------------------|-*----------------*-|-*-------------*-|
-1--2--3--0---0---0---0--|--0-0--0-0---0---0--|--0---0---0---0--|

4:43   4:44                  (x3) 4:50
|-----|--------------------------|---------------------------------------|
|-----|-*----------------------*-|---------------------------------------|
|-----|-*----------------------*-|---------------------------------------|
|--0--|--0---3---0-0-0-0--3--5\--|--0---3---5-5-5--5-5-5--5---5-5-5--5-5-|

                                         4:57   4:58
-----------------------------------------|-----|-------------------------|
-----------------------------------------|-----|-*-----------------------|
-----------------------------------------|-----|-*-----------------------|
-5---5-5-5--5-5-5--5---5-5-5--5-5-5--7---|--0--|--0---3---0-0-0-0--3--5\-|

 (x3) 5:04     5:05           (x3) 5:10
----|---------|------------------|-------------------------------------|
-*--|---------|-*--------------*-|-------------------------------------|
-*--|---------|-*--------------*-|-------------------------------------|
----|--0---3--|-5-5-5--5-5-5--5--|--5-5-5--5-5-5--5-5-5--5-5-5--5-5-5-5|

5:13                             5:19                       5:25
|-------------------------------|--------------------------|-------------|
|-*---------------------------*-|-*----------------------*-|-------------|
|-*---4-----3--------1--------*-|-*9---9--------5--7-----*-|--9-----9----|
|--2-----2-----3--2----2p--0-0--|----9---8--7-6-------0-0--|-----9-----8-|

  5:28 (x3) 5:33      5:35              5:37
-|--------|----------|-----------------|-------------------------------|
-|-*----*-|----------|-*-------------*-|-------------------------------|
-|-*----*-|--9---9---|-*-------------*-|-------------------------------|
-|--0--0--|----9---8-|-8--8-8-8--8-8-8-|-8--8-8-8-8--8-8-8--8-8-8--8-8-|

5:39
|-----------------------------------------------------|
|-*-------------------------------------------------*-|
|-*7/8------7/8----------------7/8------7/8---------*-|
|------0--0-----0-0-0-0--0-0-0-----0--0-----4p-3p-2p--|

5:49                      (x4) 6:03
|----------------------------|-------------------------------|
|-*------------------------*-|-*---------------------------*-|
|-*---4-----3------1-------*-|-*-------------------7-7-7-7-*-|
|--2-----2-----3-2---2p-0-0--|--0-3--0-3--0-3--0-3-----------|

6:08
|------------------------------------|
|*-----------------------------------|
|*5h7-------5h8-------5h6-------5h6--|
|----0-0-0-----0-0-0-----0-0-0-----0-|

   (x3) 6:16                        6:19                        (x12)
------|----------------------------|--------------------------------|
----*-|----------------------------|-*----------------------------*-|
----*-|----------------------------|-*----7-----7h8-----8-----8h7-*-|
-0-0--|-5-5-5-5-5-5-5-5-5-5-5-5-5--|--0-0---0-0-----0-0---0-0-------|

6:51                   (x4) 6:57                      (x4)
|-------------------------|------------------------------|
|-*---------------------*-|-*--------------------------*-|
|-*---------------------*-|-*--------------------------*-|
|--3-2-1-3-3-3-3-3-3-3-3--|--3-2-1--3-2-1--3-2-1--3-2-1--|

7:02
|-------------------------|
|-------------------------|
|---------------------7-7-|
|--0-3--0-3--0-3--0-3-----|

                                 7:07
--------------------------------|----------------------------------------|
--------------------------------|-*--------------------------------------|
7-7--------------------7-7-7-7--|-*5h7-------5h8-------5h6-------5h6-----|
----0-3--0-3--0-3--0-3----------|------0-0-0-----0-0-0-----0-0-0-----0-0-|

(x3) 7:15                            7:16
---|--------------------------------|------------------------------------|
-*-|--------------------------------|*-----------------------------------|
-*-|--------------------------------|*5h7-------5h8-------5h6-------5h6--|
-0-|5-5-5-5-5-5-5-5-5-5-5-5-5-5-5-5-|----0-0-0-----0-0-0-----0-0-0-----0-|

   (x3) 7:24                                             7:27
------|-------------------------------------------------|----------------|
----*-|-------------------------------------------------|----------------|
----*-|-------------------------------------------------|----------------|
-0-0--|-5-5-5-5-5-5-5-5-5-5-5-5-5-5-5-5-5-5-5-5-5-5-5-5-|--0-3--0-3--0-3-|

---------------------------------------------------------------|
---------------------------------------------------------------|
------7-7-7-7--------------------7-7-7-7-----------------------|
--0-3---------0-3--0-3--0-3--0-3----------0--2--2----2--3--3\--|

7:34
|--------------------------------------|
|-*----------------------------------*-|
|-*7/8--------7/8--------------------*-|
|------0---0------0---0--0-0-0--0-0-0--|

7:40                      (x4) 7:54
|----------------------------|--------------------|
|-*------------------------*-|--------------------|
|-*---4-----3------1-------*-|-----4-----3--------|
|--2-----2-----3-2---2p-0-0--|--2-----2-----0--0--|

END
-----------------------------------------------------------------------------
Suicide & Redemption
Metallica
Death Magnetic
Bass Tab
Tuning: Standard (B, E, A, D, G) and (E, A, D, G)

This song uses the fifth string on a bass (B), so I put those parts into the
 "five string tab format".

Don't have a five string?  Not to worry!  I provide step-by-step instructions
 on how to tune your bass down to match the sound of a five string.

1. Tune your bass to standard tuning (E, A, D, G)
2. Match the 10th fret of the 4th string to the open 3rd string.
3. Match the 5th fret of the 4th string to the 3rd open string.
4. Match the 5th fret of the 3rd string to the 2nd open string.
5. Match the 5th fret of the 2nd string to the 1st open string.

The 3rd, 4th, and 5th steps are the same as tuning to standard, except each
 string is one octave lower then they would be in standard.

NOTE:  The sound quality of the lower tuning isn't as good as playing with an
 actual 5th string.  For best performance, use a five string.

0:00                                   (x16)
|------------------------------------------|
|-*--------------------------------------*-|
|-*--------------------------------------*-|
|------------------------------------------|
|--11---0-h9p---11---0-h9p---12--0h9ph11p--|
(Use distortion)

0:52                            (x4)
|*---------------------------------|
|-*------------------------------*-|
|-*5/6\5---2---0-2-2--0-2-0--2-2-*-|
|*---------------------------------|

1:04
|----------------------------------------------------------------------|
|----------------------------------------------------------------------|
|--5-5-5-5-5-5-5-5-5-5-5-5-5-5-5-5-12-12-12-12-12-12-12-12-12-12-12-12-|
|----------------------------------------------------------------------|

-----------*|
------------|
12-12-12-12-|
-----------*|

1:28                                                  1:40
|----------------------------------------------------|------------------|
|-*------------------------------------------------*-|------------------|
|-*-------------------3-2---3-2--------------------*-|------------------|
|--2--2--0-2---0-2--0-----0------2-2--0-2--0-2--0-2--|--12-12-12--12-12-|

------------------------|
------------------------|
------------------------|
12--13-13-13--13-13-13--|

1:43                                                  1:48
|----------------------------------------------------|------------------|
|----------------------------------------------------|------------------|
|---------------------3-2---3-2----------------------|------------------|
|--2--2--0-2---0-2--0-----0------2-2--0-2--0-2--0-2--|--12-12-12--12-12-|

-----------------------------------------------------------|
-----------------------------------------------------------|
-----------------------------------------------------------|
12--13-13-13-13--13-13-13--14-14-14--14-14-14--15--16--17--|

1:51                            (x8)
|----------------------------------|
|-*------------------------------*-|
|-*5/6\5---2---0-2-2--0-2-0--2-2-*-|
|----------------------------------|

2:15
|----------------------------------------------------------------------|
|----------------------------------------------------------------------|
|--5-5-5-5-5-5-5-5-5-5-5-5-5-5-5-5-12-12-12-12-12-12-12-12-12-12-12-12-|
|----------------------------------------------------------------------|

------------|
------------|
12-12-12-12-|
------------|

2:21                            (x4)
|----------------------------------|
|-*------------------------------*-|
|-*5/6\5---2---0-2-2--0-2-0--2-2-*-|
|----------------------------------|

2:34
|----------------------------------------------------------------------|
|----------------------------------------------------------------------|
|--5-5-5-5-5-5-5-5-5-5-5-5-5-5-5-5-12-12-12-12-12-12-12-12-12-12-12-12-|
|----------------------------------------------------------------------|

------------|
------------|
12-12-12-12-|
------------|

2:39                                                  2:52
|----------------------------------------------------|------------------|
|-*------------------------------------------------*-|------------------|
|-*-------------------3-2---3-2--------------------*-|------------------|
|--2--2--0-2---0-2--0-----0------2-2--0-2--0-2--0-2--|--12-12-12--12-12-|

-----------------------------------------------------------|
-----------------------------------------------------------|
-----------------------------------------------------------|
12--13-13-13-13--13-13-13--14-14-14--14-14-14--15--16--17--|

2:55                            (x4)
|----------------------------------|
|-*------------------------------*-|
|-*5/6\5---2---0-2-2--0-2-0--2-2-*-|
|----------------------------------|

3:07                             (x4) 3:20
|-----------------------------------|----------------------------------|
|-*-------------------------------*-|----------------------------------|
|-*-------------------------------*-|----------------------------------|
|--0--0---0--0---0---0--10--11--12--|--7--7---7--7---7---7--10--11--12-|

3:22
|-------------------------------|
|-------------------------------|
|-------------------------------|
|--7---9-10-0-7--9-10---10-9-8--|

3:26                                 3:31
|-----------------------------------|----------------------------------|
|-*-------------------------------*-|----------------------------------|
|-*-------------------------------*-|----------------------------------|
|--0--0---0--0---0---0--10--11--12--|--7--7---7--7---7---7--10--11--12-|

3:34
|-------------------------------|
|-------------------------------|
|-------------------------------|
|--7---9-10-0-7--9-10---10-9-8--|

3:38                             3:51
|-------------------------------|---------------------------------------|
|-------------------------------|-*-------------------------------------|
|-------------------------------|-*---------------------------2-(2)-----|
|--7-7-7--8--7--7-(7)-----------|--0---0-0-0--0-0-0---0--0--0-----------|

                                             4:16
---------------------------------------------|--------------------------|
-------------------------------------------*-|--------------------------|
---3---2-2-2--2-2-2--2-2-2-----2-2-2--2-2-2*-|--2-2--2-2-2--2--3-(3)----|
---------------------------0-2---------------|--------------------------|

--------------------------------|
--------------------------------|
------2-2-2--2-2-2--2-2-2--2-2--|
--------------------------------|

4:23                             (x4) 4:35
|-----------------------------------|----------------------------------|
|-*-------------------------------*-|----------------------------------|
|-*-------------------------------*-|----------------------------------|
|--0--0---0--0---0---0--10--11--12--|--7--7---7--7---7---7--10--11--12-|

4:38
|-------------------------------|
|-------------------------------|
|-------------------------------|
|--7---9-10-0-7--9-10---10-9-8--|

4:40                                 4:47
|-----------------------------------|----------------------------------|
|-*-------------------------------*-|----------------------------------|
|-*-------------------------------*-|----------------------------------|
|--0--0---0--0---0---0--10--11--12--|--7--7---7--7---7---7--10--11--12-|

4:52
|-----------------------------------------------------------------------|
|-*---------------------------------------------------------------------|
|-*---------------------------------------------------------------------|
|--9--9-9-9--9--9-9-9--9--9-9-9--9--9-9-9--5--5-5-5--5--5-5-5--5--5-5-5-|

                                                 5:10
------------------------------------------------|------------------------|
----------------------------------------------*-|------------------------|
-------------------------------------0-------0*-|------------------------|
-5--5-5-5--7--7-7-7--7--7-7-7--3-0-2---3-0-2----|--7--7-7-7--7--7-7-7--7-|

-----------------------------------------------------------------------|
-----------------------------------------------------------------------|
---------------------------------------------0-------0-----------------|
--7-7-7--7--7-7-7--5--5-5-5--5--5-5-5--3-0-2---3-0-2--0--0-0-0--0-0-0-0|

5:16             (x3) 5:20         5:22
|-------------------|-------------|-------------------|
|-*---------------*-|-Only-Guitar-|-------------------|
|-*------0-------0*-|-------------|--------0-------0--|
|--3-0-2---3-0-2----|-------------|--3-0-2---3-0-2----|

5:24                                   (x23)
|------------------------------------------|
|-*--------------------------------------*-|
|-*--------------------------------------*-|
|------------------------------------------|
|--11---0-h9p---11---0-h9p---12--0h9ph11p--|
(Use distortion)

6:29                            (x4)
|----------------------------------|
|-*------------------------------*-|
|-*5/6\5---2---0-2-2--0-2-0--2-2-*-|
|----------------------------------|
(Faster Tempo)

6:42
|------------------------------------------------------------------|
|------------------------------------------------------------------|
|------------------------------------------------------------------|
|-5-5-5-5-5-5-5-5-5-5-5-5-5-5-5-5-2-2-2-2-2-2-2-2-2-2-2-2-2-2-2-2--|

6:47                                       (x4)
|---------------------------------------------|
|-*-----------------------------------------*-|
|-*-----------------------------------------*-|
|---------------------------------------------|
|--12---0-h10p---12---0-h10p---13--0h10ph12p--|
(Use distortion)

6:59                            (x4)
|----------------------------------|
|-*------------------------------*-|
|-*5/6\5---2---0-2-2--0-2-0--2-2-*-|
|----------------------------------|
(Faster Tempo)

7:10
|----------------------------------------------------------------------|
|----------------------------------------------------------------------|
|--5-5-5-5-5-5-5-5-5-5-5-5-5-5-5-5-12-12-12-12-12-12-12-12-12-12-12-12-|
|----------------------------------------------------------------------|

------------|
------------|
12-12-12-12-|
------------|

7:16
|--------------------------------------|
|-*----------------------------------*-|
|-*----------------------------------*-|
|--3-0-2-3--3-0-2-3--5-4-0-5--5-4-0-5--|

7:22
|--------------------------------------|
|-*----------------------------------*-|
|-*----------------------------------*-|
|--2-0-1-2--2-0-1-2--4-3-0-4--4-3-0-4--|

7:28                                    7:33             (x4) 7:39
|--------------------------------------|--------------------|-----------|
|-*----------------------------------*-|-*----------------*-|-*---------|
|-*----------------------------------*-|-*----------------*-|-*---------|
|--3-0-2-3--3-0-2-3--5-4-0-5--5-4-0-5--|--7-6-0-7--7-6-0-7--|--9-8-9-10-|

            7:42       (x4) 7:44
-----------|--------------|-----|
---------*-|-*----------*-|-----|
---------*-|-*----------*-|-----|
-9-8-9-10--|--11--10--11--|--\--|

7:44
|----------------------------------------------------------------------|
|----------------------------------------------------------------------|
|----------------------------------------------------------------------|
|--12-12-12--12-12-12--13-13-13--13-13-13--14-14-14--14-14-14-15-16-17-|

7:48                            (x4)
|----------------------------------|
|-*------------------------------*-|
|-*5/6\5---2---0-2-2--0-2-0--2-2-*-|
|----------------------------------|

7:59
|----------------------------------------------------------------------|
|----------------------------------------------------------------------|
|--5-5-5-5-5-5-5-5-5-5-5-5-5-5-5-5-12-12-12-12-12-12-12-12-12-12-12-12-|
|----------------------------------------------------------------------|

             8:06
------------|-------------------------------|
------------|-------------------------------|
12-12-12-12-|-------------------------------|
------------|--0-----------------0----------|

8:11
|-------------------------|
|-*---------------------*-|
|-*7--6-----------------*-|
|-------0--6-5--0--4-(4)--|

8:18       8:21                        8:23
|---------|---------------------------|---------|
|---------|---------------------------|-*-----*-|
|--7---6--|--7---6--6-6-6-6--6-6-6-6--|-*7---6*-|
|---------|---------------------------|---------|

8:28                   (x3) 8:38
|-------------------------|------------------------------------|
|-*---------------------*-|------------------------------------|
|-*7--6-----------------*-|--7--6------------------------------|
|-------0--6-5--0--4-(4)--|-------0--5-4-3-2-1-(1)-------0--0--|

8:42
|------------------------------------------------------|
|-*--------------------------------------------------*-|
|-*--------------------------------------------------*-|
|------------------3-2--2-1--1-0-----------------------|
|--6-6--4-6--4-6-4----------------6-6-4-6--4--6--4--6--|

8:55
|---------------------------------|
|-*-----------------------------*-|
|-*----------------3-2--2-1--1-0*-|
|--6-6--4-6--4-6-4----------------|
This riff fades out

END

-----------------------------------------------------------------------------
My Apocalypse
Metallica
Death Magnetic
Bass Tab
Tuning: Standard (E, A, D, G)

0:01                                   0:10                 (x4) 0:31
|--------------------------------------|-----------------------|---------|
|-*----------------------------------*-|-*-------------------*-|-*-------|
|-*-5h7-----5h7-----5h7---5\4-5\4-5\4*-|-*-5h7---------------*-|-*-5h7---|
|--------------------------------------|------0-0-0-0--0-0-0---|-------0-|

-------------------------------------------------------------------------|
-------------------------------------------------------------------------|
-----------------------5h7-------------------------5h7-------------------|
-0-0-0-0-0-0-0-0-0-0-0-----0-0-0-0-0-0-0-0-0-0-0-0-----0-0-0-0-0-0-0-0-0-|

                 (x4) 0:51                    (x3) 0:58
---------------------|---------------------------|----------------------|
-------------------*-|-*-----------------------*-|----------------------|
-------5\4-5\4-5\4-*-|-*---------------2--4-5--*-|----------------------|
-0-0-0---------------|--3-3-3-3-3-3-3-3-------0--|--3-3-3-3-3-3-3-3-3-3-|

-------------------------------------------------------------------------|
-------------------------------------------------------------------------|
----------------------------------5-4-0-5-4-0-5-4-7-6-0-7-6-0-7-6--7-7-7-|
3-3-3-3-3-3--3--3---3--3---3--3------------------------------------------|

                        1:09
-----------------------|-------------------------------------------------|
-----------------------|-*-----------------------------------------------|
-7-7-7-7-7-------------|-*-5h7-------------------------5h7---------------|
-----------3--3--3--3--|-------0-0-0-0-0-0-0-0-0-0-0-0-----0-0-0-0-0-0-0-|

                                                  (x4) 1:28
-----------------------------------------------------|-------------------|
---------------------------------------------------*-|-*-----------------|
-----------5h7-------------------------5\4-5\4-5\4-*-|-*-----------------|
-0-0-0-0-0-----0-0-0-0-0-0-0-0-0-0-0-0---------------|---3-3-3-3-3-3-3-3-|

          (x3) 1:35
-------------|----------------------------------------------------------|
-----------*-|----------------------------------------------------------|
-2---4-5---*-|------------------------------------------------------5-4-|
---------0---|--3-3-3-3-3-3-3-3-3-3-3-3-3-3-3-3--3--3---3--3---3--3-----|

                                                          1:47
---------------------------------------------------------|--------------|
---------------------------------------------------------|--------------|
0-5-4-0-5-4-7-6-0-7-6-0-7-6--7-7-7-7-7-7-7-7-------------|--5h7---------|
---------------------------------------------3--3--3--3--|------0-0-0-0-|

------------------------------------------------------------------------|
------------------------------------------------------------------------|
----------------5h7-------------------------5h7-------------------------|
0-0-0-0-0-0-0-0-----0-0-0-0-0-0-0-0-0-0-0-0-----0-0-0-0-0-0-0-0-0-0-0-0-|

                       1:56              (x4) 2:00
----------------------|---------------------|----------------------------|
----------------------|-*-----------------*-|-*--------------------------|
5\4-5\4-5\4-----------|-*-----7--------5--*-|-*-5h7-----------------7h5--|
------------0---------|---7-9---9--5-7---7--|------0-0-0-0-0-0-0-0-----0-|

                                              (x4) 2:21            (x3)
-------------------------------------------------|---------------------|
-----------------------------------------------*-|-*-----------------*-|
-----------5h7---------------------7--------5--*-|-*-----7--------5--*-|
-0-0-0-0-0-----0-0-0-0-0-0-0-0-7-9---9--5-7---7--|---7-9---9--5-7---7--|

2:25
|----------------------------|
|-*--------------------------|
|-*-5h7-----------------7h5--|
|------0-0-0-0-0-0-0-0-----0-|

                                              (x3) 2:40
-------------------------------------------------|----------------------|
-----------------------------------------------*-|----------------------|
-----------5h7---------------------7--------5--*-|--5h7-----------------|
-0-0-0-0-0-----0-0-0-0-0-0-0-0-7-9---9--5-7---7--|------0-0-0-0-0-0-0-0-|

                                                        2:46
-------------------------------------------------------|----------------|
-------------------------------------------------------|-*--------------|
7h5-------------5h7------------------------------------|-*--------------|
----0-0-0-0-0-0-----5-5-5-5-5-5-5-5-5-5-5-5-5-5-5-5-0--|--0---0-0-0-0-0-|

  (x6) 2:52                     2:53              (x9) 3:05
-----|-------------------------|---------------------|-------------------|
---*-|-------------------------|-*-----------------*-|-*-----------------|
---*-|-------------------------|-*-----------------*-|-*-5h7-------------|
--0--|--0---0-0-0-0-0---3-(3)--|--0---0-0-0-0-0---0--|-------0-0-0-0-0-0-|

                   (x4) 3:15             (x8) 3:3:24
----------------------|---------------------|---------------------------|
--------------------*-|-*-----------------*-|-*-------------------------|
-----5h7-5--4--5--4-*-|-*-----------------*-|-*-5h7-----------------5h7-|
-0-0------------------|--0---0-0-0-0-0---0--|-------0-0-0-0-0-0-0-0-----|

          (x4) 3:33             (x4) 3:39 (x16) 3:44
-------------|---------------------|----------|----------------------|
-----------*-|-*-----------------*-|-*------*-|----------------------|
5--4--5--4-*-|-*-----7--------7--*-|-*--3h5-*-|----------------------|
-------------|---7-9---9--5-7---7--|--0-------|--4-3-2-0-2-3--4-3-2--|

3:46
|---------|
|-*-------|
|-*-5h7---|
|-------0-|

-------------------------------------------------------------------------|
-------------------------------------------------------------------------|
-----------------------5h7-------------------------5h7-------------------|
-0-0-0-0-0-0-0-0-0-0-0-----0-0-0-0-0-0-0-0-0-0-0-0-----0-0-0-0-0-0-0-0-0-|

                 (x4) 4:04                    (x3) 4:12
---------------------|---------------------------|----------------------|
-------------------*-|-*-----------------------*-|----------------------|
-------5\4-5\4-5\4-*-|-*---------------2--4-5--*-|----------------------|
-0-0-0---------------|--3-3-3-3-3-3-3-3-------0--|--3-3-3-3-3-3-3-3-3-3-|

-------------------------------------------------------------------------|
-------------------------------------------------------------------------|
----------------------------------5-4-0-5-4-0-5-4-7-6-0-7-6-0-7-6--7-7-7-|
3-3-3-3-3-3--3--3---3--3---3--3------------------------------------------|

                        4:22
-----------------------|------------------------------------------------|
-----------------------|-*----------------------------------------------|
-7-7-7-7-7-------------|-*----------------------------------------------|
-----------3--3--3--3--|---0-0-0-0-0-0-0-0-0-0-0-0-0-0-0-0--4-3-2-0-2-3-|

     (x4) 4:40        4:47
--------|------------|--------------------------------------|
------*-|-*--------*-|--------------------------------------|
------*-|-*--------*-|--------------------------------------|
-4-3-2--|---3-3-3-3--|--3-(3)----------------------------3--|

NOTES:

At 3:39, you can barely hear the bass over the guitar and the drums.

At 4:40, just keep on repeating those notes for seven seconds till
the last notes sustains.

Have fun learning an excellent MetallicA song!

END
-----------------------------------------------------------------------------

Have fun learning an excellent album!
comments
print report bad tab
2 comments total.
0 reply
GasPipe wrote on January 31 2009, 04:15 pm

Hey i thnk the unforgiven III chorus bit is wrong, i thnk it goes:
(2:26)
|----------------------------------------|
|----------------------------------5-4---|
|-----------------3-------2----3-2-------|
|--1/3--0-----1/3------------------------|
then:
|----------------------------------------|
|----------------------------------5-4---|
|------------------3------2----3-2-------|
|--0---2---3---5-------------------------|
Then u play the (2:26) part agen then the nxt bar is:
|----------------------------------------|
|----------------------------------------|
|------------------3------2----/14-------|
|--0---2---3---5-------------------------|

Thats wat i thnk. Apart from that uv dun an awsum job mustv bn bludy hard work. Luv playn that was just ur life and the day that never comes, gr8 job man

0 reply
Filipus wrote on April 26 2011, 02:01 pm

Omg thank you so much, this is awesome.
Still haven't tried all the songs, but the ones i did are great.

I want to post or [tab]
guest
You may want to rate the tab now too:
select rating
Please do not post tabs as comments. Select "correction" instead!