Oops, an error
Loading. Please wait.

Death Magnetic Tab

ver1
ver1

Album

More versions @911Tabs.com
249,717 views 81 this week
15 commentsread comments
1 2 3 4 5
accurate
x 20
add to favorites launch autoscroll
font size
0
reset
Autoscroll
+/-
esc
set tempo
stop
Contributor
Difficulty
intermediate
WARNING: You are trying to view
                                    content from Ultimate-Guitar.com
                                    in an unauthorized application,
                                    which is prohibited.

                                    Please use an official Ultimate
                                    Guitar Tabs application for iPhone,
                                    iPad or Android to access legitimate
                                    chords, guitar, bass, and drum tabs
                                    from Ultimate-Guitar.com database.

                                    Type "ultimate guitar tabs" in Apple
                                    App Store's or Android Market's
                                    search to find the application.
Metallica
Death Magnetic
2008

Credit to:
That Was Just Your Life - violent.j.11
The End Of The Line - Unknown
Broken, Beat and Scarred - GrAfF_iT
The Day That Never Comes - bigbucksgrime
All Nightmare Long - MetaShedda23
Cyanide - Kurai
The Unforgiven III - juzcook
The Judas Kiss - juzcook
Suicide and Redemption - Exo M7
My Apocalypse - VortexofSouls



That Was Just Your Life

Intro.1
e|-----------------------------------------------------------------|
B|-----------------------------------------------------------------|
G|-----------------0-----------------------------------------------|
D|--------------2---------2----------------------------3-----------|
A|--------1------------------------------------1-------------------|
E|-0-----------------------------------0---------------------------|

Intro.2
e|-----------------------------------------------------------------|
B|-----------------------------------------------------------------|
G|-----------------------------------------------------------------|
D|-2-------2-2-2---2-------------------2-------2-------3-----------|
A|-2-------2-2-2---2-------------------2-------1-------3-----------|
E|-0-------0-0-0---0-------------------0-------0-------1-----------|
           * * *   *

Intro.Fill
e|------------------------------------|       
B|------------------------------------|
G|--12--11--10--9-/--15~~-------------|
D|------------------------------------|
A|------------------------------------|
E|------------------------------------|

Intro.3
e|-----------------------------------------------------------------|
B|-----------------------------------------------------------------|
G|-------------------------------------3--3--3--3------------------|
D|-2---------------2-------------------3--3--3--3---3---3---3----5-|
A|-2-------1----------------1----------1--1--1--1---3---3---3----5-|
E|-0------------------------------------------------1---1---1----3-|

Intro.4
e|-----------------------------------------------------------------|
B|-----------------------------------------------------------------|
G|-------------------------------------------------3---------------|
D|-2------------2~------------2------------2-------3-------3-------|
A|-2------1-------------------2------1-------------1-------3-------|
E|-0--------------------------0----------------------------1-------|





---------------------------------------------------------------------------------


Verse.1
e|-----------------------------------------------------------------|
B|-----------------------------------------------------------------|
G|-----------------------------------------------------------------|
D|---------2---------------2---------------2-----------------------|
A|-----0-1---1-0-1-----0-1---1-0-1-----0-1---1-0-1-0---0-1-0-------|
E|-000-------------000-------------000---------------3-------3-2-1-|
   ***             ***             ***

Verse.2
e|-----------------------------------------------------------------|
B|-----------------------------------------------------------------|
G|-------------------------------------------------3---------------|
D|----------2~--------------2~--------------2~-----3-------3-------|
A|----0--1------------0--1------------0--1---------1-------3-------|
E|-0---------------0---------------0-----------------------1-------|


Verse.3
e|-----------------------------------------------------------------|
B|-----------------------------------------------------------------|
G|-------------------------------------------------5---------------|
D|---------2---------------2---------------2-------5-X-X-X-3-X-X-X-|
A|-----0-1---1-0-1-----0-1---1-0-1-----0-1---1-0---3-X-X-X-3-X-X-X-|
E|-000-------------000-------------000---------------X-X-X-1-X-X-X-|
   ***             ***             ***               * * *   * * *



---------------------------------------------------------------------------------


Prechorus.1
e|-----------------------------------------------------------------|
B|-----------------------------------------------------------------|
G|-----------------------------------------------------------------|
D|-2-2--2--2----2-2-2----2--2----2-2-2----2--2---2-----------------|
A|-2-2--2--2----2-2-2----2--2----2-2-2----2--2---2-0---0-1-0-------|
E|-0-0--0--0----0-0-0----0--0----0-0-0----0--0---0---3-------3-2-1-|
   * *  *  *    * * *    *  *    * * *    *  *   *
Prechorus.2
e|-----------------------------------------------------------------|
B|-----------------------------------------------------------------|
G|-------------------------------------------------5-5-------------|
D|-2---2---3---3---X-X-2---3---3--( )--2---3---3---5-5-X-X-3-3-X-X-|
A|-2---2---3---3---X-X-2---3---3--( )--2---3---3---3-3-X-X-3-3-X-X-|
E|-0---0---1---1---X-X-0---1---1--( )--0---1---1-------X-X-1-1-X-X-|
                                 REST                  * *     * *

CHORUS
e|-----------------------------------------------------------------|
B|-----------------------------------------------------------------|
G|-9-9-9-9-9-9-------------------------------------9-9---9---9----9|
D|-9-9-9-9-9-9-8-8-7-7-7-7-7-7-5-5-3-3-3-3-3-3-3-3-9-9---9---9----9|
A|-7-7-7-7-7-7-8-8-7-7-7-7-7-7-5-5-3-3-3-3-3-3-3-3-7-7---7---7----7|
E|-------------6-6-5-5-5-5-5-5-3-3-1-1-1-1-1-1-1-1-----------------|

e|-----------------------------------------------------------------|
B|-----------------------------------------------------------------|
G|-9-9-9-9-9-9-------------------------------------5-5---5---5----5|
D|-9-9-9-9-9-9-8-8-7-7-7-7-7-7-5-5-3-3-3-3-3-3-3-3-5-5---5---5----5|
A|-7-7-7-7-7-7-8-8-7-7-7-7-7-7-5-5-3-3-3-3-3-3-3-3-3-3---3---3----3|
E|-------------6-6-5-5-5-5-5-5-3-3-1-1-1-1-1-1-1-1-----------------|

e|-----------------------------------------------------------------|
B|-----------------------------------------------------------------|
G|-9-9-9-9-9-9-------------------------------------7-7---7---7----7|
D|-9-9-9-9-9-9-8-8-7-7-7-7-7-7-5-5-3-3-3-3-3-3-3-3-7-7---7---7----7|
A|-7-7-7-7-7-7-8-8-7-7-7-7-7-7-5-5-3-3-3-3-3-3-3-3-5-5---5---5----5|
E|-------------6-6-5-5-5-5-5-5-3-3-1-1-1-1-1-1-1-1-----------------|

e|-----------------------------------------------------------------|
B|-----------------------------------------------------------------|
G|-9-9-9-9-9-9-------------------------------------9-9---9---9---9-|
D|-9-9-9-9-9-9-8-8-7-7-7-7-7-7-5-5-3-3-3-3-3-3-3-3-9-9---9---9---9-|
A|-7-7-7-7-7-7-8-8-7-7-7-7-7-7-5-5-3-3-3-3-3-3-3-3-7-7---7---7---7-|
E|-------------6-6-5-5-5-5-5-5-3-3-1-1-1-1-1-1-1-1-----------------|



---------------------------------------------------------------------------------


Bridge.1
e|-----------------------------------------------------------------|
B|-----------------------------------------------------------------|
G|-----------------------------------------------------------------|
D|-----------------------------------------------------------------|
A|---------8-8--7---8-7-------------------8-8--7---8-7-------------|
E|-000-0-0--------6------6~-------000-0-0--------6------7~---------|
   *** * *                        *** * *


Bridge.2
e|-----------------------------------------------------------------|
B|-----------------------------------------------------------------|
G|-----------------------------------------------------------------|
D|---------7-7--6---7-6-------------------7-7--6---7-6-------------|
A|----------------5------5~----------------------5------7~---------|
E|-000-0-0------------------------000-0-0--------------------------|
   *** * *                        *** * *

Bridge.3
e|-----------------------------------------------------------------|
B|---------1010-9---109------------------1010-9---109--------------|
G|----------------7------9~---------------------7-------9~---------|
D|-----------------------------------------------------------------|
A|-----------------------------------------------------------------|
E|-----------------------------------------------------------------|


Bridge.4
e|-----------------------------------------------------------------|
B|-----------------------------------------------------------------|
G|-----------------------------------------------------------------|
D|-----------------------------------------------------------------|
A|-222-2-2-2-2-2-2-222-2-2-2-2-2-2-222-2-2-2-2-2-222-222-222-222---|
E|-000-0-0-0-0-0-0-000-0-0-0-0-0-0-000-0-0-0-0-0-000-000-000-000---|
   *** * * * * * * *** * * * * * * *** * * * * * *** *** *** ***


---------------------------------------------------------------------------------

Ending.1
e|-----------------------------------------------------------------|
B|-----------------------------------------------------------------|
G|-----------------------------------------------------------------|
D|----------2~--------------2~--------------2~---------------------|
A|----0--1------------0--1------------0--1-------------------------|
E|-0---------------0---------------0-------------------------------|

Ending.2
e|-----------------------------------------------------------------|
B|-----------------------------------------------------------------|
G|----------------------------------4----------------7-------------|
D|-2---------------5----------------4----------------7-------------|
A|-2---------------5----------------2----------------5-------------|
E|-0---------------3-----------------------------------------------|

e|-----------------------------------------------------------------|
B|-----------------------------------------------------------------|
G|-----------------5----------------2----------------7-------------|
D|-5---------------5----------------2----------------7-------------|
A|-5---------------2----------------0----------------5-------------|
E|-3---------------------------------------------------------------|

e|-----------------------------------------------------------------|
B|-----------------------------------------------------------------|
G|---------------------------------4----------------7--------------|
D|-2--------------5----------------44444444444444444777777777777777|
A|-2222222222222225555555555555555522222222222222222555555555555555|
E|-00000000000000033333333333333333--------------------------------|
    ************** **************** **************** **************

e|-----------------------------------------------------------------|
B|-----------------------------------------------------------------|
G|----------------4----------------2----------------7--------------|
D|-5--------------4444444444444444422222222222222222777777777777777|
A|-5555555555555552222222222222222200000000000000000555555555555555|
E|-333333333333333-------------------------------------------------|
    ************** **************** **************** **************
_______________________________________________________________________________________


SONG ORDER:
-----------------------{INTRO}-------------------------
-Intro.1  X6
-Simultaneously: [Intro.1 AND Into.2] X4  (If desired, throw in Intro.Fill where needed)
-Intro.3  X2
-Intro.4  X2
--------------------{First Verse}----------------------
-Verse.1  X4
-Verse.2  X2
-Verse.1  X1
-Verse.3  X1
-Verse.1  X1
-Verse.3  X1
-Verse.2  X1
-----------------------{Chorus}------------------------
-Prechorus.1  X3
-Prechorus.2  X1
-CHORUS       X1
--------------------{Second Verse}---------------------
-Verse.1  X2
-Verse.2  X1
-Verse.1  X1
-Verse.3  X1
-Verse.1  X1
-Verse.3  X1
-Verse.2  X1
-----------------------{Chorus}------------------------
-Prechorus.1  X3
-Prechorus.2  X1
-CHORUS       X1
-----------------------{Bridge}------------------------
-Bridge.1  X1
-Simultaneously [Bridge.1  AND  Bridge.2] X2
-Simultaneously [Bridge.1  AND  Bridge.2  AND  Bridge.3] X1
-Bridge.4
------------------------{Solo}-------------------------
-CHORUS (It's SLIGHTLY different.)
--------------------{Third Verse}----------------------
-Verse.1  X1
-Verse.3  X1
-Verse.1  X1
-Verse.3  X1
-----------------------{Ending}------------------------
-Simultaneously [Bridge.1  AND  Bridge.2] X1
-Simultaneously [Bridge.1  AND  Bridge.2  AND  Bridge.3] X1
-Bridge.4  X1
-Ending.1  X1
-Ending.2  X1
-Simultaneously [Bridge.1  AND  Bridge.2] X1
-Simultaneously [Bridge.1  AND  Bridge.2  AND  Bridge.3] X1
-Bridge.4  X1
-Verse.1   X2
-CHORUS    X1
-Verse.1   X1

The End Of The Line (First four Minutes)

Standard Tuning

Intro
                                                                  PM PM
     E.  E  S S S S S Q.        S S S S  S S  S  S  S S  S S S S S  S
E||--------------------------|-----------------------------------------|
B||--------------------------|-----------------------------------------|
G||--------------------------|-----------------------------------------|
D||--------------------------|-----------------------------------------|
A||--3---2----5---5---2------|--8-8-8-7~-L-7-10-10-10-7~-L-7-5-7-------|
E||--1---0--0-3---3---0------|-----------------------------------0--0--|


                                                              PM PM
  E.  E  S S S S S Q.        S S S S  S S  S  S  S S  S S S S S  S
--------------------------|-----------------------------------------|
--------------------------|-----------------------------------------|
--------------------------|-----------------------------------------|
--------------------------|-----------------------------------------|
--3---2----5---5---2------|--8-8-8-7~-L-7-10-10-10-7~-L-7-5-7-------|
--1---0--0-3---3---0------|-----------------------------------0--0--|


                                                              PM PM
  E.  E  S S S S S Q.        S S S S  S S  S  S  S S  S S S S S  S
--------------------------|-----------------------------------------|
--------------------------|-----------------------------------------|
--------------------------|-----------------------------------------|
--------------------------|-----------------------------------------|
--3---2----5---5---2------|--8-8-8-7~-L-7-10-10-10-7~-L-7-5-7-------|
--1---0--0-3---3---0------|-----------------------------------0--0--|


  E.  E  S S S S S Q.        S S S S  S S  S  S  S S  S S S S S S
--------------------------|---------------------------------------|
--------------------------|---------------------------------------|
--------------------------|---------------------------------------|
--------------------------|---------------------------------------|
--3---2----5---5---2------|--8-8-8-7~-L-7-10-10-10-7~-L-7-5-7-----|
--1---0--0-3---3---0------|---------------------------------------|


                       PM PM PM PM PM PM
  S S S S S S S  S S S S  S  S  S  S  S
-----------------------------------------|
-----------------------------------------|
-----------------------------------------|
-----------------------------------------|
--3-3-3-2---2-2h-5-5---------------------|
--1-1-1-0---0-0h-3-3---0--0--0--0--0--0--|


                       PM PM PM PM PM PM
  S S S S S S S  S S S S  S  S  S  S  S
-----------------------------------------|
-----------------------------------------|
-----------------------------------------|
-----------------------------------------|
--3-3-3-2---2-2h-5-5---------------------|
--1-1-1-0---0-0h-3-3---0--0--0--0--0--0--|


                       PM PM PM PM PM PM
  S S S S S S S  S S S S  S  S  S  S  S
-----------------------------------------|
-----------------------------------------|
-----------------------------------------|
-----------------------------------------|
--3-3-3-2---2-2h-5-5---------------------|
--1-1-1-0---0-0h-3-3---0--0--0--0--0--0--|


                       PM PM PM PM PM PM
  S S S S S S S  S S S S  S  S  S  S  S     E.  E  S  S S  S S Q.
-----------------------------------------|----------------------------|
-----------------------------------------|----------------------------|
-----------------------------------------|----------------------------|
-----------------------------------------|----------------------------|
--3-3-3-2---2-2h-5-5---------------------|--8---7----10---10---7------|
--1-1-1-0---0-0h-3-3---0--0--0--0--0--0--|--6---5--5--8----8---5------|


   E.  E  S  S S  S S E  E  E     W                   W
-------------------------------|-------------------|-------------------|
-------------------------------|-------------------|-------------------|
-------------------------------|-------------------|-------------------|
-------------------------------|-------------------|-------------------|
--10---9----12---12---9-----2--|--L----------------|--L----------------|
---8---7--7-10---10---7-----0--|--L----------------|--L----------------|

 Riff 1
  E.  S S  S E.  S S S S S E      E.  S S  S E.  S S S S S E
-------------------------------|-------------------------------|
-------------------------------|-------------------------------|
-------------------------------|-------------------------------|
-------------------------------|-------------------------------|
-----------------------5---7~--|-----------------------5---7~--|
--0---0-5h-6-0---0-5-6---6-----|--0---0-5h-6-0---0-5-6---6-----|


  E.  S S  S E.  S S S S S E      E.  S S  S E.  S S S S S E
-------------------------------|-------------------------------|
-------------------------------|-------------------------------|
-------------------------------|-------------------------------|
-------------------------------|-----------------------5-------|
-----------------------5---7~--|-------------------------5-7~--|
--0---0-5h-6-0---0-5-6---6-----|--0---0-5h-6-0---0-5-6---------|


  E.  S S  S E.  S S S S S E      E.  S S  S E.  S S S S S E
-------------------------------|-------------------------------|
-------------------------------|-------------------------------|
-------------------------------|-------------------------------|
-------------------------------|-------------------------------|
-----------------------5---7~--|-----------------------5---7~--|
--0---0-5h-6-0---0-5-6---6-----|--0---0-5h-6-0---0-5-6---6-----|


                                                 PM PM PM PM PM PM PM
  E.  S S  S E.  S S S S S E      E.  S S  S E.  S  S  S  S  S  S  S
-------------------------------|--------------------------------------|
-------------------------------|--------------------------------------|
-------------------------------|--------------------------------------|
-------------------------------|--------------------------------------|
-----------------------5---7~--|--------------------------------------|
--0---0-5h-6-0---0-5-6---6-----|--0---0-5h-6-0---0--0--0--0--0--0--0--|

 Riff 2
    PM PM PM      PM PM PM PM      PM PM
  S S  S  S  S  S S  S  S  S  S  S S  S  S  S
----------------------------------------------|
----------------------------------------------|
----------------------------------------------|
----------------------------------------------|
--2----------7S-8-------------7S-8-------7S-9-|
--0-0--0--0--5S-6-0--0--0--0--5S-6-0--0--5S-7-|


    PM PM PM      PM PM PM PM      PM PM
  S S  S  S  S  S S  S  S  S  S  S S  S  S  S
----------------------------------------------|
----------------------------------------------|
----------------------------------------------|
----------------------------------------------|
--2----------7S-8-------------7S-8-------7S-9-|
--0-0--0--0--5S-6-0--0--0--0--5S-6-0--0--5S-7-|


    PM PM PM      PM PM PM PM      PM PM
  S S  S  S  S  S S  S  S  S  S  S S  S  S  S
----------------------------------------------|
----------------------------------------------|
----------------------------------------------|
----------------------------------------------|
--2----------7S-8-------------7S-8-------7S-9-|
--0-0--0--0--5S-6-0--0--0--0--5S-6-0--0--5S-7-|


    PM PM PM      PM PM PM PM      PM PM
  S S  S  S  S  S S  S  S  S  S  S S  S  S  S
----------------------------------------------|
----------------------------------------------|
----------------------------------------------|
----------------------------------------------|
--2----------7S-8-------------7S-8-------7S-9-|
--0-0--0--0--5S-6-0--0--0--0--5S-6-0--0--5S-7-|


    PM PM PM   PM PM PM   PM PM PM   PM PM PM
  S S  S  S  S S  S  S  S S  S  S  S S  S  S
----------------------------------------------|
----------------------------------------------|
----------------------------------------------|
----------------------------------------------|
--2----------3----------5----------8----------|
--0-0--0--0--1-0--0--0--3-0--0--0--6-0--0--0--|


     PM PM PM PM             PM PM PM
  E  S  S  S  S  S S  S  S S S  S  S  E
-----------------------------------------|
-----------------------------------------|
-----------------9-9S-7S-9-9-------------|
-----------------------------------------|
--2--------------7-7S-5S-7-7----------3--|
--0--0--0--0--0--------------0--0--0--1--|


     PM PM PM PM                 PM
  E  S  S  S  S  S S  S  S S S S S  E
---------------------------------------|
---------------------------------------|
-----------------9-9S-7S-9---9---------|
---------------------------------------|
--2--------------7-7S-5S-7---7------3--|
--0--0--0--0--0------------------0--1--|


     PM PM PM PM             PM PM PM
  E  S  S  S  S  S S  S  S S S  S  S  E
-----------------------------------------|
-----------------------------------------|
-----------------9-9S-7S-9-9-------------|
-----------------------------------------|
--2--------------7-7S-5S-7-7----------3--|
--0--0--0--0--0--------------0--0--0--1--|


    PM PM PM   PM PM PM   PM PM PM   PM PM PM
  S S  S  S  S S  S  S  S S  S  S  S S  S  S
----------------------------------------------|
----------------------------------------------|
----------------------------------------------|
----------------------------------------------|
--2----------3----------5----------8----------|
--0-0--0--0--1-0--0--0--3-0--0--0--6-0--0--0--|


     PM PM PM PM             PM PM PM
  E  S  S  S  S  S S  S  S S S  S  S  E
-----------------------------------------|
-----------------------------------------|
-----------------9-9S-7S-9-9-------------|
-----------------------------------------|
--2--------------7-7S-5S-7-7----------3--|
--0--0--0--0--0--------------0--0--0--1--|


     PM PM PM PM             PM PM PM
  E  S  S  S  S  S S  S  S S S  S  S  E
-----------------------------------------|
-----------------------------------------|
-----------------9-9S-7S-9-9-------------|
-----------------------------------------|
--2--------------7-7S-5S-7-7----------3--|
--0--0--0--0--0--------------0--0--0--1--|
                                      Second guitar plays the harmony notes

     PM PM PM PM             PM PM PM
  E  S  S  S  S  S S  S  S S S  S  S  E
-----------------------------------------|
-----------------------------------------|
-----------------------------------------|
-----------------5-5S-4S-5-5-------------|
--2--------------7-7S-5S-7-7----------3--|
--0--0--0--0--0--------------0--0--0--1--|


    PM PM PM   PM PM PM   PM PM PM   PM PM PM
  S S  S  S  S S  S  S  S S  S  S  S S  S  S
----------------------------------------------|
----------------------------------------------|
----------------------------------------------|
----------------------------------------------|
--2----------3----------5----------8----------|
--0-0--0--0--1-0--0--0--3-0--0--0--6-0--0--0--|


     PM PM      PM PM PM PM      PM PM
  E  S  S  S  S S  S  S  S  S  S S  S  S  S    E.  S S  S E.  S S S S S E
--------------------------------------------|-------------------------------|
--------------------------------------------|-------------------------------|
--------------------------------------------|-------------------------------|
--------------------------------------------|-------------------------------|
--2--------7S-8-------------7S-8-------7S-9-|-----------------------5---7~--|
--0--0--0--5S-6-0--0--0--0--5S-6-0--0--5S-7-|--0---0-5h-6-0---0-5-6---6-----|


  E.  S S  S E.  S S S S S E      E.  S S  S E.  S S S S S E
-------------------------------|-------------------------------|
-------------------------------|-------------------------------|
-------------------------------|-------------------------------|
-------------------------------|-------------------------------|
-----------------------5---7~--|-----------------------5---7~--|
--0---0-5h-6-0---0-5-6---6-----|--0---0-5h-6-0---0-5-6---6-----|


                 PM PM PM PM PM PM PM
  E.  S S  S E.  S  S  S  S  S  S  S
--------------------------------------|
--------------------------------------|
--------------------------------------|
--------------------------------------|
--------------------------------------|
--0---0-5h-6-0---0--0--0--0--0--0--0--|


    PM PM PM      PM PM PM PM      PM PM
  S S  S  S  S  S S  S  S  S  S  S S  S  S  S
----------------------------------------------|
----------------------------------------------|
----------------------------------------------|
----------------------------------------------|
--2----------7S-8-------------7S-8-------7S-9-|
--0-0--0--0--5S-6-0--0--0--0--5S-6-0--0--5S-7-|


    PM PM PM      PM PM PM PM      PM PM
  S S  S  S  S  S S  S  S  S  S  S S  S  S  S
----------------------------------------------|
----------------------------------------------|
----------------------------------------------|
----------------------------------------------|
--2----------7S-8-------------7S-8-------7S-9-|
--0-0--0--0--5S-6-0--0--0--0--5S-6-0--0--5S-7-|


    PM PM PM      PM PM PM PM      PM PM
  S S  S  S  S  S S  S  S  S  S  S S  S  S  S
----------------------------------------------|
----------------------------------------------|
----------------------------------------------|
----------------------------------------------|
--2----------7S-8-------------7S-8-------7S-9-|
--0-0--0--0--5S-6-0--0--0--0--5S-6-0--0--5S-7-|


    PM PM PM      PM PM PM PM      PM PM
  S S  S  S  S  S S  S  S  S  S  S S  S  S  S
----------------------------------------------|
----------------------------------------------|
----------------------------------------------|
----------------------------------------------|
--2----------7S-8-------------7S-8-------7S-9-|
--0-0--0--0--5S-6-0--0--0--0--5S-6-0--0--5S-7-|


    PM PM PM   PM PM PM   PM PM PM   PM PM PM
  S S  S  S  S S  S  S  S S  S  S  S S  S  S
----------------------------------------------|
----------------------------------------------|
----------------------------------------------|
----------------------------------------------|
--2----------3----------5----------8----------|
--0-0--0--0--1-0--0--0--3-0--0--0--6-0--0--0--|


     PM PM PM PM             PM PM PM
  E  S  S  S  S  S S  S  S S S  S  S  E
-----------------------------------------|
-----------------------------------------|
-----------------9-9S-7S-9-9-------------|
-----------------------------------------|
--2--------------7-7S-5S-7-7----------3--|
--0--0--0--0--0--------------0--0--0--1--|


     PM PM PM PM                 PM
  E  S  S  S  S  S S  S  S S S S S  E
---------------------------------------|
---------------------------------------|
-----------------9-9S-7S-9---9---------|
---------------------------------------|
--2--------------7-7S-5S-7---7------3--|
--0--0--0--0--0------------------0--1--|


     PM PM PM PM             PM PM PM
  E  S  S  S  S  S S  S  S S S  S  S  E
-----------------------------------------|
-----------------------------------------|
-----------------9-9S-7S-9-9-------------|
-----------------------------------------|
--2--------------7-7S-5S-7-7----------3--|
--0--0--0--0--0--------------0--0--0--1--|


    PM PM PM   PM PM PM   PM PM PM   PM PM PM
  S S  S  S  S S  S  S  S S  S  S  S S  S  S
----------------------------------------------|
----------------------------------------------|
----------------------------------------------|
----------------------------------------------|
--2----------3----------5----------8----------|
--0-0--0--0--1-0--0--0--3-0--0--0--6-0--0--0--|


     PM PM PM PM             PM PM PM
  E  S  S  S  S  S S  S  S S S  S  S  E
-----------------------------------------|
-----------------------------------------|
-----------------9-9S-7S-9-9-------------|
-----------------------------------------|
--2--------------7-7S-5S-7-7----------3--|
--0--0--0--0--0--------------0--0--0--1--|


     PM PM PM PM             PM PM PM
  E  S  S  S  S  S S  S  S S S  S  S  E
-----------------------------------------|
-----------------------------------------|
-----------------9-9S-7S-9-9-------------|
-----------------------------------------|
--2--------------7-7S-5S-7-7----------3--|
--0--0--0--0--0--------------0--0--0--1--|


     PM PM PM PM             PM PM PM
  E  S  S  S  S  S S  S  S S S  S  S  E
-----------------------------------------|
-----------------------------------------|
-----------------------------------------|
-----------------5-5S-4S-5-5-------------|
--2--------------7-7S-5S-7-7----------3--|
--0--0--0--0--0--------------0--0--0--1--|


    PM PM PM   PM PM PM   PM PM PM   PM PM PM
  S S  S  S  S S  S  S  S S  S  S  S S  S  S
----------------------------------------------|
----------------------------------------------|
----------------------------------------------|
----------------------------------------------|
--2----------3----------5----------8----------|
--0-0--0--0--1-0--0--0--3-0--0--0--6-0--0--0--|


     PM PM      PM PM PM PM      PM PM
  E  S  S  S  S S  S  S  S  S  S S  S  S  S
--------------------------------------------|
--------------------------------------------|
--------------------------------------------|
--------------------------------------------|
--2--------7S-8-------------7S-8-------7S-9-|
--0--0--0--5S-6-0--0--0--0--5S-6-0--0--5S-7-|


  S S  S S S  S S S  S S S  S S S  S S    S S  S S S  S S S  S S S  S S S  S S
---------------------------------------|--------------------------------------|
---------------------------------------|--------------------------------------|
---------------------------------------|--------------------------------------|
---------------------------------------|--------------------------------------|
---------------------------------------|--------------------------------------|
-0-5h-6-0-5h-6-0-5h-6-0-5h-6-0-5h-6-6-|--0-5h-6-0-5h-6-0-5h-6-0-5h-6-0-5h66---|

 Chorus
  E   S S  S  S S  S S  S  S S  S  S  S  S
-------------------------------------------|
-------------------------------------------|
-------------------------------------------|
-------------------------------------------|
-------------------------------------------|
--0--15-0-15-15-0-15-0-15-15-0-15-15-15-15-|


  E   S S  S  S S  S S  S  S S  S  S  S  S
-------------------------------------------|
-------------------------------------------|
-------------------------------------------|
-------------------------------------------|
-------------------------------------------|
--0--15-0-15-15-0-15-0-15-15-0-15-15-15-15-|


  E   S S  S  S S  S S  S  S S  S  S  S  S
-------------------------------------------|
-------------------------------------------|
-------------------------------------------|
-------------------------------------------|
-------------------------------------------|
--0--15-0-15-15-0-15-0-15-15-0-15-15-15-15-|


  E   S S  S  S S  S S  S  S S  S  S  S  S
-------------------------------------------|
-------------------------------------------|
-------------------------------------------|
-------------------------------------------|
-------------------------------------------|
--0--15-0-15-15-0-15-0-15-15-0-15-15-15-15-|


  E   S S  S  S S  S S  S  S S  S  S  S  S
-------------------------------------------|
-------------------------------------------|
-------------------------------------------|
-------------------------------------------|
-------------------------------------------|
--0--15-0-15-15-0-15-0-15-15-0-15-15-15-15-|


  E   S S  S  S S  S S  S  S S  S  S  S  S
-------------------------------------------|
-------------------------------------------|
-------------------------------------------|
-------------------------------------------|
-------------------------------------------|
--0--15-0-15-15-0-15-0-15-15-0-15-15-15-15-|


  E   S S  S  S S  S S  S  S S  S  S  S  S
-------------------------------------------|
-------------------------------------------|
-------------------------------------------|
-------------------------------------------|
-------------------------------------------|
--0--15-0-15-15-0-15-0-15-15-0-15-15-15-15-|


  E   S S  S  S S  S S  S  S S  S  S  S  S
-------------------------------------------|
-------------------------------------------|
-------------------------------------------|
-------------------------------------------|
-------------------------------------------|
--0--15-0-15-15-0-15-0-15-15-0-15-15-15-15-|


  |--3--|  |--3--|  |--3--|  |--3--|
  E  E  E  E  E  E  E  E  E  E  E  E     E.  S S  S E.  S S S S S E
--------------------------------------|-------------------------------|
--------------------------------------|-------------------------------|
--------------------------------------|-------------------------------|
--------------------------------------|-------------------------------|
--8-----8-----8-----8-----8-----8-----|-----------------------5---7~--|
--6-----6-----6-----6-----6-----6-----|--0---0-5h-6-0---0-5-6---6-----|


  E.  S S  S E.  S S S S S E      E.  S S  S E.  S S S S S E
-------------------------------|-------------------------------|
-------------------------------|-------------------------------|
-------------------------------|-------------------------------|
-------------------------------|-------------------------------|
-----------------------5---7~--|-----------------------5---7~--|
--0---0-5h-6-0---0-5-6---6-----|--0---0-5h-6-0---0-5-6---6-----|


  E.  S S  S E.  S S S S S E      E.  S S  S E.  S S S S S E
-------------------------------|-------------------------------|
-------------------------------|-------------------------------|
-------------------------------|-------------------------------|
-----------------------5-------|-------------------------------|
-------------------------5-7~--|-----------------------5---7~--|
--0---0-5h-6-0---0-5-6---------|--0---0-5h-6-0---0-5-6---6-----|


  E.  S S  S E.  S S S S S E      E.  S S  S E.  S S S S S E
-------------------------------|-------------------------------|
-------------------------------|-------------------------------|
-------------------------------|-------------------------------|
-------------------------------|-------------------------------|
-----------------------5---7~--|-----------------------5---7~--|
--0---0-5h-6-0---0-5-6---6-----|--0---0-5h-6-0---0-5-6---6-----|


                 PM PM PM PM PM PM PM
  E.  S S  S E.  S  S  S  S  S  S  S
--------------------------------------|
--------------------------------------|
--------------------------------------|
--------------------------------------|
--------------------------------------|
--0---0-5h-6-0---0--0--0--0--0--0--0--|


    PM PM PM      PM PM PM PM      PM PM
  S S  S  S  S  S S  S  S  S  S  S S  S  S  S
----------------------------------------------|
----------------------------------------------|
----------------------------------------------|
----------------------------------------------|
--2----------7S-8-------------7S-8-------7S-9-|
--0-0--0--0--5S-6-0--0--0--0--5S-6-0--0--5S-7-|


    PM PM PM      PM PM PM PM      PM PM
  S S  S  S  S  S S  S  S  S  S  S S  S  S  S
----------------------------------------------|
----------------------------------------------|
----------------------------------------------|
----------------------------------------------|
--2----------7S-8-------------7S-8-------7S-9-|
--0-0--0--0--5S-6-0--0--0--0--5S-6-0--0--5S-7-|


    PM PM PM      PM PM PM PM      PM PM
  S S  S  S  S  S S  S  S  S  S  S S  S  S  S
----------------------------------------------|
----------------------------------------------|
----------------------------------------------|
----------------------------------------------|
--2----------7S-8-------------7S-8-------7S-9-|
--0-0--0--0--5S-6-0--0--0--0--5S-6-0--0--5S-7-|


    PM PM PM      PM PM PM PM      PM PM
  S S  S  S  S  S S  S  S  S  S  S S  S  S  S
----------------------------------------------|
----------------------------------------------|
----------------------------------------------|
----------------------------------------------|
--2----------7S-8-------------7S-8-------7S-9-|
--0-0--0--0--5S-6-0--0--0--0--5S-6-0--0--5S-7-|


    PM PM PM   PM PM PM   PM PM PM   PM PM PM
  S S  S  S  S S  S  S  S S  S  S  S S  S  S
----------------------------------------------|
----------------------------------------------|
----------------------------------------------|
----------------------------------------------|
--2----------3----------5----------8----------|
--0-0--0--0--1-0--0--0--3-0--0--0--6-0--0--0--|


     PM PM PM PM             PM PM PM
  E  S  S  S  S  S S  S  S S S  S  S  E
-----------------------------------------|
-----------------------------------------|
-----------------9-9S-7S-9-9-------------|
-----------------------------------------|
--2--------------7-7S-5S-7-7----------3--|
--0--0--0--0--0--------------0--0--0--1--|


     PM PM PM PM                 PM
  E  S  S  S  S  S S  S  S S S S S  E
---------------------------------------|
---------------------------------------|
-----------------9-9S-7S-9---9---------|
---------------------------------------|
--2--------------7-7S-5S-7---7------3--|
--0--0--0--0--0------------------0--1--|


     PM PM PM PM             PM PM PM
  E  S  S  S  S  S S  S  S S S  S  S  E
-----------------------------------------|
-----------------------------------------|
-----------------9-9S-7S-9-9-------------|
-----------------------------------------|
--2--------------7-7S-5S-7-7----------3--|
--0--0--0--0--0--------------0--0--0--1--|


    PM PM PM   PM PM PM   PM PM PM   PM PM PM
  S S  S  S  S S  S  S  S S  S  S  S S  S  S
----------------------------------------------|
----------------------------------------------|
----------------------------------------------|
----------------------------------------------|
--2----------3----------5----------8----------|
--0-0--0--0--1-0--0--0--3-0--0--0--6-0--0--0--|


     PM PM PM PM             PM PM PM
  E  S  S  S  S  S S  S  S S S  S  S  E
-----------------------------------------|
-----------------------------------------|
-----------------9-9S-7S-9-9-------------|
-----------------------------------------|
--2--------------7-7S-5S-7-7----------3--|
--0--0--0--0--0--------------0--0--0--1--|


     PM PM PM PM             PM PM PM
  E  S  S  S  S  S S  S  S S S  S  S  E
-----------------------------------------|
-----------------------------------------|
-----------------9-9S-7S-9-9-------------|
-----------------------------------------|
--2--------------7-7S-5S-7-7----------3--|
--0--0--0--0--0--------------0--0--0--1--|


     PM PM PM PM             PM PM PM
  E  S  S  S  S  S S  S  S S S  S  S  E
-----------------------------------------|
-----------------------------------------|
-----------------------------------------|
-----------------5-5S-4S-5-5-------------|
--2--------------7-7S-5S-7-7----------3--|
--0--0--0--0--0--------------0--0--0--1--|


    PM PM PM   PM PM PM   PM PM PM   PM PM PM
  S S  S  S  S S  S  S  S S  S  S  S S  S  S
----------------------------------------------|
----------------------------------------------|
----------------------------------------------|
----------------------------------------------|
--2----------3----------5----------8----------|
--0-0--0--0--1-0--0--0--3-0--0--0--6-0--0--0--|


     PM PM      PM PM PM PM      PM PM
  E  S  S  S  S S  S  S  S  S  S S  S  S  S
--------------------------------------------|
--------------------------------------------|
--------------------------------------------|
--------------------------------------------|
--2--------7S-8-------------7S-8-------7S-9-|
--0--0--0--5S-6-0--0--0--0--5S-6-0--0--5S-7-|


  S S  S S S  S S S  S S S  S S S  S S    S S  S S S  S S S  S S S  S S S  S S
---------------------------------------|--------------------------------------|
---------------------------------------|--------------------------------------|
---------------------------------------|--------------------------------------|
---------------------------------------|--------------------------------------|
---------------------------------------|--------------------------------------|
0-5h-6-0-5h-6-0-5h-6-0-5h-6-0-5h-6-6-|--0-5h-6-0-5h-6-0-5h-6-0-5h-6-0-5h-66---|


  E   S S  S  S S  S S  S  S S  S  S  S  S
-------------------------------------------|
-------------------------------------------|
-------------------------------------------|
-------------------------------------------|
-------------------------------------------|
--0--15-0-15-15-0-15-0-15-15-0-15-15-15-15-|


  E   S S  S  S S  S S  S  S S  S  S  S  S
-------------------------------------------|
-------------------------------------------|
-------------------------------------------|
-------------------------------------------|
-------------------------------------------|
--0--15-0-15-15-0-15-0-15-15-0-15-15-15-15-|


  E   S S  S  S S  S S  S  S S  S  S  S  S
-------------------------------------------|
-------------------------------------------|
-------------------------------------------|
-------------------------------------------|
-------------------------------------------|
--0--15-0-15-15-0-15-0-15-15-0-15-15-15-15-|


  E   S S  S  S S  S S  S  S S  S  S  S  S
-------------------------------------------|
-------------------------------------------|
-------------------------------------------|
-------------------------------------------|
-------------------------------------------|
--0--15-0-15-15-0-15-0-15-15-0-15-15-15-15-|


  E   S S  S  S S  S S  S  S S  S  S  S  S
-------------------------------------------|
-------------------------------------------|
-------------------------------------------|
-------------------------------------------|
-------------------------------------------|
--0--15-0-15-15-0-15-0-15-15-0-15-15-15-15-|


  E   S S  S  S S  S S  S  S S  S  S  S  S
-------------------------------------------|
-------------------------------------------|
-------------------------------------------|
-------------------------------------------|
-------------------------------------------|
--0--15-0-15-15-0-15-0-15-15-0-15-15-15-15-|


  E   S S  S  S S  S S  S  S S  S  S  S  S
-------------------------------------------|
-------------------------------------------|
-------------------------------------------|
-------------------------------------------|
-------------------------------------------|
--0--15-0-15-15-0-15-0-15-15-0-15-15-15-15-|


  E   S S  S  S S  S S  S  S S  S  S  S  S
-------------------------------------------|
-------------------------------------------|
-------------------------------------------|
-------------------------------------------|
-------------------------------------------|
--0--15-0-15-15-0-15-0-15-15-0-15-15-15-15-|


  |--3--|  |--3--|  |--3--|  |--3--|
  E  E  E  E  E  E  E  E  E  E  E  E
--------------------------------------||
--------------------------------------||
--------------------------------------||
--------------------------------------||
--8-----8-----8-----8-----8-----8-----||
--6-----6-----6-----6-----6-----6-----||


Duration Legend
---------------
W - whole
H - half
Q - quarter
E - 8th
S - 16th
T - 32nd
X - 64th
. - note dotted
|-n-|  - n-tuplets


Tablature Legend
----------------
L - tied note
x - dead note
g - grace note
(n) - ghost note
> - accentuded note
NH - natural harmonic
AH - artificial harmonic
TH - tapped harmonic
SH - semi harmonic
PH - pitch harmonic
h - hammer on
p - pull off
b - bend
br - bendRelease
pb - preBend
pbr - preBendRelease
brb - bendReleaseBend
\n/ - tremolo bar dip
\n - tremolo bar dive
-/n - tremolo bar Release up
/n\ - tremolo bar inverted dip
/n - tremolo bar return
-\n - tremolo bar Release down
S - shift slide
s - legato slide
/ -  slide into from below or out of upwards
\ -  slide into from above or out of downwards
~ - vibrato
W - wide vibrato
tr - tril'
TP - tremolo picking
T - tapping
S - slap
P - pop
< - fade in
^ - brush up
v - brush down

Broken, Beat & Scarred
Tuning: Standard

|------------------------|
|------------------------|
|------------------------|
|------------------------|
|------------2-2--2------|
|--/6\--/6\--0-0--0------|
|            . .         |
|                        |
|------------------------|
|------------------------|
|------------------------|
|------------------------|
|------------2-2--2-2-2--|
|--/6\--/6\--0-0--0-0-0--|
             . .    . .

|------------|---------------------------|
|------------|---------------------------|
|------------|---------------------------| The notes in this riff
|------------|----------7----------------| get a layered octave after
|------------|-------/7----8-7\5-7h8p7~--| a few repeats.
|--/6\--/6\--|--0-0----------------------|
|                                        |
|                                        |
|------------|----------|----------------|
|------------|----------|----------------|
|------------|----------|----------------| 
|------------|----------|----------------| 
|------------|--2-2-2-2-|-2-2-2-2-2-2-2--| 
|--/6\--/6\--|--0-0-0-0-|-0-0-0-0-0-0-0--|
                . . . .   . . . . . . .

|------------------------------------------------------------------|
|------------------------------------------------------------------|
|-----(7)--------(7)---(9)---(10)----------(9)---------5-----------| 
|----------------------------------------------------7-------------|
|------5----------5-----7-----8-------------7------5---------------|
|------------------------------------------------------------------|
| Brackets contain octaved layer                                   |
|                                                                  |
|------------------------------------------------------------------|
|------------------------------------------------------------------|
|---------------------------------------------------------------5--|
|------5-----5-------------5-----7-----8-------------7--------7----|
|------5-----5-------------5-----7-----8-------------7------5------|
|--0-0-3-0-0-3-0-0-0-0-0-0-3-0-0-5-0-0-6-6-6-6-6-6-6-5-5-5---------|
   . .   . .        . .   . .   . . . . . .   . .

|-------------------|-------------------|
|-------------------|-------------------| 
|-------------------|-------------------| 
|------3-----3------|--2-2-----7--------| 
|------3-----3------|--2-2--/7---8-7\5--| 
|--0-0-1-0-0-1-0-0--|--0-0--------------|
   . .   . .   . .

|-------------------------------------------------------|---------------|
|-------------------------------------------------------|---------------|
|-------------------------------------------------------|---------------|
|-------------------------------------------------------|---------------|
|-------------------------------------------------------|---------------|
|--15h17p15\14\12-000-12-12-000-12-000-12-12-000-12-12--|--15-15-15-15--|
                  ...       ...    ...       ...          
 
 (You rise, you fall, you're down...)
|-------------------------------------------|
|-------------------------------------------|
|-------------------------------------------|
|-------------------------------------.-----| [(.) Staccato'd note]
|---------------2-----2-2-----2-----2-2--2--|
|--3333-3h5p3/2-0-000-0-0-0-0-0-0-0-0-0--0--|
   ....           ...     . .   . .   

 (Rise, fall, down...)
|--------|----------------------------|
|--------|----------------------------| 
|--------|----------------------------|
|--------|--2---/---10---\---5--/7\5--|
|--------|--2---/---10---\---5--/7\5--| 
|--3333--|--0---/---8----\---3--/5\3--|
   ....

 (Through black days...)
|-----------------------------------------------------------------------|
|-----------------------------------------------------------------------|
|-----------------------------------------------------------------------|
|------5-----5-------------5-----7-----8-------------7-----3-----3------|
|------5-----5-------------5-----7-----8-------------7-----3-----3------|
|--0-0-3-0-0-3-0-0-0-0-0-0-3-0-0-5-0-0-6-6-6-6-6-6-6-5-0-0-1-0-0-1-0-0--|
   . .   . .   . . . . . .   . .   . .   . . . . . .   . .   . .   . .

|---------------------------------------------------|
|---------------------------------------------5-----|
|---------------------------------------------------|
|----------7-----------------8-7h8p7--------7-----x-|
|--2-2--/7---8-7\5---2-2--/7---------8p7--5-------x-|
|--0-0---------------0-0--------------------------x-|

 (Breaking your teeth on the...)
|------|----------------------------------------------------------------|
|------|----------------------------------------------------------------|
|------|----------------------------------------------------------------|
|--9\--|----------------------------------------------------------------|
|--7\--|-------------5h7-77-5------------5h7-77-9------------5h7-77-10--|
|--0---|--0000000000-0-0-00-3-0000000000-0-0-00-7-0000000000-0-0-00-8---|
          ..........          ..........          ..........
 
|----------|----------------------|---------|
|----------|----------------------|------5--|
|----------|----------------------|---------|
|----------|----------------------|----7----|
|--5h7-77--|--------7--------8----|--5------|
|--0-0-00--|--0-5-6----0-5-6------|---------|

 (But we die hard..)
|-------------------|-------------------|
|-------------------|-------------------| 
|-------------------|-------------------| 
|------3-----3------|--2-2-----7--------| 
|------3-----3------|--2-2--/7---8-7\5--| 
|--0-0-1-0-0-1-0-0--|--0-0--------------|
   . .   . .   . .

|-------------------------------------------------------|---------------|
|-------------------------------------------------------|---------------|
|-------------------------------------------------------|---------------|
|-------------------------------------------------------|---------------|
|-------------------------------------------------------|---------------|
|--15h17p15\14\12-000-12-12-000-12-000-12-12-000-12-12--|--15-15-15-15--|
                  ...       ...    ...       ...          
 
 (The dawn, the death, the fight...)
|-------------------------------------------|
|-------------------------------------------|
|-------------------------------------------|
|-------------------------------------.-----|
|---------------2-----2-2-----2-----2-2--2--|
|--3333-3h5p3/2-0-000-0-0-0-0-0-0-0-0-0--0--|
   ....           ...     . .   . .   

 (Dawn, death, fight...)
|--------|----------------------------|
|--------|----------------------------| 
|--------|----------------------------| 
|--------|--2---/---10---\---5--/7\5--|
|--------|--2---/---10---\---5--/7\5--| 
|--3333--|--0---/---8----\---3--/5\3--|
   ....

 (They scratched me, They scraped...)
|-----------------------------------------------------------------------|
|-----------------------------------------------------------------------|
|-----------------------------------------------------------------------|
|------5-----5-------------5-----7-----8-------------7-----3-----3------|
|------5-----5-------------5-----7-----8-------------7-----3-----3------|
|--0-0-3-0-0-3-0-0-0-0-0-0-3-0-0-5-0-0-6-6-6-6-6-6-6-5-0-0-1-0-0-1-0-0--|
   . .   . .   . . . . . .   . .   . .   . . . . . .   . .   . .   . .

|---------------------------------------------------|
|---------------------------------------------5-----|
|---------------------------------------------------|
|----------7-----------------8-7h8p7--------7-----x-|
|--2-2--/7---8-7\5---2-2--/7---------8p7--5-------x-|
|--0-0---------------0-0--------------------------x-|

 (Breaking your teeth on the...)
|------|----------------------------------------------------------------|
|------|----------------------------------------------------------------|
|------|----------------------------------------------------------------|
|--9\--|----------------------------------------------------------------|
|--7\--|-------------5h7-77-5------------5h7-77-9------------5h7-77-10--|
|--0---|--0000000000-0-0-00-3-0000000000-0-0-00-7-0000000000-0-0-00-8---|
          ..........          ..........          ..........

 (Breaking your life, broken...)
|----------|----------------------|---------|---------------------|
|----------|----------------------|------5--|---------------------|
|----------|----------------------|---------|---------------------|
|----------|----------------------|----7----|------3-----3-----2--|
|--5h7-77--|--------7----------8--|--5------|------3-----3-----2--|
|--0-0-00--|--0-5-6------0-5-6----|---------|--0-0-1-0-0-1-0-0-0--|
                                               . .   . .   . .

 Rhythm for the solo:
|-------------------------|-------------------------|
|-------------------------|-------------------------|
|-------------------------|-------------------------|
|-------------------------|-------------------------|
|-------------------------|-------------------------|
|--0-0-0-6-0-0-0-6-6-6-5--|--0-0-0-6-0-0-0-6-6~--5--|
   . . .     . .             . . .   . . .  

|-----------|---------------------|
|-----------|---------------------|
|-----------|---------------------|
|-----------|--------3-----3------|
|--------6--|--------3-----3------|
|--0-0-0----|--0-0-0-1-0-0-1-0-0--|
   . . .       . . .   . .   . .

|----------------------------------|
|----------------------------------|
|----------------------------------|
|----------------------------------|
|----5~-4----5~-4----4~-3----3~-2--|
|--4-------4-------4-------4-------|

|----------------------------------|
|----------------------------------|
|----------------------------------|
|----------------------------------|
|----7~-6----7~-6----6~-5----5~-4--|
|--6-------6-------6-------6-------|

|-----------------|---------------------------------|---------------------|
|-----------------|---------------------------------|---------------------|
|-----------------|---------------------------------|---------------------|
|-----------------|--------8-7-------7-6-------6-5--|---------------------|
|-----------------|--------8-7-------7-6-------6-5--|--x\---(Pick-Slide)--|
|--0-0-0-0-0-0-0--|--0-0-0-6-5-0-0-0-5-4-0-0-0-4-3--|--x\-----------------|
   . . . . . . .     . . .     . . .     . . . 

|-------------------------|-------------------------|-----------|
|-------------------------|-------------------------|-----------|
|-------------------------|-------------------------|-----------|
|-------------------------|-------------------------|-----------|
|--------3-------3-3-3-2--|--------3-------3-3~--2--|--------3--|
|--2-2-2---2-2-2----------|--2-2-2---2-2-2----------|--2-2-2----|
   . . .     . .             . . .   . . .             . . .

|-------------------------------------------------------------------------------------|
|-------------------------------------------------------------------------------------|
|-------------------------------------------------------------------------------------|
|--------5-----5-----5-----5-------------5-----7-----8-------------7-----3-----3------|
|--------5-----5-----5-----5-------------5-----7-----8-------------7-----3-----3------|
|--2-2-2-3-2-2-3-2-2-3-2-2-3-2-2-2-2-2-2-3-3-3-5-5-5-6-6-6-6-6-6-6-5-1-1-1-1-1-1-0-0--|
   . . .   . .   . .   . .   . . . . . .   . .   . .   . . . . . .   . .   . .   . .

|---------------------------------------------|
|---------------------------------------------|
|---------------------------------------------|
|--2-2----------------2-2---------------------|
|--2-2-------------7--2-2--------------7-8----|
|--0-0--0-0-0-0-/5----0-0--0-0-0-0-/5------6--|
        . . . .            . . . .

 (Breaking your teeth on the...)
|------|----------------------------------------------------------------|
|------|----------------------------------------------------------------|
|------|----------------------------------------------------------------|
|--9\--|----------------------------------------------------------------|
|--7\--|-------------5h7-77-5------------5h7-77-9------------5h7-77-10--|
|--0---|--0000000000-0-0-00-3-0000000000-0-0-00-7-0000000000-0-0-00-8---|
          ..........          ..........          ..........

|----------|----------------------|
|----------|----------------------|
|----------|----------------------|
|----------|----------------------|
|--5h7-77--|--------7----------8--|
|--0-0-00--|--0-5-6------0-5-6----|
        
 
|-----------------------------------------------------------------------|
|-----------------------------------------------------------------------|
|-----------------------------------------------------------------------|
|------5-----5-------------5-----7-----8-------------7-----3-----3------|
|------5-----5-------------5-----7-----8-------------7-----3-----3------|
|--0-0-3-0-0-3-0-0-0-0-0-0-3-0-0-5-0-0-6-6-6-6-6-6-6-5-0-0-1-0-0-1-0-0--|
   . .   . .   . . . . . .   . .   . .   . . . . . .   . .   . .   . .
 
 (We die hard...)
|---------------------------------------------|
|---------------------------------------------|
|---------------------------------------------|
|--2-2----------------2-2---------------------|
|--2-2-------------7--2-2--------------7-8----|
|--0-0--0-0-0-0-/5----0-0--0-0-0-0-/5------6--|
        . . . .            . . . .

|-----------------------------------------------------------------------|
|-----------------------------------------------------------------------|
|-----------------------------------------------------------------------|
|------5-----5-------------5-----7-----8-------------7-----3-----3------|
|------5-----5-------------5-----7-----8-------------7-----3-----3------|
|--0-0-3-0-0-3-0-0-0-0-0-0-3-0-0-5-0-0-6-6-6-6-6-6-6-5-0-0-1-0-0-1-0-0--|
   . .   . .   . . . . . .   . .   . .   . . . . . .   . .   . .   . .

|---------------------------------------------|--------------------------|
|---------------------------------------------|--------------------------|
|---------------------------------------------|--------------------------|
|--2-2----------------2-2---------------------|--2-2----------------2-2--|
|--2-2-------------7--2-2--------------7-8----|--2-2-------------7--2-2--|
|--0-0--0-0-0-0-/5----0-0--0-0-0-0-/5------6--|--0-0--0-0-0-0-/5----0-0--|
        . . . .            . . . .                    . . . .


The Day That Never Comes

Tuning: Guitar 1 (James Hetfield) - EADGBe (standard)
        Guitar 2 (Kirk Hammett) - EADGBe (standard)

Key:

 r     return bend
 b     bend
 /     slide up
 \     slide down
 h     hammer-on
 p     pull-off
 ~     vibrato
 +     pinched harmonic
 x     dead note
 *     palm mute
 ()    ghost note



Song Order for Guitar 1 (James Hetfield):
Part 1  x6
Part 2  x8
Part 3  x4
Part 4  x1
Part 5  x2
Part 2  x4
Part 3  x4
Part 6  x1
Part 7  x1
Part 8  x4
Part 9  x1
Part 4  x1
Part 10 x1
Part 11 x1
Part 7  x1
Part 12 x4
Part 13 x1
Part 14 x2
Part 15 x1
Part 12 x4
Part 16 x1
Part 17 x1
Part 18 x1



Song Order for Guitar 2 (Kirk Hammett):
Lead 1  x1
Lead 2  x1
Lead 3  x1
Lead 2  x1
Lead 4  x1
Lead 5  x2
Lead 6  x1
Lead 6  x1
Lead 7  x1
Lead 5  x2
Lead 8  x1







Part 1 - Clean Electric - Guitar 1

e|------12----------12----------12----------12----|
B|---13----13----13----13----12----12----12----12-|
G|14----------14----------12----------12----------|
D|------------------------------------------------|
A|------------------------------------------------|
E|------------------------------------------------|

e|------14----------14----------12----------12----|
B|---15----15----15----15----13----13----13----13-|
G|12----------12----------14----------14----------|
D|------------------------------------------------|
A|------------------------------------------------|
E|------------------------------------------------|



Lead 1 - Distorted Electric - Guitar 2

e|------------------------------------------------|
B|------------------------------------------------|
G|7----h9-----------------------------------------|
D|--------7-----7--/9-----5~----------------------|
A|------------------------------------------------|
E|------------------------------------------------|

e|------------------------------------------------|
B|------------------------------------------------|
G|7----h9-----------------------------------------|
D|--------7-----7--/9-----7~----------------------|
A|------------------------------------------------|
E|------------------------------------------------|

e|------------------------------------------------|
B|------------------------------------------------|
G|7----h9-----------------------------------------|
D|--------7-----7--/9-----5~----------------------|
A|------------------------------------------------|
E|------------------------------------------------|

e|------------------------------------------------|
B|------------------------------------------------|
G|7----h9-----------------------------------------|
D|--------7-----7--/9-----7~----------------------|
A|------------------------------------------------|
E|------------------------------------------------|

e|------------------------------------------------|
B|------------------------------------------------|
G|7----h9-----------------------------------------|
D|--------7-----7--/9-----5~----5-/7--7-/9--9-/10-|
A|------------------------------------------------|
E|------------------------------------------------|

e|------------------------------------------------|
B|------------------------------------------------|
G|------------------------------------------------|
D|9-----5/7-----9-9-10-10p7~-------------5------7-|
A|------------------------------------------------|
E|------------------------------------------------|

e|--------------------------------------------------------|
B|--------------------------------------------------------|
G|--------------------------------------------------------|
D|7-----------5-7-9---7-9-10---9-10-12---10---9h10-9~---\-|
A|--------------------------------------------------------|
E|--------------------------------------------------------|

e|------------------------------------------------|
B|--------------------------3---5---6---5---6---8-|
G|---------7---9---7------------------------------|
D|9---10---------------10-------------------------|
A|--------------------------5---7---8---7---8---10|
E|------------------------------------------------|

e|------------------------------------------------|
B|10~---------------------------------------------|
G|------------------------------------------------|
D|------------------------------------------------|
A|12~---------------------------------------------|
E|------------------------------------------------|



Part 2 - Clean Electric - Guitar 1

e|----------------------------------------------------------------|
B|----1---0---------------------------1---0-----1-----1---0-------|
G|----------2---0-------0-------0-----------2---------------0---2-|
D|--2-----------------0-------0---------------------2---------0---|
A|0-----0-----0-----2-------2-------2---2-----2---3-----3---------|
E|----------------3------(3)------0-------------------------------|



Part 3 - Distorted Electric - Guitar 1

e|----------------------------------------0-----------------------|
B|----------------------------------------0-----------------------|
G|------------------------------------------------5-5-----5-5-----|
D|7---------------5---------------2-----2---------5-5-----5-5-----|
A|7---------------5---------------2-----2---------3-3-----3-3-----|
E|5-------5-8-5-3-3-------3-7-3-0-0-----0-------------------------|



Lead 2 - Distorted Electric - Guitar 2

e|----------------------------------------------------------------|
B|----------------------------------------------------------------|
G|5~------5h7-5\4-5~------4h5-4\2-0---------------5-5~----5-5~----|
D|----------------------------------------------------------------|
A|----------------------------------------------------------------|
E|----------------------------------------------------------------|

e|----------------------------------------------------------------|
B|----------------------------------------------------------------|
G|5~------5h7-5\4-5~------4h5-4\2-4~--------------5-5~----5-5~----|
D|----------------------------------------------------------------|
A|----------------------------------------------------------------|
E|----------------------------------------------------------------|



Part 4 - Distorted Electric - Guitar 1

  * * * * * * * * * *
e|------------------------------------------------|
B|------------------------------------------------|
G|--------------------0-1-------------------------|
D|------------0-2-3-3-----2~----------------------|
A|------0-2-3-------------------------------------|
E|0-1-4-------------------------------------------|



Part 5 - Distorted Electric - Guitar 1

e|------0-----------0-----------0-----------0-----|
B|---1-----1-----1-----1-----0-----0-----0-----0--|
G|2-----------2-----------0-----------0-----------|
D|------------------------------------------------|
A|------------------------------------------------|
E|------------------------------------------------|

e|------2-----------2-----------0-----------0-----|
B|---3-----3-----3-----3-----1-----1-----1-----1--|
G|0-----------0-----------2-----------2-----------|
D|------------------------------------------------|
A|------------------------------------------------|
E|------------------------------------------------|



Lead 3 - Distorted Electric - Guitar 2

e|------------------------------------------------|
B|------------------------------------------------|
G|7----h9-----------------------------------------|
D|--------7-----7--/9-----5~----------------------|
A|------------------------------------------------|
E|------------------------------------------------|

e|------------------------------------------------|
B|------------------------------------------------|
G|7----h9-----------------------------------------|
D|--------7-----7--/9-----7~----------------------|
A|------------------------------------------------|
E|------------------------------------------------|

e|------------------------------------------------|
B|------------------------------------------------|
G|7----h9-----------------------------------------|
D|--------7-----7--/9-----5~----------------------|
A|------------------------------------------------|
E|------------------------------------------------|

e|------------------------------------------------|
B|------------------------------------------------|
G|7----h9-----------------------------------------|
D|--------7-----7--/9-----7~----------------9-----|
A|------------------------------------------------|
E|------------------------------------------------|

e|------------------------------------------------|
B|------------------------------------------------|
G|------------------------------------------------|
D|7~----------------------------------------------|
A|------------------------------------------------|
E|------------------------------------------------|



Part 6 - Distorted Electric - Guitar 1

  * * * * * * * * * *                       * * * * * *
e|------------------------------------------------------------------|
B|------------------------------------------------------------------|
G|--------------------0-1-------------------------------------------|
D|------------0-2-3-3-----2-----------------------------5-----------|
A|------0-2-3-------------------------------------0-2-3-5-----------|
E|0-1-4-------------------------------------0-1-4-------3-----------|

  * * * * * *       * * *       * * *       * * * * * * * * * *
e|------------------------------------------------------------------|
B|------------------------------------------------------------------|
G|------------2-----------5-----------4-------------------------0-1-|
D|------------2-----------5-----------4-----------------0-2-3-3-----|
A|------0-2-3-0-----------3-----------2-----------0-2-3-------------|
E|0-1-4-------------0-1-4-------0-1-4-------0-1-4-------------------|



Part 7 - Distorted Electric - Guitar 1

e|----------------------------------------------------------------|
B|----------------------------------------------------------------|
G|----------------------------------------------------------------|
D|10------\-------2---------------9-------\-------2---------------|
A|10------\-------2---------------9-------\-------2---------------|
E|8-------\-------0---------------7-------\-------0---------------|

e|----------------------------------------------------------------|
B|----------------------------------------------------------------|
G|----------------------------------------------------------------|
D|10------\-------2---------------9-------\-------2---------------|
A|10------\-------2---------------9-------\-------2---------------|
E|8-------\-------0---------------7-------\-------0---------------|



Part 8 - Distorted Electric - Guitar 1

e|play-this-part|-------------------------------------------------|
B|on-the-first--|-------------------------------------------------|
G|time only-----|-------------------------------------------------|
D|--------------|-------------------------------------------------|
A|7----7--------|-10----7---10----7----7----------10----7---10----|
E|0----0--------|-0-----0---0-----0----0----------0-----0---0-----|

e|----------------------------------------------------------------|
B|----------------------------------------------------------------|
G|----------------------------------------------------------------|
D|----------------------------------------------------------------|
A|7----7----------10----7---10----9----8--------------------------|
E|0----0----------0-----0---0-----7----6----0----0----0----0----0-|

e|--------------|
B|--------------|
G|--------------|
D|--------------|
A|--------------|
E|3-3-3-2-0---0-|



Part 9 - Distorted Electric - Guitar 1

e|----------------------------------------------------------------|
B|----------------------------------------------------------------|
G|----------------------------------------------------------------|
D|----------------------------------------------------------------|
A|4----4----------7-----4---7-----4----4----------7-----4---7-----|
E|2----2----------5-----2---5-----2----2----------5-----2---5-----|

e|----------------------------------------------------------------|
B|----------------------------------------------------------------|
G|----------------------------------------------------------------|
D|----------------------------------------------------------------|
A|4----4----------7-----4---7-----7-------9-------6-------9-------|
E|2----2----------5-----2---5-----5-------7-------4-------7-------|

e|----------------------------------------------------------------|
B|----------------------------------------------------------------|
G|----------------------------------------------------------------|
D|----------------------------------------------------------------|
A|9-------11------7-------11------12------9-------12--12----12-\--|
E|7-------9-------5-------9-------10------7-------10--10----10-\--|

                             * * * * * * * * * *
e|----------------------------------------------------------------|
B|----------------------------------------------------------------|
G|-----------------------------------------------0-1--------------|
D|---------------------------------------0-2-3-3-----2~-----------|
A|12--12----12-\-------------------0-2-3--------------------------|
E|10--10----10-\-------------0-1-4--------------------------------|



Part 10 - Distorted Electric - Guitar 1

  * * * * * * * * * * * *         * * * * * * * * * * * *
e|----------------------------------------------------------------|
B|----------------------------------------------------------------|
G|----------------------------------------------------------------|
D|----------------------------------------------------------------|
A|----------------------------------------------------------------|
E|0-0-0-0-0-0-0-0-0-0-0-0-0-0-----0-0-0-0-0-0-0-0-0-0-0-0-0-0-----|

  * * * * * *         * * * * * *         * * * * * *     * *
e|----------------------------------------------------------------|
B|----------------------------------------------------------------|
G|----------------------------------------------------------------|
D|----------------------------------------------------------------|
A|------------------------------------------------------------6~--|
E|0-0-0-0-0-0-1-0-----0-0-0-0-0-0-1-0-----0-0-0-0-0-0-1-0-0-0-----|

  * * * * * * * * * * * *         * * * * * * * * * * * *
e|----------------------------------------------------------------|
B|----------------------------------------------------------------|
G|----------------------------------------------------------------|
D|----------------------------------------------------------------|
A|----------------------------------------------------------------|
E|0-0-0-0-0-0-0-0-0-0-0-0-0-0-----0-0-0-0-0-0-0-0-0-0-0-0-0-0-----|

  * * * * * *         * * * * * *         * * * * * *     * *
e|----------------------------------------------------------------|
B|----------------------------------------------------------------|
G|----------------------------------------------------------------|
D|----------------------------------------------------------------|
A|------------------------------------------------------------6~--|
E|0-0-0-0-0-0-1-0-----0-0-0-0-0-0-1-0-----0-0-0-0-0-0-1-0-0-0-----|

  * * * * * * * * * * * *         * * * * * * * * * * * *
e|----------------------------------------------------------------|
B|----------------------------------------------------------------|
G|----------------------------------------------------------------|
D|----------------------------------------------------------------|
A|----------------------------------------------------------------|
E|0-0-0-0-0-0-0-0-0-0-0-0-0-0-----0-0-0-0-0-0-0-0-0-0-0-0-0-0-----|



Part 11 - Distorted Electric - Guitar 1

e|----------------------------------------------------------------|
B|----------------------------------------------------------------|
G|9---9-9-9p7-------7--7-7-7p4-----4---4-4-4p2-----2p0------------|
D|--------------9--------------7---------------5-------2---5p2----|
A|-------------------------------------------------------------5--|
E|----------------------------------------------------------------|

e|----------------------------------------------------------------|
B|----------------------------------------------------------------|
G|9---9-9-9p7-------7--7-7-7p4-----4---4-4-4p2-----7b9-7---4h7-7--|
D|--------------9--------------7---------------5------------------|
A|----------------------------------------------------------------|
E|----------------------------------------------------------------|

e|--------------------------------------------------------------------------------|
B|12---12-12-12p10--------10---10-10-10p8--------8---8-8-8p7-------7p5-----5p3----|
G|-------------------12---------------------11-----------------9-------7-------5--|
D|--------------------------------------------------------------------------------|
A|--------------------------------------------------------------------------------|
E|--------------------------------------------------------------------------------|

e|--------------------------------------------------------------------------------|
B|12---12-12-12p10--------10---10-10-10p8--------8---8-8-8p7-----5h7p5---3h5p3----|
G|-------------------12---------------------11-----------------9-------7-------5--|
D|--------------------------------------------------------------------------------|
A|--------------------------------------------------------------------------------|
E|--------------------------------------------------------------------------------|

e|--------------------------------7-7-0-|
B|1h3p1-----0h1p0-----0---5-5-0---------|
G|------4---------2---------------------|
D|--------------------------------------|
A|--------------------------------------|
E|--------------------------------------|



Lead 4 - Distorted Electric - Guitar 2

e|----------------------------------------------------------------|
B|----------------------------------------------------------------|
G|9---9-9-9p7-------7--7-7-7p4-----4---4-4-4p2-----2p0------------|
D|--------------9--------------7---------------5-------2---5p2----|
A|-------------------------------------------------------------5--|
E|----------------------------------------------------------------|

e|----------------------------------------------------------------|
B|----------------------------------------------------------------|
G|9---9-9-9p7-------7--7-7-7p4-----4---4-4-4p2-----7b9-7---4h7-7--|
D|--------------9--------------7---------------5------------------|
A|----------------------------------------------------------------|
E|----------------------------------------------------------------|

e|----------------------------------------------------------------|
B|----------------------------------------------------------------|
G|9---9-9-9p7-------7--7-7-7p4-----4---4-4-4p2-----2p0------------|
D|--------------9--------------7---------------5-------2---5p2----|
A|-------------------------------------------------------------5--|
E|----------------------------------------------------------------|

e|19---19-19-19p17--------17---17-17-17p15--------15---15-15p14--------12h14p12-|
B|-------------------20----------------------19-------------------17------------|
G|------------------------------------------------------------------------------|
D|------------------------------------------------------------------------------|
A|------------------------------------------------------------------------------|
E|------------------------------------------------------------------------------|

e|-----10h12p10------8h10p8-------7h8p7--------------------7-7-0-|
B|15------------11-----------12-----------10---0---5-5-0---------|
G|---------------------------------------------------------------|
D|---------------------------------------------------------------|
A|---------------------------------------------------------------|
E|---------------------------------------------------------------|



Part 12 - Distorted Electric - Guitar 1

e|------------------------------------------------|
B|------------------------------------------------|
G|------------------------------------------------|
D|------------------------------------------------|
A|------------------------------------------------|
E|0h5h8-0h5h8-0h5h8-0h5h8-0h5h8-0h5h8-0h5h8-0h5h8-|

e|------------------------------------------------|
B|------------------------------------------------|
G|------------------------------------------------|
D|------------------------------------------------|
A|------------------------------------------------|
E|0h4h7-0h4h7-0h4h7-0h4h7-0h4h7-0h4h7-0-----------|



Lead 5 - Distorted Electric - Guitar 2

e|0h5h8-0h5h8-0h5h8-0h5h8-0h5h8-0h5h8-0h5h8-0h5h8-|
B|------------------------------------------------|
G|------------------------------------------------|
D|------------------------------------------------|
A|------------------------------------------------|
E|------------------------------------------------|

e|0h4h7-0h4h7-0h4h7-0h4h7-0h4h7-0h4h7-0-----------|
B|------------------------------------------------|
G|------------------------------------------------|
D|------------------------------------------------|
A|------------------------------------------------|
E|------------------------------------------------|



Part 13 - Distorted Electric - Guitar 1

e|--------------------------------------------------------7-7-0-0-|
B|----------------------------------------------0-5-5-0-0---------|
G|----------------------------------------------------------------|
D|10------\-------2---------------9-------------------------------|
A|10------\-------2---------------9-------------------------------|
E|8-------\-------0---------------7-------------------------------|

e|--------------------------------------------------------7-7-0-0-|
B|----------------------------------------------0-5-5-0-0---------|
G|----------------------------------------------------------------|
D|10------\-------2---------------9-------------------------------|
A|10------\-------2---------------9-------------------------------|
E|8-------\-------0---------------7-------------------------------|


e|----------------------------------------------------------------|
B|----------------------------------------------------------------|
G|----------------------------------------------------------------|
D|2---------------------------------------------------------------|
A|2---------------------------------------------------------------|
E|0---------------------------------------------------------------|



Lead 6 - Distorted Electric - Guitar 2

e|----------7-7-0-0|
B|0-5-5-0-0--------|
G|-----------------|
D|-----------------|
A|-----------------|
E|-----------------|



Part 14 - Distorted Electric - Guitar 1

e|---------------------------------------------------------------|
B|---------------------------------------------------------------|
G|---------------------------------------------------------------|
D|-------------------------------------------12------------------|
A|9---7---5---2---9---7---5---2---7---9--12--10-/14--12-/9---7---|
E|7---5---3---0---7---5---3---0---5---7--10-----/12--10-/7---5---|

e|---------------------------------------------------------------|
B|---------------------------------------------------------------|
G|---------------------------------------------------------------|
D|-------------------------------------------12------------------|
A|9---7---5---2---9---7---5---2---7---9--12--10--2---5---9---5---|
E|7---5---3---0---7---5---3---0---5---7--10------0---3---7---3---|



Lead 7 - Distorted Electric - Guitar 2
(Note: Lead 7 requires a 24 fret guitar.)


e|---------------------------------------------------------------------------|
B|---------------------------------------------------------------------------|
G|4b-4b-4b-4b-4b-4b-4b-4b-4b-4b-4b-4b-4b-4b-4b-4b-4b-4r--2---4r--2---4r--2---|
D|---------------------------------------------------------------------------|
A|---------------------------------------------------------------------------|
E|---------------------------------------------------------------------------|

e|---------------------------------------------------------------------------|
B|----------------3-----------------3-----------------3---3-5-5b7r5-3-5-3---3|
G|------------2-4---4~----------2-4---4~----------2-4---4-----------------4--|
D|4~-------------------------------------------------------------------------|
A|---------------------------------------------------------------------------|
E|---------------------------------------------------------------------------|

e|---2---3---5---7~---------------14-17p15p14------------17p15p14------------|
B|-5------------------------/17---------------17p15p14------------17p15p14---|
G|---------------------------------------------------------------------------|
D|---------------------------------------------------------------------------|
A|---------------------------------------------------------------------------|
E|---------------------------------------------------------------------------|

e|17p15p14------------17p15p14---------------------------------------------|
B|---------17p15p14------------17p15p14-----17p15p14------------17p15p14---|
G|---------------------------------------------------16p14p13--------------|
D|-------------------------------------------------------------------------|
A|-------------------------------------------------------------------------|
E|-------------------------------------------------------------------------|

e|------------------------------------------------------------------------|
B|-----------15-14-12-14-12-----------------------------------------------|
G|16p14p13------------------14p13p12---14---16r14---12~-------12~----12---|
D|---------------------------------------------------------14-------------|
A|------------------------------------------------------------------------|
E|------------------------------------------------------------------------|

e|---------------------------------------------------------------------|
B|---------------------------------------------------------------------|
G|------11--------10--------9---------8---------7---------6------------|
D|13---------12--------11--------10--------9---------8---------7\------|
A|---------------------------------------------------------------------|
E|---------------------------------------------------------------------|

e|-----------------------------------------------8-----8--10~----5----6----|
B|-------------------------8-----8--10~----10-10----10-----------8b10-9b11-|
G|----7-----7--9~----9--9-----9--------------------------------------------|
D|/9-----9-----------------------------------------------------------------|
A|-------------------------------------------------------------------------|
E|-------------------------------------------------------------------------|

e|14----------14----------14----------14----------|
B|---12-10-12----12-10-12----12-10-12----12-10-12-|
G|------------------------------------------------|
D|------------------------------------------------|
A|------------------------------------------------|
E|------------------------------------------------|

e|15----------15----------15----------15----------|
B|---13-12-13----13-12-13----13-12-13----13-12-13-|
G|------------------------------------------------|
D|------------------------------------------------|
A|------------------------------------------------|
E|------------------------------------------------|

e|17----------17----------17----------17----------|
B|---15-13-15----15-13-15----15-13-15----15-13-15-|
G|------------------------------------------------|
D|------------------------------------------------|
A|------------------------------------------------|
E|------------------------------------------------|

e|19----------17----------19----------17----------|
B|---17-15-17----17-15-17----17-15-17----17-15\---|
G|------------------------------------------------|
D|------------------------------------------------|
A|------------------------------------------------|
E|------------------------------------------------|

e|14----------14----------14----------14----------|
B|---12-10-12----12-10-12----12-10-12----12-10-12-|
G|------------------------------------------------|
D|------------------------------------------------|
A|------------------------------------------------|
E|------------------------------------------------|

e|15----------15----------15----------15----------|
B|---13-12-13----13-12-13----13-12-13----13-12-13-|
G|------------------------------------------------|
D|------------------------------------------------|
A|------------------------------------------------|
E|------------------------------------------------|

e|17----------17----------17----------17----------|
B|---15-13-15----15-13-15----15-13-15----15-13-15-|
G|------------------------------------------------|
D|------------------------------------------------|
A|------------------------------------------------|
E|------------------------------------------------|

e|19----------17----------19----------17----------|
B|---17-15-17----17-15-17----17-15-17----17-15-17-|
G|------------------------------------------------|
D|------------------------------------------------|
A|------------------------------------------------|
E|------------------------------------------------|

e|24p23p22-23p22p21-22p21p20-21p20p19-20p19p18-19p18p17-18p17p16-17p16p15-|
B|------------------------------------------------------------------------|
G|------------------------------------------------------------------------|
D|------------------------------------------------------------------------|
A|------------------------------------------------------------------------|
E|------------------------------------------------------------------------|

e|16p15p14-15p14p13-14p13p12-13p12p11-12p11p10-11p10p9-10p9p8-9p8p7-------|
B|------------------------------------------------------------------7-----|
G|---------------------------------------------------------------------9--|
D|------------------------------------------------------------------------|
A|------------------------------------------------------------------------|
E|------------------------------------------------------------------------|

e|------|
B|------|
G|7\----|
D|------|
A|------|
E|------|

e|----------------------------------------------------15---17---19---20---|
B|----------10b12----------12-15b17---------15---17-----------------------|
G|----7--7--------------12------------/16---------------------------------|
D|/9----------------/14---------------------------------------------------|
A|------------------------------------------------------------------------|
E|------------------------------------------------------------------------|

e|22b24\-|
B|-------|
G|-------|
D|-------|
A|-------|
E|-------|



Part 15 - Distorted Electric - Guitar 1

  * * * * * * * * * * * * * * * * * * * * * * * * * * * * * * * *
e|----------------------------------------------------------------|
B|----------------------------------------------------------------|
G|----------------------------------------------------------------|
D|----------------------------------------------------------------|
A|2-2-2-2-2-2-2-2-2-2-2-2-2-2-2-2-2-2-2-2-2-2-2-2-2-2-2-2-2-2-2-2-|
E|----------------------------------------------------------------|

  * * * * * * * * * * * * * * * * * * * * * * * * * * * * * * * *
e|----------------------------------------------------------------|
B|----------------------------------------------------------------|
G|----------------------------------------------------------------|
D|----------------------------------------------------------------|
A|2-2-2-2-2-2-2-2-2-2-2-2-2-2-2-2-2-2-2-2-2-2-2-2-2-2-2-2-2-2-2-2-|
E|----------------------------------------------------------------|

  * * * * * * * * * * * * * * * * * * * * * * * * * * * * * * * *
e|----------------------------------------------------------------|
B|----------------------------------------------------------------|
G|----------------------------------------------------------------|
D|----------------------------------------------------------------|
A|----------------------------------------------------------------|
E|0-0-0-0-0-0-0-0-0-0-0-0-0-0-0-0-0-0-0-0-0-0-0-0-0-0-0-0-0-0-0-0-|

  * * * * * * * * * * * * * * * * * * * * * * * * * * * * * * * *
e|----------------------------------------------------------------|
B|----------------------------------------------------------------|
G|----------------------------------------------------------------|
D|----------------------------------------------------------------|
A|----------------------------------------------------------------|
E|0-0-0-0-0-0-0-0-0-0-0-0-0-0-0-0-0-0-0-0-0-0-0-0-0-0-0-0-0-0-0-0-|

  * * * * * * * * * * * * * * * * * * * * * * * * * * * * * * * *
e|----------------------------------------------------------------|
B|----------------------------------------------------------------|
G|----------------------------------------------------------------|
D|----------------------------------------------------------------|
A|0-0-0-0-0-0-0-0-0-0-0-0-0-0-0-0-0-0-0-0-0-0-0-0-1-1-1-1-2-2-2-2-|
E|----------------------------------------------------------------|

  * * * * * * * * * * * * * * * * * * * * * * * * * * * * * * * *
e|----------------------------------------------------------------|
B|----------------------------------------------------------------|
G|----------------------------------------------------------------|
D|----------------------------------------------------------------|
A|2-2-2-2-2-2-2-2-2-2-2-2-2-2-2-2---------------------------------|
E|--------------------------------3-3-3-3-3-3-3-3-3-3-3-3-3-3-3-3-|

  * * * * * * * * * * * * * * * * * * * * * * * * * * * * * * * *
e|----------------------------------------------------------------|
B|----------------------------------------------------------------|
G|----------------------------------------------------------------|
D|----------------------------------------------------------------|
A|0-0-0-0-0-0-0-0-0-0-0-0-0-0-0-0---------------------------------|
E|--------------------------------2-2-2-2-2-2-2-2-2-2-2-2-2-2-2-2-|

  * * * * * * * * * * * * * * * * * * * * * * * * * * * * * * * *
e|----------------------------------------------------------------|
B|----------------------------------------------------------------|
G|----------------------------------------------------------------|
D|----------------------------------------------------------------|
A|2-2-2-2-2-2-2-2-2-2-2-2-2-2-2-2---------------------------------|
E|--------------------------------3-3-3-3-3-3-3-3-3-3-3-3-3-3-3-3-|

  * * * * * * * * * * * * * * * * * * * * * * * * * * * * * * * *
e|----------------------------------------------------------------|
B|----------------------------------------------------------------|
G|----------------------------------------------------------------|
D|----------------------------------------------------------------|
A|0-0-0-0-0-0-0-0-0-0-0-0-0-0-0-0---------------------------------|
E|--------------------------------2-2-2-2-2-2-2-2-2-2-2-2-2-2-2-2-|

  * * * * * * * * * * * * * * * * * * * * * * * * * * * * * * * *
e|----------------------------------------------------------------|
B|----------------------------------------------------------------|
G|----------------------------------------------------------------|
D|----------------------------------------------------------------|
A|----------------------------------------------------------------|
E|0-0-0-0-0-0-0-0-0-0-0-0-0-0-0-0-0-0-0-0-0-0-0-0-0-0-0-0-0-0-0-0-|

  * * * * * * * * * * * * * * * * * * * * * * * * * * * * * * * *
e|----------------------------------------------------------------|
B|----------------------------------------------------------------|
G|----------------------------------------------------------------|
D|----------------------------------------------------------------|
A|----------------------------------------------------------------|
E|0-0-0-0-0-0-0-0-0-0-0-0-0-0-0-0-0-0-0-0-0-0-0-0-0-0-0-0-0-0-0-0-|



Part 16 - Distorted Electric - Guitar 1

e|----------------------------------------------------------------|
B|----------------------------------------------------------------|
G|----------------------------------------------------------------|
D|10------\-------2---------------9-------\-------2---------------|
A|10------\-------2---------------9-------\-------2---------------|
E|8-------\-------0---------------7-------\-------0---------------|

                                                  * * * * * * * *
e|----------------------------------------------------------------|
B|----------------------------------------------------------------|
G|----------------------------------------------------------------|
D|10------\-------2---------------9-------\-----------------------|
A|10------\-------2---------------9-------\-----------------------|
E|8-------\-------0---------------7-------\-------3-2-1-0-3-2-1-0-|

                                                  * * * * * * * *
e|----------------------------------------------------------------|
B|----------------------------------------------------------------|
G|----------------------------------------------------------------|
D|10------\-------2---------------9-------\-----------------------|
A|10------\-------2---------------9-------\-----------------------|
E|8-------\-------0---------------7-------\-------3-2-1-0-3-2-1-0-|



Part 17 - Distorted Electric - Guitar 1

e|----------------------------------------------------------------|
B|----------------------------------------------------------------|
G|----------------------------------------------------------------|
D|--------10--9---------------------------10--9-------------------|
A|10--9---8---7---5---4---2-------10--9---8---7---5---4---2-------|
E|8---7-----------3---2---0-------8---7-----------3---2---0-------|

                      * * * * * *                     * * * * * *
e|----------------------------------------------------------------|
B|----------------------------------------------------------------|
G|----------------------------------------------------------------|
D|7-------------------------------7-------------------------------|
A|5---------4---------5-4-3-5-4-3-5---------4---------5-4-3-5-4-3-|
E|----------2---------5-4-3-5-4-3-----------2---------5-4-3-5-4-3-|

e|--------------------------------|
B|--------------------------------|
G|--------------------------------|
D|--------10--9-------------------|
A|10--9---8---7---5---4---2-------|
E|8---7-----------3---2---0-------|



Part 18 - Distorted Electric - Guitar 1

e|------------------------------------------------|
B|------------------------------------------------|
G|------------------------------------------------|
D|------------------------------------------------|
A|------------------------------------------------|
E|0h5h8-0h5h8-0h5h8-0h5h8-0h5h8-0h5h8-0h5h8-0h5h8-|

e|------------------------------------------------|
B|------------------------------------------------|
G|------------------------------------------------|
D|---------------------------3--3--3--3--3--2-----|
A|---------------------------3--3--3--3--3--2-----|
E|0h4h7-0h4h7-0h4h7-0h4h7----1--1--1--1--1--0-----|



Lead 8 - Distorted Electric - Guitar 2

e|0h5h8-0h5h8-0h5h8-0h5h8-0h5h8-0h5h8-0h5h8-0h5h8-|
B|------------------------------------------------|
G|------------------------------------------------|
D|------------------------------------------------|
A|------------------------------------------------|
E|------------------------------------------------|

e|0h4h7-0h4h7-0h4h7-0h4h7-------------------------|
B|------------------------------------------------|
G|---------------------------10-10-10-10-10-9-----|
D|---------------------------10-10-10-10-10-9-----|
A|---------------------------8--8--8--8--8--7-----|
E|------------------------------------------------|



| b  bend string
| r  return bend
| /  slide up
| \  slide down
| h  hammer-on
| p  pull-off
| ~  vibrato
| +  harmonic
| *  palm mute
| () ghost note


All Nightmare Long

Intro
clean
e|------------------------------|
b|------------------------------|
g|------------------------------|x4
d|----0--5-6-5-----0-5-------5--|
a|-----------------------------6|
D|-0------------0------3--0-----|

distorted
|--------------|
|--------------|
|--------------|x2 
|--------------|
|-0----6-5--0-0|
|-0----6-5--0-0|
            + +

|---------------------------------------------------------------|
|---------------------------------------------------------------|
|---------------------------------------------------------------|
|---------------------------------------------------------------|
|-0----6-5--0-0-0-------0----6-5--0-0--0---0-0--0---6-5--0---6-5|
|-0----6-5--0-0-0-------0----6-5--0-0--0---0-0--0---6-5--0---6-5|
            + + +                 + +  

|--------------------------------------|
|--------------------------------------|
|--------------------------------------|
|--------------------------------------|
|--------------------------------------|
|000000000000000000000000002^2^3^3^4^4^|
 ++++++++++++++++++++++++++            

|-------------------------------|
|-------------------------------|
|-------------------------------|
|-------------------------------|x4
|-------------------------------|
|-000-0-0-0-0-0-0-0-0-0-0-0-0-0-|
  +++ + + + + + + + + + + + + +

Post-Chorus
|----------------------------|    |--------------------|
|----------------------------|    |--------------------|
|----------------------------|x7  |--------------------|
|----------------------------|    |--------------------|
|-----------1-1---1-1--------|    |-----------1-1---1-1|
|-000-0-0-0-1-1-0-1-1-222-333|    |-000-0-0-0-1-1-0-1-1|
  +++ + + +     +     +++ +++       +++ + + +     + 

|--------------------|
|--------------------|
|--------------------|
|--------------------|
|--2h0--3h0--2h0--3h0|
|--2h0--3h0--2h0--3h0|

Pre-Chorus+Pre-verse part 1
|------------------------------------------------------------|
|------------------------------------------------------------|
|------------------------------------------------------------|x2 1st time
|---------------------------------------------7-7-7-5-5-/1010|x1 2nd time
|-0--0-3-000000--0--0-3-000000--0--0-3-000000-5-5-5-3-3-/8-8-|
|-0--0-3-000000--0--0-3-000000--0--0-3-000000----------------|
         ++++++         ++++++         ++++++
      
Pre-chorus+Pre-verse part 2     play only on 1st time 
|----------------------------|-------------------|
|----------------------------|-------------------|
|----------------------------|-------------------|
|-2---3---5--6--7-777-777-777|-771010101010101010|
|-0---1---3--4--5-555-555-555|-558-8-8-8-8-8-8-8-|
|----------------------------|-------------------|
                + +++ +++ +++  +++

Verse
|-----------------------------------------------------------|
|-----------------------------------------------------------|
|-----------------------------------------------------------|
|-----------------------------------------------------------|
|-10tr-8tr-7tr-5tr-2tr-----------------2--------------------|
|----------------------3333-2tr--2-3-5---5-3-3h5p3\2tr------|
                                 + + +   + + +     +

|-------------------------------------------------------------|
|-------------------------------------------------------------|
|-------------------------------------------------------------|
|---------------------4---------5---------4---------5---------|
|-------2-------------2let ring-3let ring-2let ring-3let ring-|
|-2-3-5---5-3-3h5p3\2-----------------------------------------|
  + + +   + + +
|-------------------------------------------------------------------------|
|-------------------------------------------------------------------------|
|-------------------------------------------------------------------------|
|-4--------4--------4--------4--------44-------444------444------444------|
|-2--2--3--2--2--3--2--2--3--2--2--3--222222333222222333222222333222222333|
|----2--3-----2--3-----2--3-----2--3-----222333---222333---222333---222333|
                                      ++++++++++++++++++++++++++++++++++++
Chorus
|----------------------------------------------------------------|
|----------------------------------------------------------------|
|----------------------------------------------------------------|x4
|------1010-9-9\7------1010-9-9\7------1010-9-9\7----------------|
|-0-0--8-8--7-7\5-0-0--8-8--7-7\5-0-0--8-8--7-7\5-5-5-5-3-3-3-3\2|
|-0-0-------------0-0-------------0-0-------------5-5-5-3-3-3-3\2|

|-------|
|-------|
|-------|
|-1-1-1-|
|-1-1-1-|
|-1-1-1-|

Interlude 1                                repeat section x8
|-------------------------------------|------------------------------|
|-------------------------------------|------------------------------|
|-------------------------------------|------------------------------|
|-------------------------------------|---0-8-7--0-7-3--0-3-2--0-2-0-|
|-2h0003h0002h0003h000-0----2h0003h000|------------------------------|
|-2h0003h0002h0003h000-0----2h0003h000|-0----------------------------|
  ++++++++++++++++++++      ++++++++++    

Solo 1-don't know it: any suggestions?

Interlude 2
                    Repeat x2
|------------------------------|                                 
|------------------------------|                                 
|------------------------------|
|-7-8-7-----7-8-7--------------|
|-------8---------8-5----------|
|-0-0-0-0-0-0-0-0-0-0-0-0-0-0-0|
          +           + + + + +
|----------------------------------------|
|----------------------------------------|
|----------------------------------------|repeat whole Interlude x2
|-7-8-7----7--7-8-7-7---7--7-7----7------|
|-------8----------------------8----8-8-5|
|-0-0-0-0--0--0-0-0-0---0--0-0-0--0-0-0-0|

Pre-solo
|---------------------------------------------------------------|
|---------------------------------------------------------------|
|---------------------------------------------------------------|
|---------------------------------------------------------------|
|---------------------------------------------------------------|
|-00000000000000000000000000000000222222222222222222222222222222| 
  ++++++++++++++++++++++++++++++++++++++++++++++++++++++++++++++    

Solo 2-don’t know it either; sorry


Bridge                          repeat this section x3
|---------------------|---------------------------------------|
|---------------------|---------------------------------------|
|---------------------|---------------------------------------|
|---------------------|-----------------------10-9--8--7--8--9|
|---------------------|-----------------------8--7--6--5--6--7|
|-00000000000000000000|0000000000000000000000-----------------|
  +++++++++++++++++++++++++++++++++++++++++++

                                  repeat this section x6 (don’t last note on 
|-----------------------------|------------------| sixth repeat
|-----------------------------|------------------|
|-----------------------------|------------------|
|-7--6--5--4--5---------------|-------------3-2-1|
|-5--4--3--2--3---------------|-------------3-2-1|
|---------------00000000000000|00000000000003-2-1| 
                ++++++++++++++++++++++++++++

Outro-first repeat clean part of intro with distortion and wah, then this
|----------------------------------------|
|----------------------------------------|
|----------------------------------------|x4
|----------------------------------------|
|-2h0-3h0-2h0-3h0-0-0-2h0-3h0-2h0-3h0-0-0|
|-2h0-3h0-2h0-3h0-0-0-2h0-3h0-2h0-3h0-0-0|

|--------------|
|--------------|
|--------------|
|-----------5--|x4
|-0--0-3------6|
|-0--0-3--0----|

|--------------------------|
|--------------------------|
|--------------------------|
|---0-5-6-5let-ring---0-5-0|
|-------------------------0|
|-0-----------------0-----0|

Order of song:
1.Intro
2.Post-chorus
3.Pre-chorus+pre-verse parts 1 and 2
4.Verse
5.Pre-chorus part 2
6.Pre-chorus part 1
7.Pre-chorus part 2
8.Chorus
9.Post-chorus
10.Pre-verse parts 1 and 2
11.Pre-chorus part 2
12.Pre-chorus part 1
13.Pre-chorus part 2
14.Interlude 1
15.Solo 1-don’t know, sorry
16.Interlude 2
17.Solo 2- dont know either
18.Bridge
19.Chorus
20.Pre-verse part 1
21.Outro

Cyanide

Guitar 1

       The PMd 0s aint really there but I dont have a wah
                                                                PM PM    PM PM
       E                                                  E  E  S  S  E  S  S  E
D#||-----------------------------------------------------------------------------|
A#||-----------------------------------------------------------------------------|
F#||*----------------------------------------------------------------------------|
C#||*-----------------------------------------------------------------3--------3-|
G#||---2--------------------------------------------------2--2--------1--------1-|
D#||---0--------------------------------------------------0--0--0--0-----0--0----|


                PM PM PM PM PM PM
  Q    E  E  E  S  S  S  S  S  S   3x  Q    E  E  E  E  H
-----------------------------------||----------------------------|
-----------------------------------||----------------------------|
----------------------------------*||----------------------------|
--3-------------------------------*||--3-------------------------|
--1----2--2--2---------------------||--1----2--2--2--------------|
-------0--0--0--0--0--0--0--0--0---||-------0--0--0--------------|


  Bass line
  W                   W                   W                   W
-------------------|-------------------|-------------------|-------------------|
-------------------|-------------------|-------------------|-------------------|
-------------------|-------------------|-------------------|-------------------|
-------------------|-------------------|-------------------|-------------------|
-------------------|-------------------|-------------------|-------------------|
-------------------|-------------------|-------------------|-------------------|


                                      PM       PM PM
    E  E  E  E  E  E  E  E      E  E  E  E  E  S  S  Q     4x
|---------------------------|------------------------------||
|---------------------------|------------------------------||
|*--------------------------|-----------------------------*||
|*--9--9--9--8--8--8--7-----|-----------------------------*||
|---7--7--7--7--7--7--7--7--|--10--7-----5--7--------7-----||
|---0--0--0--0--0--0--0--0--|---0--0--0--0--0--0--0--0-----||


   uhm.. maybe double the 0s and a quick Db before Eb
   E                                                  S S E  E  E  S S E  E   4x
------------------------------------------------------------------------------||
------------------------------------------------------------------------------||
*----------------------------------------------------------------------------*||
*----------------------------------------------------------------------------*||
----------------------------------------------------------7--5---------7--5---||
---0--------------------------------------------------L-0-------0--L-0--------||


                                     PM       PM PM
   E  E  E  E  E  E  E  E      E  E  E  E  E  S  S  Q     4x
---------------------------|------------------------------||
---------------------------|------------------------------||
*--------------------------|-----------------------------*||
*--9--9--9--8--8--8--7-----|-----------------------------*||
---7--7--7--7--7--7--7--7--|--10--7-----5--7--------7-----||
---0--0--0--0--0--0--0--0--|---0--0--0--0--0--0--0--0-----||


   S S S S S S S S S S S S S S S S
------------------------------------||
------------------------------------||
*----------------------------------*||
*--5-5-5-5-5-5-5-5-5-5-5-5-5-5-5-5-*||
---7-7-7-7-7-7-7-7-7-7-7-7-7-7-7-7--||
------------------------------------||


  S                                                  S S S S S S S S S S S S S S
---------------------------------------------------------------------------------|
---------------------------------------------------------------------------------|
--8--------------------------------------------------8-8-8-8-8-8-8-8-8-8-8-8-8-8-|
---------------------------------------------------------------------------------|
--9--------------------------------------------------9-9-9-9-9-9-9-9-9-9-9-9-9-9-|
---------------------------------------------------------------------------------|


  E  E  E  E  E  E  E  E       E  S S E  E  E  S S E  E
--------------------------||------------------------------||
--------------------------||------------------------------||
--------------------------||*----------------------------*||
--------------7-----7-----||*----------------------------*||
--9-----9-----5-----5-----||----------7--5---------7--5---||
--7-----7-----------------||---0--L-0-------0--L-0--------||


   S S S S S S S S S S S S S S S S      S S S S S S S S S S S S S S S S
------------------------------------||----------------------------------|
------------------------------------||----------------------------------|
*----------------------------------*||--8-8-8-8-8-8-8-8-8-8-8-8-8-8-8-8-|
*--5-5-5-5-5-5-5-5-5-5-5-5-5-5-5-5-*||----------------------------------|
---7-7-7-7-7-7-7-7-7-7-7-7-7-7-7-7--||--9-9-9-9-9-9-9-9-9-9-9-9-9-9-9-9-|
------------------------------------||----------------------------------|


   E  E   E  E   E  E   E  E      E  S S E  E  E  S S E  E
-------------------------------|----------------------------|
-------------------------------|----------------------------|
--12-----12-----11-----11--L\--|----------------------------|
-------------------------------|----------------------------|
-------------------------------|---------7--5---------7--5--|
-------------------------------|--0--L-0-------0--L-0-------|


  E                                     S S E  E  S S S S S S S S
------------------------------------------------------------------|
------------------------------------------------------------------|
------------------------------------------------------------------|
--------------------------------------------------9-9-9-9-9-9-9-9-|
--------------------------------------------7--5--9-9-9-9-9-9-9-9-|
--0-------------------------------------L-0-----------------------|


                                    PM PM PM PM PM PM PM
  S S S S S S S S E  E  E  E     E  E  E  E  E  E  E  E
------------------------------|--------------------------|
------------------------------|--------------------------|
------------------------------|--------------------------|
--8-8-8-8-8-8-8-8-------------|--------------------------|
--9-9-9-9-9-9-9-9-9--9--9--9--|--2-----------------------|
------------------0--0--0--0--|--0--0--0--0--0--0--0--0--|


  PM PM PM PM PM PM             PM PM PM
  E  E  E  E  E  E  E  E     E  E  E  E  E  E  E    E
--------------------------|----------------------------|
--------------------------|----------------------------|
--------------------------|----------------------------|
--------------------------|----------------------------|
--------------------1-----|--2-----------1--2--1br-----|
--0--0--0--0--0--0-----3--|--0--0--0--0-------------3--|


     PM PM PM                                    PM PM PM PM PM PM PM
  E  E  E  E  E  E  E  E       E  E  E  E     E  E  E  E  E  E  E  E  E  E
----------------------------|--------------|--------------------------------|
----------------------------|--------------|--------------------------------|
----------------------------|--------------|--------------------------------|
----------------------------|--------------|--------------------------------|
--2-----------1--2--4--4br--|--4--2--1-----|--2-----------------------1-----|
--0--0--0--0----------------|-----------3--|--0--0--0--0--0--0--0--0-----3--|


     PM PM PM                     PM PM PM
  E  E  E  E  E  E  E    E     E  E  E  E  E  E  E  E       E  E  E  E
----------------------------|----------------------------|--------------|
----------------------------|----------------------------|--------------|
----------------------------|----------------------------|--------------|
----------------------------|----------------------------|--------------|
--2-----------1--2--1br-----|--2-----------1--2--4--4br--|--4--2--1-----|
--0--0--0--0-------------3--|--0--0--0--0----------------|-----------3--|


           PM PM    PM PM    PM PM
  E  E  E  S  S  E  S  S  E  S  S     Q    E  E  E  E  Q
-----------------------------------|------------------------|
-----------------------------------|------------------------|
-----------------------------------|------------------------|
-----------------3--------3--------|--3---------------------|
--2--2--2--------1--------1--------|--1----2--2--2----------|
--0--0--0--0--0-----0--0-----0--0--|-------0--0--0----------|


  Bass Line
  W                     E  E  E  E  E  E  E  E
-------------------||---------------------------|
-------------------||---------------------------|
-------------------||*--------------------------|
-------------------||*--9--9--9--8--8--8--7-----|
-------------------||---7--7--7--7--7--7--7--7--|
-------------------||---0--0--0--0--0--0--0--0--|


         PM       PM PM
   E  E  E  E  E  S  S  Q     4x   E  S S E  E  E  S S E  E   4x
------------------------------||------------------------------||
------------------------------||------------------------------||
-----------------------------*||*----------------------------*||
-----------------------------*||*----------------------------*||
--10--7-----5--7--------7-----||----------7--5---------7--5---||
---0--0--0--0--0--0--0--0-----||---0--L-0-------0--L-0--------||


                                     PM       PM PM
   E  E  E  E  E  E  E  E      E  E  E  E  E  S  S  Q     4x
---------------------------|------------------------------||
---------------------------|------------------------------||
*--------------------------|-----------------------------*||
*--9--9--9--8--8--8--7-----|-----------------------------*||
---7--7--7--7--7--7--7--7--|--10--7-----5--7--------7-----||
---0--0--0--0--0--0--0--0--|---0--0--0--0--0--0--0--0-----||


   S S S S S S S S S S S S S S S S      S S S S S S S S S S S S S S S S
------------------------------------||----------------------------------|
------------------------------------||----------------------------------|
*----------------------------------*||--8-8-8-8-8-8-8-8-8-8-8-8-8-8-8-8-|
*--5-5-5-5-5-5-5-5-5-5-5-5-5-5-5-5-*||----------------------------------|
---7-7-7-7-7-7-7-7-7-7-7-7-7-7-7-7--||--9-9-9-9-9-9-9-9-9-9-9-9-9-9-9-9-|
------------------------------------||----------------------------------|


  E  E  E  E  E  E  E  E       E  S S E  E  E  S S E  E
--------------------------||------------------------------||
--------------------------||------------------------------||
--------------------------||*----------------------------*||
--------------7-----7-----||*----------------------------*||
--9-----9-----5-----5-----||----------7--5---------7--5---||
--7-----7-----------------||---0--L-0-------0--L-0--------||


   S S S S S S S S S S S S S S S S      S S S S S S S S S S S S S S S S
------------------------------------||----------------------------------|
------------------------------------||----------------------------------|
*----------------------------------*||--8-8-8-8-8-8-8-8-8-8-8-8-8-8-8-8-|
*--5-5-5-5-5-5-5-5-5-5-5-5-5-5-5-5-*||----------------------------------|
---7-7-7-7-7-7-7-7-7-7-7-7-7-7-7-7--||--9-9-9-9-9-9-9-9-9-9-9-9-9-9-9-9-|
------------------------------------||----------------------------------|


   E  E   E  E   E  E   E  E
-------------------------------|
-------------------------------|
--12-----12-----11-----11--L\--|
-------------------------------|
-------------------------------|
-------------------------------|


  uhmmm maybe someone made a mistake here =P!
  E                                           S S E  E  E  S S E  E
---------------------------------------------------------------------|
---------------------------------------------------------------------|
---------------------------------------------------------------------|
-----------------------------------------------------5---------------|
--------------------------------------------------7------------7--5--|
--0-------------------------------------------L-0-------0--L-0-------|


  E  S S E  E  S S S S S S S S    S S S S S S S S  E   E   E   E
-------------------------------|----------------------------------|
-------------------------------|----------------------------------|
-------------------------------|----------------------------------|
---------------9-9-9-9-9-9-9-9-|--8-8-8-8-8-8-8-8-----------------|
---------7--5--9-9-9-9-9-9-9-9-|--9-9-9-9-9-9-9-9-10--10--10--10--|
--0--L-0-----------------------|-------------------0---0---0---0--|


     PM PM PM PM PM PM PM    PM PM PM PM PM PM
  E  E  E  E  E  E  E  E     E  E  E  E  E  E  E  E
--------------------------|--------------------------|
--------------------------|--------------------------|
--------------------------|--------------------------|
--------------------------|--------------------------|
--2-----------------------|--------------------1-----|
--0--0--0--0--0--0--0--0--|--0--0--0--0--0--0-----3--|


     PM PM PM                     PM PM PM
  E  E  E  E  E  E  E    E     E  E  E  E  E  E  E  E       E  E  E  E
----------------------------|----------------------------|--------------|
----------------------------|----------------------------|--------------|
----------------------------|----------------------------|--------------|
----------------------------|----------------------------|--------------|
--2-----------1--2--1br-----|--2-----------1--2--4--4br--|--4--2--1-----|
--0--0--0--0-------------3--|--0--0--0--0----------------|-----------3--|


     PM PM PM PM PM PM PM             PM PM PM
  E  E  E  E  E  E  E  E  E  E     E  E  E  E  E  E  E    E
--------------------------------|----------------------------|
--------------------------------|----------------------------|
--------------------------------|----------------------------|
--------------------------------|----------------------------|
--2-----------------------1-----|--2-----------1--2--1br-----|
--0--0--0--0--0--0--0--0-----3--|--0--0--0--0-------------3--|


     PM PM PM                                          PM PM    PM PM    PM PM
  E  E  E  E  E  E  E  E       E  E  E  E     E  E  E  S  S  E  S  S  E  S  S
----------------------------|--------------|-----------------------------------|
----------------------------|--------------|-----------------------------------|
----------------------------|--------------|-----------------------------------|
----------------------------|--------------|-----------------3--------3--------|
--2-----------1--2--4--4br--|--4--2--1-----|--2--2--2--------1--------1--------|
--0--0--0--0----------------|-----------3--|--0--0--0--0--0-----0--0-----0--0--|


                   hmm this sounds an octave lower...
  Q    E  E  E  E  E                                  S S
----------------------------------------------------------|
----------------------------------------------------------|
----------------------------------------------------------|
--3-------------------------------------------------------|
--1----2--2--2-----7------------------------------------7-|
-------0--0--0-----0------------------------------------0-|


  E    E  E  E  E  S S S S E     E  S S S S E  E  E  E  S S
------------------------------|-----------------------------|
------------------------------|-----------------------------|
------------------------------|-----------------------------|
------------------------------|-----------------------------|
--7br--L--5--7-----7-7-1-1-1--|-----5-5-5-5-5--5-----7----7-|
--0----0--0--0-----0-0-0-0-0--|-----0-0-0-0-0--0-----0----0-|


  E    E  E  E  E  S S S S E     E  S S S S E     E  E  E  E  S S E  S S E
------------------------------|----------------|----------------------------|
------------------------------|----------------|----------------------------|
------------------------------|----------------|----------------------------|
------------------------------|----------------|----------------------------|
--7br--L--5--7-----7-7-1-1-1--|-----5-5-5-5-5--|--4--4--4--4--4-4-5--5-5-4--|
--0----0--0--0-----0-0-0-0-0--|-----0-0-0-0-0--|--2--2--2--2--2-2-3--3-3-2--|


                                           tr
  H         Q       E  E  E  E  S S E  S S E        E  E  H
-----------------|-------------------------------|------------------|
-----------------|-------------------------------|------------------|
-----------------|-------------------------------|--------6~--------|
-----------------|-------------------------4(5)--|--L--4------------|
--4~--------L----|--4--4--4--4--4-4-5--5-5-------|------------------|
-----------------|--2--2--2--2--2-2-3--3-3-------|------------------|


                         tr
  E  E  E  E  S S E  S S E        H         Q
-------------------------------|-----------------|
-------------------------------|-----------------|
-------------------------------|-----------------|
-------------------------4(5)--|-----------------|
--4--4--4--4--4-4-5--5-5-------|--4~--------L----|
--2--2--2--2--2-2-3--3-3-------|-----------------|


                         tr
  E  E  E  E  S S E  S S E        E  E  H
-------------------------------|------------------|
-------------------------------|------------------|
-------------------------------|--------6~--------|
-------------------------4(5)--|--L--4------------|
--4--4--4--4--4-4-5--5-5-------|------------------|
--2--2--2--2--2-2-3--3-3-------|------------------|


    Clean                         Distorted
                                                                tr
    E     E  E  Q    Q    E   8x  E         E  E  E  S S E  S S E
|-----------------------------||--------------------------------------|
|-----------------------------||--------------------------------------|
|*---------------------------*||--------------------------------------|
|*-----------4-------5----L--*||--------------------------------4(5)--|
|---------4-------------------||--4---------4--4--4--4-4-5--5-5-------|
|---2-----------0-------------||--2---------2--2--2--2-2-3--3-3-------|


                                           tr
  H         Q       E  E  E  E  S S E  S S E        E  E  H
-----------------|-------------------------------|------------------|
-----------------|-------------------------------|------------------|
-----------------|-------------------------------|--------6~--------|
-----------------|-------------------------4(5)--|--L--4------------|
--4~--------L----|--4--4--4--4--4-4-5--5-5-------|------------------|
-----------------|--2--2--2--2--2-2-3--3-3-------|------------------|


                         tr
  E  E  E  E  S S E  S S E        H         Q
-------------------------------|-----------------|
-------------------------------|-----------------|
-------------------------------|-----------------|
-------------------------4(5)--|-----------------|
--4--4--4--4--4-4-5--5-5-------|--4~--------L----|
--2--2--2--2--2-2-3--3-3-------|-----------------|


                         tr
  E  E  E  E  S S E  S S E        E  E  H
-------------------------------|------------------|
-------------------------------|------------------|
-------------------------------|--------6~--------|
-------------------------4(5)--|--L--4------------|
--4--4--4--4--4-4-5--5-5-------|------------------|
--2--2--2--2--2-2-3--3-3-------|------------------|


    Clean
    E     E  E  Q    Q    E   8x
|-----------------------------||
|-----------------------------||
|*---------------------------*||
|*-----------4-------5----L--*||
|---------4-------------------||
|---2-----------0-------------||


   Distorted, w/Wah
   <
   E                E    E    E   E  Q      E
-------------------------------------------------|
-------------------------------------------------|
--11~--------------11~--11~--11~-----------------|
-------------------------------------9br----Lbr--|
-------------------------------------------------|
-------------------------------------------------|


  Timing is really fucked up in this part... sorry!
  E                                                 E  H
-----------------------------------------------------------------|
-----------------------------------------------------------------|
-----------------------------------------------------------------|
--L-------------------------------------------------7------------|
-------------------------------------------------------9~--------|
-----------------------------------------------------------------|


   <
   E    E    E    E   E  Q      E       E  H         E
-------------------------------------|------------------|
-------------------------------------|------------------|
--11~--11~--11~--11~-----9br----Lbr--|--L---------------|
-------------------------------------|-----7~-----------|
-------------------------------------|------------------|
-------------------------------------|------------------|


   Distorted, w/Wah
   <
   E                E    E    E   E  Q      E       E  E  H
-------------------------------------------------|------------------|
-------------------------------------------------|------------------|
--11~--------------11~--11~--11~-----------------|------------------|
-------------------------------------9br----Lbr--|--L--7------------|
-------------------------------------------------|--------9~--------|
-------------------------------------------------|------------------|


   <
   E    E    E    E   E  Q      E       E  H         E
-------------------------------------|------------------|
-------------------------------------|------------------|
--11~--11~--11~--11~-----9br----Lbr--|--L---------------|
-------------------------------------|-----7~-----------|
-------------------------------------|------------------|
-------------------------------------|------------------|


   E                                           E   E   E  S  E   Q    S
------------------------------------------------------------------------|
------------------------------------------------------------10--12----L-|
--11------------------------------------------11--11--11----------------|
------------------------------------------------------------------------|
------------------------------------------------------------------------|
------------------------------------------------------------------------|


   Q       Q       Q         Q.       Q.
---9-------9-------9------|------------------|
--12br----12br----12br----|--9b--------------|
--------------------------|----------11------|
--------------------------|------------------|
--------------------------|------------------|
--------------------------|------------------|


   |------3-----|  |---3--|
   S  S  E   S  S  S  S   S  S  S  T   T   T   T  E   E   E
--14-15-17--15-14----15p-14----------------------------------|
------------------17--------17-15-14h-15p-14h-15-------------|
-----------------------------------------------------14--16--|
-------------------------------------------------16----------|
-------------------------------------------------------------|
-------------------------------------------------------------|


   Did I mention that timing sucks?
                                   W
                                                  |---3---|
   E                               Q    E   S  S  S   S   S  S  S  S  S
---------------------------------------------------------------------14-|
-------------------------------------------14-15-17p-15p-14----14-15----|
--16b------------------------------L------------------------16----------|
------------------------------------------------------------------------|
------------------------------------------------------------------------|
------------------------------------------------------------------------|


      |---3---|
   S  S   S   S  S  S  S  E   E   E   Q
--15-14h-15p-14----14-18-19--18--15--14br----|
----------------17---------------------------|
---------------------------------------------|
---------------------------------------------|
---------------------------------------------|
---------------------------------------------|


  Notes ain't wrong, the timing is reaaaaally wrong!
                                                               |--3--|
  S                                                   S   S  S S   S S  S S  S
-----------------------------------------------------12p-10----9h-10-9----9-----|
------------------------------------------------------------12---------12---12p-|
--------------------------------------------------------------------------------|
--------------------------------------------------------------------------------|
--------------------------------------------------------------------------------|
--------------------------------------------------------------------------------|


                                     w/Wah
   |-----3----|
   E   E      E   Q     H            E    E   E   E   E   S    S  E   E
---------------------------------|--12b---9--12b--9--12b--Lpbr-9-11--12b--|
--12b--Lpbr--10------------------|----------------------------------------|
-----------------11~----L--------|----------------------------------------|
---------------------------------|----------------------------------------|
---------------------------------|----------------------------------------|
---------------------------------|----------------------------------------|


  E  S  S  S   S   S  S  S   S   S  S  E   S    S
--L--9-12-12b-12pb-9-12-12b-12pb-9-12-12b--Lpbr-9-|
--------------------------------------------------|
--------------------------------------------------|
--------------------------------------------------|
--------------------------------------------------|
--------------------------------------------------|


   E   E      E    E      E    E      E   E
--17b--Lpbr--17b---Lpbr--17b---Lpbr--17-------|
-----------------------------------------17b--|
----------------------------------------------|
----------------------------------------------|
----------------------------------------------|
----------------------------------------------|


                                                |---3--|  |---3--|
  S  S     S  S  S     S   S  S   S  S   S  S   S   S  S  S  S   S
-------------------------------------------------------------------|
--L--Lpbr-14-17b-Lpbr-17p-14-----14-17p-14-17b-17p-14----14-17p-14-|
-----------------------------16b----------------------16-----------|
-------------------------------------------------------------------|
-------------------------------------------------------------------|
-------------------------------------------------------------------|


   |--3--|   |--3--|  |---3--|  |---3--|  |--3--|   |--3--|
   S  S  S   S  S  S  S   S  S  S  S   S  S  S  S   S  S  S  S   S  S   S
--------------------------------------------------------------------------|
-----14-17p-14----14-17p-14----14-17p-14----14-17p-14----14-17p-14-16p-14-|
--16-----------16-----------16-----------16-----------16------------------|
--------------------------------------------------------------------------|
--------------------------------------------------------------------------|
--------------------------------------------------------------------------|


                                       |--3--|  |--3--|
   S  S  S  S  S  S  S  S  S  S  S  S  S  S  S  S  S  S
--------------------------------------------------------|
-----14----------------------------------14-17----14-17-|
--17----16-14-16-14----14-16-14----14-16-------16-------|
--------------------16----------16----------------------|
--------------------------------------------------------|
--------------------------------------------------------|


   Finally! Shitty solo witch I couldn't tab is over!
   S                                                  Q      S   S  S   S  Q
--------------------------------------------------------------------------------|
--14-------------------------------------------------17b----17p-14-17p-14-------|
--------------------------------------------------------------------------16b---|
--------------------------------------------------------------------------------|
--------------------------------------------------------------------------------|
--------------------------------------------------------------------------------|


  S S S S S S S S S S S S S S S S    S S S S S S S S S S S S S S S S
----------------------------------|----------------------------------|
----------------------------------|----------------------------------|
----------------------------------|----------------------------------|
--4-4-4-4-4-4-4-4-7-7-6-6-4-4-4-4-|--4-4---------4-4-7-7-6-6-4-4-4-4-|
----------------------------------|------4-4-4-4---------------------|
----------------------------------|----------------------------------|


  S S S S S S S S S S S S S S S S    S S S S S S S S S S S S S S S S
----------------------------------|----------------------------------|
----------------------------------|----------------------------------|
----------------------------------|----------------------------------|
--4-4-------------7-7-6-6-4-4-4-4-|--4-4-------------7-7-6-6-4-4-4-4-|
------5-5-5-5-4-4-----------------|------6-6-6-6-4-4-----------------|
----------------------------------|----------------------------------|


  S  S S  S S  S S  S S  S S  S S  S S  S
------------------------------------------|
------------------------------------------|
------------------------------------------|
--6p-4------7p-5------8p-6------9p-7------|
-------6p-4------7p-5------8p-6------9p-7-|
------------------------------------------|


   S  S  S  S  S  S  S  S  S   S  S   S  S   S  S   S
------------------------------------------------------|
------------------------------------------------------|
------------------------------------------------------|
--10p-8-------11p-9-------12p-10--------13p-11--------|
--------10p-8-------11p-9--------12p-10--------13p-11-|
------------------------------------------------------|


  S S E  S S E  S S E  S S E     Q     S  S  S  S  S S  S  S  S  S  S S
------------------------------|-------13p-8-11p-8----8-13p-8-11p-8----8-|
------------------------------|-------------------11---------------11---|
------------------------------|-----------------------------------------|
------5------5------5------5--|-----------------------------------------|
------3------3------3------3--|-----------------------------------------|
--2-2----2-2----2-2----2-2----|-----------------------------------------|


   S  S  S S  S  S  S  S  S S  S  S  S  S  S S
--13p-8----8-13p-8-11p-8----8-13p-8-11p-8----8-|
--------11---------------11---------------11---|
-----------------------------------------------|
-----------------------------------------------|
-----------------------------------------------|
-----------------------------------------------|


   S   S  S   S  S  S  S   S  S   S  S  S  S   S  S   S
--16p-11-14p-11----11-16p-11-14p-11----11-16p-11-14p-11-|
----------------14------------------14------------------|
--------------------------------------------------------|
--------------------------------------------------------|
--------------------------------------------------------|
--------------------------------------------------------|


   E   E      E   E      E     E   Q        E  S S E  E  E  S S E  E
----------------------------------17b----|----------------------------|
--17b--Lpbr--17b--Lpbr--17br--14---------|----------------------------|
-----------------------------------------|----------------------------|
-----------------------------------------|---------5--4---------9--7--|
-----------------------------------------|----------------------------|
-----------------------------------------|--0--L-0-------0--L-0-------|


  E  S S E  E  E  S S  E   E     E  S S E  E  E  S S E  E
------------------------------|----------------------------|
------------------------------|----------------------------|
---------9--7---------12--11--|----------------------------|
------------------------------|---------5--4---------9--7--|
------------------------------|----------------------------|
--0--L-0-------0--L-0---------|--0--L-0-------0--L-0-------|


   E   E   E   E   E   E   E  E      W                   W
--15--14--17--15--19--17--19--L\--|-------------------|-------------------|
----------------------------------|-------------------|-------------------|
----------------------------------|-------------------|-------------------|
----------------------------------|-------------------|-------------------|
----------------------------------|-------------------|-------------------|
----------------------------------|-------------------|-------------------|


                                      PM       PM PM
    E  E  E  E  E  E  E  E      E  E  E  E  E  S  S  Q     4x
|---------------------------|------------------------------||
|---------------------------|------------------------------||
|*--------------------------|-----------------------------*||
|*--9--9--9--8--8--8--7-----|-----------------------------*||
|---7--7--7--7--7--7--7--7--|--10--7-----5--7--------7-----||
|---0--0--0--0--0--0--0--0--|---0--0--0--0--0--0--0--0-----||


   E  S S E  E  E  S S E  E        S S S S S S S S S S S S S S S S
------------------------------||------------------------------------||
------------------------------||------------------------------------||
*----------------------------*||*----------------------------------*||
*----------------------------*||*--5-5-5-5-5-5-5-5-5-5-5-5-5-5-5-5-*||
----------7--5---------7--5---||---7-7-7-7-7-7-7-7-7-7-7-7-7-7-7-7--||
---0--L-0-------0--L-0--------||------------------------------------||


  S S S S S S S S S S S S S S S S    E  E  E  E  E  E  E  E
----------------------------------|--------------------------|
----------------------------------|--------------------------|
--8-8-8-8-8-8-8-8-8-8-8-8-8-8-8-8-|--------------------------|
----------------------------------|--------------7-----7-----|
--9-9-9-9-9-9-9-9-9-9-9-9-9-9-9-9-|--9-----9-----5-----5-----|
----------------------------------|--7-----7-----------------|


    E  S S E  E  E  S S E  E        S S S S S S S S S S S S S S S S
|------------------------------||------------------------------------||
|------------------------------||------------------------------------||
|*----------------------------*||*----------------------------------*||
|*----------------------------*||*--5-5-5-5-5-5-5-5-5-5-5-5-5-5-5-5-*||
|----------7--5---------7--5---||---7-7-7-7-7-7-7-7-7-7-7-7-7-7-7-7--||
|---0--L-0-------0--L-0--------||------------------------------------||


  S S S S S S S S S S S S S S S S     E  E   E  E   E  E   E  E
----------------------------------|-------------------------------|
----------------------------------|-------------------------------|
--8-8-8-8-8-8-8-8-8-8-8-8-8-8-8-8-|--12-----12-----11-----11--L\--|
----------------------------------|-------------------------------|
--9-9-9-9-9-9-9-9-9-9-9-9-9-9-9-9-|-------------------------------|
----------------------------------|-------------------------------|


  E  S S E  E  E  S S E  E     E  S S E  E  S S S S S S S S
----------------------------|-------------------------------|
----------------------------|-------------------------------|
----------------------------|-------------------------------|
----------------------------|---------------9-9-9-9-9-9-9-9-|
---------7--5---------7--5--|---------7--5--9-9-9-9-9-9-9-9-|
--0--L-0-------0--L-0-------|--0--L-0-----------------------|


                                    PM PM PM PM PM PM PM
  S S S S S S S S E  E  E  E     E  E  E  E  E  E  E  E
------------------------------|--------------------------|
------------------------------|--------------------------|
------------------------------|--------------------------|
--8-8-8-8-8-8-8-8-------------|--------------------------|
--9-9-9-9-9-9-9-9-9--9--9--9--|--2-----------------------|
------------------0--0--0--0--|--0--0--0--0--0--0--0--0--|


  PM PM PM PM PM PM             PM PM PM
  E  E  E  E  E  E  E  E     E  E  E  E  E  E  E    E
--------------------------|----------------------------|
--------------------------|----------------------------|
--------------------------|----------------------------|
--------------------------|----------------------------|
--------------------1-----|--2-----------1--2--1br-----|
--0--0--0--0--0--0-----3--|--0--0--0--0-------------3--|


     PM PM PM                                    PM PM PM PM PM PM PM
  E  E  E  E  E  E  E  E       E  E  E  E     E  E  E  E  E  E  E  E  E  E
----------------------------|--------------|--------------------------------|
----------------------------|--------------|--------------------------------|
----------------------------|--------------|--------------------------------|
----------------------------|--------------|--------------------------------|
--2-----------1--2--4--4br--|--4--2--1-----|--2-----------------------1-----|
--0--0--0--0----------------|-----------3--|--0--0--0--0--0--0--0--0-----3--|


     PM PM PM                     PM PM PM
  E  E  E  E  E  E  E    E     E  E  E  E  E  E  E  E       E  E  E  E
----------------------------|----------------------------|--------------|
----------------------------|----------------------------|--------------|
----------------------------|----------------------------|--------------|
----------------------------|----------------------------|--------------|
--2-----------1--2--1br-----|--2-----------1--2--4--4br--|--4--2--1-----|
--0--0--0--0-------------3--|--0--0--0--0----------------|-----------3--|


             PM PM    PM PM    PM PM                  PM PM PM PM PM PM
    E  E  E  S  S  E  S  S  E  S  S     Q    E  E  E  S  S  S  S  S  S   4x
|------------------------------------|-----------------------------------||
|------------------------------------|-----------------------------------||
|*-----------------------------------|----------------------------------*||
|*-----------------3--------3--------|--3-------------------------------*||
|---2--2--2--------1--------1--------|--1----2--2--2---------------------||
|---0--0--0--0--0-----0--0-----0--0--|-------0--0--0--0--0--0--0--0--0---||


  Q    E  E  E  E  H
----------------------------||
----------------------------||
----------------------------||
--3-------------------------||
--1----2--2--2--------------||
-------0--0--0--------------||


Duration Legend
---------------
W - whole
H - half
Q - quarter
E - 8th
S - 16th
T - 32nd
X - 64th
. - note dotted
|-n-|  - n-tuplets


Tablature Legend
----------------
L - tied note
x - dead note
g - grace note
(n) - ghost note
> - accentuded note
NH - natural harmonic
AH - artificial harmonic
TH - tapped harmonic
SH - semi harmonic
PH - pitch harmonic
h - hammer on
p - pull off
b - bend
br - bendRelease
pb - preBend
pbr - preBendRelease
brb - bendReleaseBend
\n/ - tremolo bar dip
\n - tremolo bar dive
-/n - tremolo bar Release up
/n\ - tremolo bar inverted dip
/n - tremolo bar return
-\n - tremolo bar Release down
S - shift slide
s - legato slide
/ -  slide into from below or out of upwards
\ -  slide into from above or out of downwards
~ - vibrato
W - wide vibrato
tr - trill
TP - tremolo picking
T - tapping
S - slap
P - pop
< - fade in
^ - brush up
v - brush down







The Unforgiven III

Tuning: Standard (EADGBE)

[Intro: Piano and Orchestra]


  Guitar 1(Clean)
e|------------------|
B|------------------|
G|------------------|
D|----2--2--2----2--|    Repeat x8
A|------------------|
E|--0---------2h3---|


  Guitar 1(Clean)
e|----------------------------------------------------------------------|
B|----------------------------------------------------------------------|
G|----------------------------------------------------------------------|
D|----2--2--2----2----2--2--2----2---2--2--2--2----2--2----1--2---------|
A|----------------------------------3------------2-------2--------------|
E|--0---------2h3---0---------2h3---------------------------------------|
 |                                                                           x2
 |Guitar 2(Clean)
e|----------------------------------------------------------------------|
B|------------------------------------1---------------------------------|
G|------9-------5-------9-------5-------0----2-------0------------------|
D|----5---5---9---9---5---5---9---9--2-----5---5---2---2---1--5-4h5p4---|
A|--7-------7-------7-------7-------3-----3------2-------2--------------|
E|----------------------------------------------------------------------|

  Guitar 1
e|-------------------------------------------------|
B|-------------------------------------------------|
G|-------------------------------------------------|
D|----2--2--2----2----2--2--2----2----2--2--2------|
A|-------------------------------------------------|
E|--0---------2h3---0---------2h3---0----------0---|
 |
 |Guitar 2
e|-------------------------------------------------|
B|-------------------------------------------------|
G|-------------------------------------------------|
D|-------------------------------------------------|
A|-------------------------------------------------|
E|------------2h3---0---------2h3---0----------0---|


Verse:


  Guitar 1 & 2 (Both Distorted)
e|----------------------------------------------------------|
B|----------------------------------------------------------|
G|----------------------------------------------------------|
D|------5h7/9-----------5h7/9--5~--------5h7/9---7-7---4-4--|   Repeat x4
A|---5h7-------------5h7--------------5h7--------5-5---2-2--|
E|-0------------0--0----------------0-----------------------|

  Guitar 1
e|---------------------------------------------------------------------------|
B|---------------------------------------------------------------------------|
G|---------------------------------------------------------------------------|
D|-9-9--5-5--7-7-----------------9-9--5-5--7-7-------------------------------|
A|-7-7--3-3--5-5--5-5--7~-6--5---7-7--3-3--5-5--5-5--7~-6-5--4~-3--2--1------|
E|----------------3-3---8--7--6\----------------3-3---8--7-6~-5--4--3--2--0--|
 |                     PM  PM                         PM PM   PM PM PM
 |Guitar 2 (w/wah & dist)
e|---------------------------------------------------------------------------|
B|---------------------------------------------------------------------------|
G|---------------------------------------------------------------------------|
D|-9~---10~---7~---9~-------------9~---10~--7~---9~--------------------------|
A|---------------------------------------------------------------------------|
E|---------------------------------------------------------------------------|


Chorus:

  Guitar 1(Clean)
e|----------------------------------------------------------------------|
B|----------------------------------------------------------------------|
G|----------------------------------------------------------------------|
D|----2--2--2----2----2--2--2----2---2--2--2--2----2--2----1--2---------|
A|----------------------------------3------------2-------2--------------|
E|--0---------2h3---0---------2h3---------------------------------------|
 |                                                                           x2
 |Guitar 2(Clean)
e|----------------------------------------------------------------------|
B|------------------------------------1---------------------------------|
G|------9-------5-------9-------5-------0----2-------0------------------|
D|----5---5---9---9---5---5---9---9--2-----5---5---2---2---1--5-4h5p4---|
A|--7-------7-------7-------7-------3-----3------2-------2--------------|
E|----------------------------------------------------------------------|

  Guitar 1
e|-------------------------------------------------|
B|-------------------------------------------------|
G|-------------------------------------------------|
D|----2--2--2----2----2--2--2----2----2--2--2------|
A|-------------------------------------------------|
E|--0---------2h3---0---------2h3---0----------0---|
 |
 |Guitar 2
e|-------------------------------------------------|
B|-------------------------------------------------|
G|-------------------------------------------------|
D|-------------------------------------------------|
A|-------------------------------------------------|
E|------------2h3---0---------2h3---0----------0---|


after that comes the verse and the chorus one more time, then this:

  Guitar 1(Clean)
e|--------------------------------------------------------------|
B|--------------------------------------------------------------|
G|--------------------------------------------------------------|    x4
D|----2--2--2-------2--2--2-------2--2--2--------2--2--2--------|
A|-----------------------------------------0-2------------------|
E|--0---------2-3-2---------3-5-3--------------2----------3-5---|


  Guitar 1(Clean)
e|--------------------------------------------------------------|
B|--------------------------------------------------------------|
G|--------------------------------------------------------------|
D|----2--2--2-------2--2--2-------2--2--2--------2--2--2--------|
A|-----------------------------------------0-2------------------|
E|--0---------2-3-2---------3-5-3--------------2----------3-5---|
 |                                                                     x2
 |Guitar 2(Distorted)
e|--------------------------------------------------------------|
B|--------------------------------------------------------------|
G|--------------------------------------------------------------|
D|--------------------------------------------------------------|
A|-----------------------------------------0-2------------------|
E|--0---------2-3-2---------3-5-3--------------2----------3-5---|


  Guitar 1 & 2 (Both distorted)
e|---------------------------------------------|
B|---------------------------------------------|
G|---------------------------------------------|
D|-2-------------------------------------------|
A|\2-------4-------5---0-2-4-------2--2-2-2-2--|
E|\0---2-3-2---3-5-3-------2---3-5-0--0-0-0-0--|
                                      PM----|

e|-----------------------------------------------------|
B|-----------------------------------------------------|
G|-----------------------------------------------------|
D|-----------------------------------------------------|
A|------4-4-4-4-4-4------5-5-5-5-5-5--0-2-4-4-4-4-4-4--|
E|--2-3-2-2-2-2-2-2--3-5-3-3-3-3-3-3------2-2-2-2-2-2--|
          PM------|        PM------|        PM------|





Haven't tabbed the solo out yet that's all I have for now. I might tab it later but I
usually tab stuff I don't like. So nor now..


Enjoy! =]


      =========================================

/ : slide up
\ : slide down
~ : vibrato
b : bend
r : Release bend(go from higher note to lower)
pr: pre bend
h : hammer on
p : pull off

The Judas Kiss

0:0
E|--------------------------|
A|--------------------------|
G|--------------------------|
D|--------------------------|
A|-----5-----------5---7----|
E|-0-2s3---0-0-0-0-3---5----|

0:13
E|-------------------------|------------------------------------|
B|-------------------------|------------------------------------|
G|-------------------------|-----------------------9-12-----9---|
D|-------------------------|-9---10---12---12--12-------12------|
A|-------------------------|------------------------------------|
E|-3---5---2---3---5---3---|------------------------------------|
/// Guitar 1
\\\ Guitar 2
E|-------------------------|------------------------------------|
B|-------------------------|------------------------------------|
G|-------------------------|------------------------------------|
D|-------------------------|-------------------------10---------|
A|-2---3---0---2-----------|-10---12---9---10--10-12----10--7---|
E|-----------------1---0---|------------------------------------|

0:21
E|---------------x----|
B|----------------x---|
G|-----------------x--|
D|------------------x-|
A|-2---2---2---2------|
E|-0---0---0---0------|

0:25
E|---------------------------|
B|---------------------------|
G|---------------------------|
D|-8^-------8^---------------|
A|-7^-------7^---------------|
E|-----0--0-----0--0-000-000-|

0:47
E|--------------------------|--------------------------------|
B|--------------------------|--------------------------------|
G|--------------------------|--------------------------------|
D|-11------11---------------|-11------11---------------------|
A|-9---11--9---10-----------|-9---11--9---10--10--10--10--10-|
E|-----9-------8--8-888-888-|-----9-------8---8---8---8---8--|

E|----------------x--|
B|----------------x--|
G|----------------x--|
D|-11------11-----x--|
A|-9---11--9---10----|
E|-----9-------8-----|

0:58
E|-------------------------------------------------|
B|-------------------------------------------------|
G|-------------------------------------------------|
D|-------------------------------------5s7s5---5s7-|
A|-------------------------------------------------|
E|-3p0-0-0-3p0-3p0-0-0-3p0-3p0-0-0-3p0-3s5s3-0-3s5-|

1:07
E|-------------------------------------------------|
B|-------------------------------------------------|
G|-------------------------------------------------|
D|-------------------------------------5s7s5---5s7-|
A|-------------------------------------------------|
E|-3p0-0-0-0-0-3p0-0-0-0-0-3p0-0-0-0-0-3s5s3-0-3s5-|

1:14
E|-----------------------|
B|-----------------------|
G|-7-------5-----12-9~~--|
D|-7-------5-------------|
A|-5-------3-------------|
E|-5-------3-------------|

1:39
E|------------------------------|
B|------------------------------|
G|------------------------------|
D|------------------------------|
A|---5----5----5----5-----------|
E|-0-3--0-3--0-3--0-3--x-x-x-x--|

1:44
E|--------------------------------------|-------------------------------|
B|--------------------------------------|-------------------------------|
G|--------------------------------------|-------------------------------|
D|--------9s10--10--10----7s9---9--9----|-9s10--10--10-10----7s9---9----|
A|-2------7s8---8---8--88-5s7---7--7-77-|-7s8---8---8--8--88-5s7---7-77-|
E|-0--0-00----x---------------z---------|-----x------------------x------|

1:52
E|----------------|
B|----------------|
G|----------------|
D|----------------|
A|-7--------------|
E|-5-555555555555-|

2:04
E|------------------------------|
B|------------------------------|
G|------------------------------|
D|------------------------------|
A|---5----5----5----5-----------|
E|-0-3--0-3--0-3--0-3--x-x-x-x--|

2:10
E|------------------------|
B|------------------------|
G|-----------------------|
D|----------2----2-------|
A|-4--4-----0----0-------|
E|-2--2---2----2----2----|

3:52
E|--------------------------|--------------------------|
B|--------------------------|--------------------------|
G|--------------------------|--------------------------|
D|-11------11---------------|-11------11---------------|
A|-9---11--9---10-----------|-9---9---9---8------------|
E|-----9-------8--8-888-888-|-----7-------6--6-666-666-|

4:03
E|------------------------------|
B|------------------------------|
G|------------------------------|
D|------------------------------|
A|-----4--------3-------0-------|
E|-2--------2-------0h2---2-0h1-|

E|--------------------------------|
B|--------------------------------|
G|--------------------------------|
D|-4--------4---------------------|
A|-----4--------3---0-2-3-4-------|
E|----------------------------1-2-|

4:26
E|-----------------|
B|-----------------|
G|-----------------|
D|-----------------|
A|-2---2---2---2---|
E|-0---0---0---0---|

4:30
E|-----------------------|
B|-----------------------|
G|-----------------------|
D|-----------0-----------|
A|-----------0---2---2---|
E|-0-0--0-0------0---0---|

Solo
4:30
E|-------------------------|-----------------------------|
B|-------------------------|-15-------15-----------------|
G|-------------------15----|-15^^-----15vv-12--------12--|
D|-------------14----------|-------------------14-14-----|
A|-------13----------------|-----------------------------|
E|-12----------------------|-----------------------------|

4:44
E|-----------------------------------|
B|-------------12---14^^-p12----12^--|
G|-------------12---14^^-p12----12^--|
D|-14-14-14-14---------------14------|
A|-----------------------------------|
E|-----------------------------------|

4:52
E|-------------------------------|
B|--------------------------12^--|
G|-------------s16-12-------12^--|
D|-14-14-14-14----------14-------|
A|-------------------------------|
E|-------------------------------|

4:54
E|-10p8p7--------10p8p7---------|
B|--------10p8p7--------10p8p7--|
G|------------------------------|
D|------------------------------|
A|------------------------------|
E|------------------------------|

4:56
E|-12p10p8---------12p10p8----------|
B|---------12p10p8---------12p10p8--|
G|----------------------------------|
D|----------------------------------|
A|----------------------------------|
E|----------------------------------|

4:57
E|-14p12p10----------14p12p10-----------|
B|----------14p12p10----------14p12p10--|
G|--------------------------------------|
D|--------------------------------------|
A|--------------------------------------|
E|--------------------------------------|

4:59
E|-15p14p12----------15p14p12-----------|
B|----------15p14p12----------15p14p12--|
G|--------------------------------------|
D|--------------------------------------|
A|--------------------------------------|
E|--------------------------------------|

5:00
E|-19p17p15----------19p17p15----------19p17p15----------19^----|
B|----------19p17p15----------19p17p15----------19p17p15--------|
G|--------------------------------------------------------------|
D|--------------------------------------------------------------|
A|--------------------------------------------------------------|
E|--------------------------------------------------------------|

5:02
This sounds to me like a tremelo pick with both strings
E|-x-v-v-v-v-v-v-v-v-v-v-|
B|-x-v-v-v-v-v-v-v-v-v-v-|
G|-----------------------|
D|-----------------------|
A|-----------------------|
E|-----------------------|

5:03
E|-------------------------------|
B|-------------------------------|
G|-2b4----b2p0h2p0h2p0h2p0h2p0h2-|
D|-------------------------------|
A|-------------------------------|
E|-------------------------------|

5:07
E|---------------------------------------|
B|---------------------------------------|
G|-2^^-0h2p0-----------0-----------------|
D|-----------2p0---0h2---0h2-0h3-0h2-0h3-|
A|---------------2-----------------------|
E|---------------------------------------|

5:08
E|-----------------------------------------|
B|-----------------------------------------|
G|-0h2-0h3-0h2-0h3-0h5h7-0h7h8-0h5h7-0h7h8-|
D|-----------------------------------------|
A|-----------------------------------------|
E|-----------------------------------------|

5:11
E|-------------------------------------------------------17s--|
B|-------------------11h13h14-11h13h14-14h15h17-14h15h17------|
G|-12h14h15-12h14h15------------------------------------------|
D|------------------------------------------------------------|
A|------------------------------------------------------------|
E|------------------------------------------------------------|

5:14
E|-19-17-14-19-17-14-19-17-14-19-17-14-19-17-14-19-17-14-etc--|
B|------------------------------------------------------------|
G|------------------------------------------------------------|
D|------------------------------------------------------------|
A|------------------------------------------------------------|
E|------------------------------------------------------------|

5:20
E|-17p15p14----------17p15p14-17p15p14----------17p15p14-|
B|----------17p15p14-------------------17p15p14----------|
G|-------------------------------------------------------|
D|-------------------------------------------------------|
A|-------------------------------------------------------|
E|-------------------------------------------------------|

5:27
E|-19p17p15-19p17p15-19p17p15-19p17p15-etc-x-x-x-x-x-x-x-x-x-|
B|-----------------------------------------x-x-x-x-x-x-x-x-x-|
G|-----------------------------------------------------------|
D|-----------------------------------------------------------|
A|-----------------------------------------------------------|
E|-----------------------------------------------------------|

E|------------------------------|
B|-2b4~~~~~~~~~~~~~~------------|
G|------------------------------|
D|------------------------------|
A|------------------------------|
E|------------------------------|

Riff
5:30
E|-----------------------|
B|-----------------------|
G|-----------------------|
D|---x-----------x-------|
A|---x-----------x-------|
E|-x-x---------x-x-------|

5:34
E|--------------------------|--------------------|
B|--------------------------|--------------------|
G|--------------------------|--------------------|
D|-11------11---------------|--------------------|
A|-9---11--9---10-----------|--------------------|
E|-----9-------8--8-888-888-|--8-888-888-888-888-|

Solo 2
5:40
E|------------------------------------------------------------------|
B|-12-12--12--12--12--------------------14-14--14--14---------------|
G|-12-12--12--12--12--------------------14-14--14--14--14-12-14-12--|
D|---------------------14-12-14---12-14-----------------------------|
A|------------------------------------------------------------------|
E|------------------------------------------------------------------|

5:45
E|-------------------------------------------------|
B|-14^--12---14^--12---14-12-14^--12------15--17---|
G|-14^--12---14^--12---14-12-14^--12--s16----------|
D|-------------------------------------------------|
A|-------------------------------------------------|
E|-------------------------------------------------|

5:50
E|-------------------------|
B|---5------------5--------|
G|-----5^-5^--4h6---6-4h5--|
D|-4-----------------------|
A|-------------------------|
E|-------------------------|

5:57
E|----------------------------|
B|---5------------5-5-----7-7-|
G|-----5^-5^--4h6-----4h6-----|
D|-4--------------------------|
A|----------------------------|
E|----------------------------|

6:00
E|----------------------9s---|
B|---------5---7---10--------|
G|-----6---------------------|
D|-4-------------------------|
A|---------------------------|
E|---------------------------|

6:04
E|--------------------------------------|
B|----12-----12------12------12---------|
G|----12-----12------12------12-x-x-x-x-|
D|-14-----14------14------14------------|
A|--------------------------------------|
E|--------------------------------------|

6:10
E|---------------------------------------|
B|-^^^^^^^^^^^^^^^-----------------------|
G|-9-9-9-9-9-9-9-9-br9-br9-br9-br9p7-----|
D|-----------------------------------9---|
A|---------------------------------------|
E|---------------------------------------|

6:15
E|-------------------------------|
B|-------------------------------|
G|-7h8-9----------7h8-9----------|
D|--------7h8-9---------7--h8-9--|
A|-------------------------------|
E|-------------------------------|

6:18
E|----------------------------------------|
B|----------------------------------------|
G|----------------------------------------|
D|----------------------------------------|
A|-7p5-7p5-7p5-7p5-5--7--5-----5----------|
E|--------------------------7-----7--0----|

Post Solo Riff
6:20
E|----------------------------|-------------------------------|
B|----------------------------|-------------------------------|
G|----------------------------|-------------------------------|
D|----------------------------|-------------------------------|
A|-7------7h8---8------5h7-7--|-7------7h8---8------5h7-7b-7--|
E|-0--0-0-0---0-0--0-0-0---0--|-0--0-0-0---0-0--0-0-0---0--0--|

E|-------------------------------|
B|-------------------------------|
G|-------------------------------|
D|-------------------------------|
A|-8------8h10-10-10-10-10-7-7-7-|
E|-0--0-0-0----------------------|

6:52
E|-----------------|-----------------|-----------------|-----------------|
B|-----------------|-----------------|-----------------|-----------------|
G|-----------------|-----------------|-----------------|-----------------|
D|-----------------|-----------------|-----------------|-----------------|
A|-----------------|-----------------|-----------------|-----------------|
E|-222-2-2-2-2-2-2-|-333-3-3-3-3-3-3-|-444-4-4-4-4-4-4-|-555-5-5-5-5-5-5-|

6:58
E|----------|----------|----------|----------|
B|----------|----------|----------|----------|
G|----------|----------|----------|----------|
D|---etc----|----etc---|----etc---|---etc----|
A|----------|----------|----------|----------|
E|-66666666-|-77777777-|-88888888-|-99999999-|

Ending
7:47
E|------------------------------|
B|------------------------------|
G|------------------------------|
D|-----6-------5----------------|
A|-4---4---4---3--2-4-7--4--2-1-|
E|-2-------2------0-2-5--2--0-0-|

E|----------------------|
B|----------------------|
G|----------------------|
D|-----6-------5--------|
A|-4---4---4---3---4-x--|
E|-2-------2-------2-x--|

Suicide And Redemption

1st:----------|
2nd:----------|
3rd:----------|
4th:-4--4--5--|
5th:-2--2--2--|
6th:-2--2--3--| x6

1st:-------------------------------------|
2nd:-------------------------------------|
3rd:-------------------------------------|
4th:-4~--------4~---------4~---------4~--|
5th:-2~--------2~---------2----------2~--|
6th:-------------------------------------|

1st:----------------------------------|
2nd:----------------------------------|
3rd:-------------4-4-------------4-5--|
4th:-4-4-4-4-4-4-4-4-4-4-4-4-4-4-4-5--|
5th:-2-2-0-2-2-2-----2-2-0-2-2-2------|
6th:----------------------------------| x4

1st:----------------------    ---|
2nd:----------------------    ---|
3rd:-4---4---4---5-5-5-5--    -4-|
4th:-4---4---4---4-4-4-4--    -4-|
5th:-2-x-2-x-2-x-3-3-3-3--    -2-|
6th:---------------------- x3 ---|

(bass riff)

1st:-----------------------------------|
2nd:-----------------------------------|
3rd:-7b^8r7-4--------------------------|
4th:--------4-4-4-4-4-4-4-4-4-4-4-4----|
5th:-5b^6r5-2-0-2-2-2-0-2-2-2-0-2-0----|
6th:-----------------------------------| x4
              [palm muted--------------|

1st:-------------------------------------------------------------|
2nd:-------------------------------------------------------------|
3rd:-7-7-7-7-7-7-7-7-7-7-7-7-14-14-14-14-14-14-14-14-14-14-14-14-|
4th:-------------------------------------------------------------|
5th:-5-5-5-5-5-5-5-5-5-5-5-5-12-12-12-12-12-12-12-12-12-12-12-12-|
6th:-------------------------------------------------------------|

1st:-----------------------------------|
2nd:-----------------------------------|
3rd:-7b^8r7-4--------------------------|
4th:--------4-4-4-4-4-4-4-4-4-4-4-4----|
5th:-5b^6r5-2-0-2-2-2-0-2-2-2-0-2-0----|
6th:-----------------------------------| x4
              [palm muted--------------|

1st:-------------------------------------------------------------|
2nd:-------------------------------------------------------------|
3rd:-7-7-7-7-7-7-7-7-7-7-7-7-14-14-14-14-14-14-14-14-14-14-14-14-|
4th:-------------------------------------------------------------|
5th:-5-5-5-5-5-5-5-5-5-5-5-5-12-12-12-12-12-12-12-12-12-12-12-12-|
6th:-------------------------------------------------------------|


1st:------------------------------------------|
2nd:------------------------------------------|
3rd:------------------------------------------|
4th:---------------5/4---5/4------------------|
5th:-4-4-2-4-2-4-x-3/2-x-3/2-4-4-2-4-2-4-2-4--|
6th:-2-2-0-2-0-2-x-3-2-x-3-2-2-2-0-2-0-2-0-2--| x2

1st:--------------------------|
2nd:--------------------------|
3rd:--------------------------|
4th:--------------------------|
5th:-7-7-7-7-7-7-8-8-8-8-8-8--|
6th:--------------------------|
     [palm muted--------------|

1st:------------------------------------------|
2nd:------------------------------------------|
3rd:------------------------------------------|
4th:---------------5/4---5/4------------------|
5th:-4-4-2-4-2-4-x-3/2-x-3/2-4-4-2-4-2-4-2-4--|
6th:-2-2-0-2-0-2-x-3-2-x-3-2-2-2-0-2-0-2-0-2--|

1st:--------------------------------------------|
2nd:--------------------------------------------|
3rd:-----------------------------------------8--|
4th:-------------------------------------7-8----|
5th:-7-7-7-7-7-7-8-8-8-8-8-8-9-9-9-9-9-9--------|
6th:--------------------------------------------|
     [palm muted--------------------------------|

1st:-----------------------------------|
2nd:-----------------------------------|
3rd:-7b^8r7-4--------------------------|
4th:--------4-4-4-4-4-4-4-4-4-4-4-4----|
5th:-5b^6r5-2-0-2-2-2-0-2-2-2-0-2-0----|
6th:-----------------------------------| x4
              [palm muted--------------|

---

Guitar 2 (delay)
1st:---------------------------------|
2nd:---------------------------------|
3rd:-------7---7-------7---7-------7-|
4th:-9---9-------9---9-------9--(9)--|
5th:---------------------------------|
6th:---------------------------------| x4

1st:-----------------------------------|
2nd:-----------------------------------|
3rd:-7b^8r7-4--------------------------|
4th:--------4-4-4-4-4-4-4-4-4-4-4-4----|
5th:-5b^6r5-2-0-2-2-2-0-2-2-2-0-2-0----|
6th:-----------------------------------| x4
              [palm muted--------------|

---

1st:-------------------------------------------------------------|
2nd:-------------------------------------------------------------|
3rd:-7-7-7-7-7-7-7-7-7-7-7-7-14-14-14-14-14-14-14-14-14-14-14-14-|
4th:-------------------------------------------------------------|
5th:-5-5-5-5-5-5-5-5-5-5-5-5-12-12-12-12-12-12-12-12-12-12-12-12-|
6th:-------------------------------------------------------------|

---

Guitar 2 (delay)
1st:---------------------------------|
2nd:---------------------------------|
3rd:-------7---7-------7---7-------7-|
4th:-9---9-------9---9-------9--(9)--|
5th:---------------------------------|
6th:---------------------------------| x4

1st:-----------------------------------|
2nd:-----------------------------------|
3rd:-7b^8r7-4--------------------------|
4th:--------4-4-4-4-4-4-4-4-4-4-4-4----|
5th:-5b^6r5-2-0-2-2-2-0-2-2-2-0-2-0----|
6th:-----------------------------------| x4
              [palm muted--------------|

---

1st:-------------------------------------------------------------|
2nd:-------------------------------------------------------------|
3rd:-7-7-7-7-7-7-7-7-7-7-7-7-14-14-14-14-14-14-14-14-14-14-14-14-|
4th:-------------------------------------------------------------|
5th:-5-5-5-5-5-5-5-5-5-5-5-5-12-12-12-12-12-12-12-12-12-12-12-12-|
6th:-------------------------------------------------------------|

1st:------------------------------------------|
2nd:------------------------------------------|
3rd:------------------------------------------|
4th:---------------5/4---5/4------------------|
5th:-4-4-2-4-2-4-x-3/2-x-3/2-4-4-2-4-2-4-2-4--|
6th:-2-2-0-2-0-2-x-3-2-x-3-2-2-2-0-2-0-2-0-2--| x2

1st:--------------------------------------------|
2nd:--------------------------------------------|
3rd:-----------------------------------------8--|
4th:-------------------------------------7-8----|
5th:-7-7-7-7-7-7-8-8-8-8-8-8-9-9-9-9-9-9--------|
6th:--------------------------------------------|
     [palm muted--------------------------------|

1st:-----------------------------------|
2nd:-----------------------------------|
3rd:-7b^8r7-4--------------------------|
4th:--------4-4-4-4-4-4-4-4-4-4-4-4----|
5th:-5b^6r5-2-0-2-2-2-0-2-2-2-0-2-0----|
6th:-----------------------------------| x4
              [palm muted--------------|

1st:-------------------------|
2nd:-------------------------|
3rd:------------------7-8-9--|
4th:-2-2--2-2--2--2-2--------|
5th:-2-2--2-2--2--2-2-5-6-7--|
6th:-0-0--0-0--0--0-0--------| x4

1st:-------------------------------------------|
2nd:-------------------------------------------|
3rd:------------------7-8-9-----5-----7--------|
4th:-2-2--2-2--2--2-2--------5--5--7--7--7-6-5-|
5th:-3-3--3-3--3--3-3-5-6-7--5--3--7--5--5-4-3-|
6th:-0-0--0-0--0--0-0--------3-----5-----------|

1st:-------------------------|
2nd:-------------------------|
3rd:------------------7-8-9--|
4th:-2-2--2-2--2--2-2--------|
5th:-2-2--2-2--2--2-2-5-6-7--|
6th:-0-0--0-0--0--0-0--------| x2

1st:--------------------------------------------------------|
2nd:--------------------------------------------------------|
3rd:------------------7-8-9-----5-----7---------------------|
4th:-2-2--2-2--2--2-2--------5--5--7--7--7-6-5--5-4-3--2--5-|
5th:-3-3--3-3--3--3-3-5-6-7--5--3--7--5--5-4-3--3-2-1--0--3-|
6th:-0-0--0-0--0--0-0--------3-----5------------------------|

---

1st:----
2nd:----
3rd:----
4th:-4--
5th:-2--
6th:----

Guitar 1 (clean)
1st:-2----2-----------------2---------------2--|
2nd:-3----3------3p2--------3--2-2h3p2------3--|
3rd:-4----4----4-----4------4---------4-----4--|
4th:------4--4------------4---------------4----|
5th:--------------------2---------------2------|
6th:-------------------------------------------|

---

Guitar 2 (lead)
1st:------------------------------------|
2nd:-----7-----7---------7--------------|
3rd:-7/9---9-7---9---7/9---9/6-9-7/6----|
4th:---------------------------------9--|
5th:------------------------------------|
6th:------------------------------------| x2

Guitar 1 (clean)
     D       A      Bm
1st:-----2-----------------------------|
2nd:-----3-------2------3-3p2-------3--|
3rd:---2---------2------4-----4-----4--|
4th:-0---------2------4-----------4----|
5th:---------0------2-----------2------|
6th:-----------------------------------| x2

---

Guitar 2
1st:---------------------------------|
2nd:-----7-----7/10~------7----------|
3rd:-7/9---9-7--------7/9---9-7/6----|
4th:------------------------------9--|
5th:---------------------------------|
6th:---------------------------------|

Guitar 1 (clean)
     Bm     A      E
1st:-----------------------------|
2nd:-----3------2----------------|
3rd:-----4------2------1------1--|
4th:---4------2--------2------2--|
5th:-2------0--------2------2----|
6th:---------------0------0------|

---

Guitar 2
1st:----------------------------------------------|
2nd:----------------------------------------------|
3rd:----------------------------------------------|
4th:-9~------------9------9----------------9------|
5th:----------7-10---7-10-------------7-10---7-10-|
6th:----------------------------------------------|

Guitar 1 (turn up volume on guitar, or turn on distortion)
1st:-------------------------------------------------|
2nd:-------------------------------------------------|
3rd:-------------------------------------------------|
4th:-2-2--2-2--2-------------2-2--2-2--2-------------|
5th:-2-2--2-2--2-5-6-7-5-6-7-2-2--2-2--2-5-6-7-5-6-7-|
6th:-0-0--0-0--0-------------0-0--0-0--0-------------|

---

Guitar 2
1st:--------------------------------------------------------------|
2nd:-8~-----8-7~---7-7h8p7-5~---5---------5~-------5----5-7--5-7--|
3rd:------------------------------7-5-5-7------5-7----7-----------|
4th:--------------------------------------------------------------|
5th:--------------------------------------------------------------|
6th:--------------------------------------------------------------|

Guitar 3
1st:-7~-------7~--------------------------------------------------|
2nd:-----------------------8~-------------8~----------------------|
3rd:--------------------------------------------------------------|
4th:--------------------------------------------------------------|
5th:--------------------------------------------------------------|
6th:--------------------------------------------------------------|

Guitar 1
1st:-------------------------|
2nd:-------------------------|
3rd:-------------------------|
4th:-2-2--2-2--2--2-2--------|
5th:-2-2--2-2--2--2-2-5-6-7--|
6th:-0-0--0-0--0--0-0--------| x2

1st:-------------------------------------------|
2nd:-------------------------------------------|
3rd:----------------------------5-----7--------|
4th:-2-2--2-2--2--2-2--------5--5--7--7--7-6-5-|
5th:-3-3--3-3--3--3-3-5-6-7--5--3--7--5--5-4-3-|
6th:-0-0--0-0--0--0-0--------3-----5-----------|

---

Guitar 2
1st:---------------------------------------------------------|
2nd:-8~------8-8-----8-8-----7~------7-7-----7-7h8p7-5-------|
3rd:-----4-4-----4-4-----4-4-----4-4-----4-4------------7-5~-|
4th:---------------------------------------------------------|
5th:---------------------------------------------------------|
6th:---------------------------------------------------------|

Guitar 3
1st:-7~-------7~---------------|
2nd:-----------------------8~--|
3rd:---------------------------|
4th:---------------------------|
5th:---------------------------|
6th:---------------------------|

Guitar 1
1st:-------------------------|
2nd:-------------------------|
3rd:-------------------------|
4th:-2-2--2-2--2--2-2--------|
5th:-2-2--2-2--2--2-2-5-6-7--|
6th:-0-0--0-0--0--0-0--------| x2

1st:------------------------|
2nd:------------------------|
3rd:------------------------|
4th:-2-2--2-2--2--2-2-------|
5th:-3-3--3-3--3--3-3-5-6-7-|
6th:-0-0--0-0--0--0-0-------|

---

Guitar 2
1st:-------------------------------------|
2nd:-----5-------5---5-------5---7-5---5-|
3rd:-5-7---7-5-7---7---7-5-7---7-----7---|
4th:-------------------------------------|
5th:-------------------------------------|
6th:-------------------------------------|

Guitar 3
1st:-------------------------------------|
2nd:-----5-------5---5-------5---7-5---5-|
3rd:-5-7---7-5-7---7---7-5-7---7-----7---|
4th:-------------------------------------|
5th:-------------------------------------|
6th:-------------------------------------|

1st:-------------------|
2nd:-------------------|
3rd:----5-----7--------|
4th:-5--5--7--7--7-6-5-|
5th:-5--3--7--5--5-4-3-|
6th:-3-----5-----------|

---

Guitar 2
1st:---------------------------------------|
2nd:-7~------7-----7---------7-------------|
3rd:-----7/9---9-7---9---7/9---9/6-9-7/6---|
4th:-------------------------------------9-|
5th:---------------------------------------|
6th:---------------------------------------|

Guitar 1
1st:------------------------------------------------------|
2nd:------------------------------------------------------|
3rd:------------------------------------------------------|
4th:-7---7---7---7----------------------------------------|
5th:-5555555555555-7---7---7---7-9---9--------------------|
6th:---------------5555555555555-77777777-2-0-2-3-2-0-2-3-|

---

Guitar 2
1st:---------------------------------------|
2nd:---------7-----7---------7-------------|
3rd:-7~--7/9---9-7---9---7/9---9/6-9-7/6---|
4th:-------------------------------------9-|
5th:---------------------------------------|
6th:---------------------------------------|

Guitar 1
1st:------------------------------------------------------|
2nd:------------------------------------------------------|
3rd:------------------------------------------------------|
4th:-7---7---7---7----------------------------------------|
5th:-5555555555555-7---7---7---7-9---9--------------------|
6th:---------------5555555555555-77777777-2-0-2-3-2-0-2-3-|

---

Guitar 2
1st:------------------------------------|
2nd:-7~------7-----7/10~------7---------|
3rd:-----7/9---9-7--------7/9---9-7/6---|
4th:----------------------------------9-|
5th:------------------------------------|
6th:------------------------------------|

Guitar 1
1st:-----------------------------------------------------------------|
2nd:-----------------------------------------------------------------|
3rd:-----------------------------------------------------------------|
4th:-4---4---4---4-2---2---------------------------------------------|
5th:-2222222222222-00000000-----------------2---2--------------------|
6th:------------------------2-0-2-3-2-0-2-3-00000000-2-0-2-3-2-0-2-3-|

---

Guitar 2
1st:---------------------------------|
2nd:-----------------7-5-7-8-7-5-7-8-|
3rd:-7-6-7-9-7-6-7-9-----------------|
4th:---------------------------------|
5th:---------------------------------|
6th:---------------------------------|

Guitar 1
1st:---------------------------------|
2nd:---------------------------------|
3rd:---------------------------------|
4th:---------------------------------|
5th:---------------------------------|
6th:-2-0-2-3-2-0-2-3-2-0-2-3-2-0-2-3-|

---

Guitar 1
1st:-----------------------------------|
2nd:-----------------------------------|
3rd:-----------------------------------|
4th:---------------------------------4-|
5th:---------------------------------2-|
6th:-2-0-2-3-2-0-2-3-2-0-2-3-2-0-2-3-2-|
     [palm mute----]

(bass + drum break)

1st:-----------------|
2nd:-----------------|
3rd:-----------------|
4th:-5-5--4-------4--|
5th:-3-3--2~------2--|
6th:------2----------|

1st:----------------------------------|
2nd:----------------------------------|
3rd:-------------4-4-------------5-4--|
4th:-4-4-4-4-4-4-4-4-4-4-4-4-4-4-5-4--|
5th:-2-2-0-2-2-2-----2-2-0-2-2-2------|
6th:----------------------------------| x4
     [palm mute]     [palm mute]

---

Guitar 2
1st:------------------------------------------|
2nd:------------------------------------------|
3rd:------------------------------------------|
4th:------------------------------------------|
5th:------------------------------------------|
6th:-7~---5-8-5-7~---5-8-5-7~---5-8-5h7p5/2~--| x2

Guitar 1
1st:----------------------------------|
2nd:----------------------------------|
3rd:-------------4-4-------------5-4--|
4th:-4-4-4-4-4-4-4-4-4-4-4-4-4-4-5-4--|
5th:-2-2-0-2-2-2-----2-2-0-2-2-2------|
6th:----------------------------------| x4
     [palm mute]     [palm mute]

---

1st:----------------------|
2nd:----------------------|
3rd:-4---4---4---5-5-5-5--|
4th:-4---4---4---4-4-4-4--|
5th:-2-x-2-x-2-x-3-3-3-3--|
6th:----------------------| x4

---

1st:-------------8---------8-------------------------8---------8-------------|
2nd:---------------12-10-8---12-10-8-12~---------------12-10-8---12-10-8-12~-|
3rd:-------------------------------------------------------------------------|
4th:-9^(9)--7-9~--------------------------9^(9)-7-9~-------------------------|
5th:-------------------------------------------------------------------------|
6th:-------------------------------------------------------------------------|

1st:------------------------------------------------|
2nd:------------------------------------------------|
3rd:------------------------------------------------|
4th:-----------9-9-9-9-9-----------9-9-9-9-9-10-10^-|
5th:------------------------------------------------|
6th:-7-7-7-7-7-----------7-7-7-7-7------------------|

1st:---------------------------------------------------------------------------------|
2nd:-------------------------------------------------8-8-8-8-10-10-10-10-11-11-11-11-|
3rd:---------------------7-7-7-7-9-9-9-9-11-11-11-11---------------------------------|
4th:-9-9-9-9-10-10-10-10-------------------------------------------------------------|
5th:---------------------------------------------------------------------------------|
6th:---------------------------------------------------------------------------------|

1st:-----------------------------------------------------------------------|
2nd:-12-12-12-12///--------------------12-12-12-12///----------------------|
3rd:-----------------11-9-12-11--9-11-----------------11-9-12--11-9-12-11~-|
4th:-----------------------------------------------------------------------|
5th:-----------------------------------------------------------------------|
6th:-----------------------------------------------------------------------|
     [tremolo pick]                    [tremolo pick]

1st:--------------------------------------------------------------------------|
2nd:-12v--15v--------------------8-7h8p7-----7--------------------------------|
3rd:-----------9^(11)----7h9p7-----------9-7---9-7-6-9-7-6-9-7-6-7-6-4-7-6-4--|
4th:--------------------------------------------------------------------------|
5th:--------------------------------------------------------------------------|
6th:--------------------------------------------------------------------------|
     [whammy]

1st:------------------------------------------|
2nd:------------------------------------------|
3rd:------4-4-7-7-4-4--4-7-4-7p4-6~---6-6-7-7-|
4th:-7~---------------------------------------|
5th:------------------------------------------|
6th:------------------------------------------|

1st:-22-19-17-19-22-19-17-19-22-19-17-19-22-19-17-19-22-|
2nd:----------------------------------------------------|
3rd:----------------------------------------------------|
4th:----------------------------------------------------|
5th:----------------------------------------------------|
6th:----------------------------------------------------|

--- Wah solo

1st:--------------|
2nd:-4---2--------|
3rd:-4^----4-2----|
4th:-----------4--|
5th:--------------|
6th:--------------|
If someone wants to tab this out that would be great.
But I'm working on it...

---

1st:---------------------------------|
2nd:---------------------------------|
3rd:---------------------------------|
4th:-----------------5---------------|
5th:-2-0-2-3-2-0-2-3---3-2-0-2-3-2-0-|
6th:---------------------------------|

1st:--------------------------------|
2nd:--------------------------------|
3rd:--------------------------------|
4th:-----------------5--------------|
5th:-2-0-2-3-2-0-2-3---3-2-0-2-3-2~-|
6th:--------------------------------|

1st:---------------------------------|
2nd:---------------------------------|
3rd:---------------------------------|
4th:---------------------------------|
5th:-----------------5---------------|
6th:-2-0-2-3-2-0-2-3---3-2-0-2-3-2-0-|

1st:--------------------------------|
2nd:--------------------------------|
3rd:--------------------------------|
4th:--------------------------------|
5th:-----------------5--------------|
6th:-2-0-2-3-2-0-2-3---3-2-0-2-3-2~-|

1st:---------------------------------|
2nd:---------------------------------|
3rd:---------------------------------|
4th:-----------------5---------------|
5th:-2-0-2-3-2-0-2-3---3-2-0-2-3-2-0-|
6th:---------------------------------|

1st:--------------------------------|
2nd:--------------------------------|
3rd:--------------------------------|
4th:-----------------5--------------|
5th:-2-0-2-3-2-0-2-3---3-2-0-2-3-2~-|
6th:--------------------------------|

1st:---------------------------------|
2nd:---------------------------------|
3rd:-----------------2---------------|
4th:---------------------------------|
5th:-4-2-4-5-4-2-4-5---5-4-2-4-5-4-2-|
6th:---------------------------------|

1st:--------------------------------|
2nd:--------------------------------|
3rd:-----------------2--------------|
4th:--------------------------------|
5th:-4-2-4-5-4-2-4-5---5-4-2-4-5-4~-|
6th:--------------------------------|

---

Guitar 1
1st:---------------------------------------------------------------------|
2nd:---------------------------------------------------------------------|
3rd:---------------------------------------------------------------------|
4th:---------------------------------------------------------------------|
5th:-6-4-6-7-6-4-6~--7-5-7-8-7-5-7~--8-7-8~--9-8-9~--10-9-10~--11-10-11~-|
6th:---------------------------------------------------------------------|

Guitar 2
1st:----------------------------------------------------------------------------|
2nd:----------------------------------------------------------------------------|
3rd:----------------------------------------------------------------------------|
4th:-8-6-8-9-8-6-8~--9-7-9-10-9-7-9~--10-9-10~--11-10-11~--12-11-12~--13-12-13~-|
5th:----------------------------------------------------------------------------|
6th:----------------------------------------------------------------------------|

---

1st:--------------------------------------------|
2nd:--------------------------------------------|
3rd:-----------------------------------------8--|
4th:-------------------------------------7-8----|
5th:-7-7-7-7-7-7-8-8-8-8-8-8-9-9-9-9-9-9--------|
6th:--------------------------------------------|
     [palm muted--------------------------------|

(B feedback in background)
1st:-----------------------------------|
2nd:-----------------------------------|
3rd:-7b^8r7-4--------------------------|
4th:--------4-4-4-4-4-4-4-4-4-4-4-4----|
5th:-5b^6r5-2-0-2-2-2-0-2-2-2-0-2-0----|
6th:-----------------------------------| x4
              [palm muted--------------|

1st:-------------------------------------------------------------|
2nd:-------------------------------------------------------------|
3rd:-7-7-7-7-7-7-7-7-7-7-7-7-14-14-14-14-14-14-14-14-14-14-14-14-|
4th:-------------------------------------------------------------|
5th:-5-5-5-5-5-5-5-5-5-5-5-5-12-12-12-12-12-12-12-12-12-12-12-12-|
6th:-------------------------------------------------------------|

1st:------------------|
2nd:------------------|
3rd:------------------|
4th:------------------|
5th:-8-7---5-----5----|
6th:-----7---7-6---5--| x4
^ last two times harmoize octave up

1st:-------------------|
2nd:-------------------|
3rd:-10-9---7-----7----|
4th:------9---9-8---7--|
5th:-------------------|
6th:-------------------| x2

1st:-------|
2nd:-------|
3rd:-10-9--|
4th:-10-9--|
5th:-8--7--|
6th:-8--7--| x4 (drum fills, hold second time)

1st:------------------|
2nd:------------------|
3rd:------------------|
4th:------------------|
5th:-8-7---5-----5----|
6th:-----7---7-6---5--| x3

1st:-------------------|
2nd:-------------------|
3rd:-10-9---7-----7----|
4th:------9---9-8---7--|
5th:-------------------|
6th:-------------------| x3

1st:---------------------------|
2nd:---------------------------|
3rd:-10-9---7------------------|
4th:-10-9-9-7-8-7-5-3~-----2-2-|
5th:-8--7-9-5-8-7-5-3~-----2-2-|
6th:------7---6-5-3-1~-----0-0-|

1st:--------------------------------------|
2nd:--------------------------------------|
3rd:-6-6-4-6-4-6-------------6-6-4-6-4-6--|
4th:-6-6-4-6-4-6-x-5-4-x-5-4-6-6-4-6-4-6--|
5th:-4-4-2-4-2-4-x-5-4-x-5-4-4-4-2-4-2-4--|
6th:-4-4-2-4-2-4-x-3-2-x-3-2-4-4-2-4-2-4--| x2

1st:--------------------------------|
2nd:--------------------------------|
3rd:-6-6-4-6-4-6--------------------|
4th:-6-6-4-6-4-6-x-5-4---4-3---3-2--|
5th:-4-4-2-4-2-4-x-5-4-x-4-3-x-3-2--|
6th:-4-4-2-4-2-4-x-3-2-x-2-1-x-1-0--| repeat until end, fade out

My Apocalypse

Riff 1
       + + + + + + 3x                    
|------------------|------------------| 
|------------------|------------------|
|------------------|--7/6---7/6---7/6-|
|------------------|--x-----x-----x---|
|--5h7-------------|--5/4---5/4---5/4-|
|--0---0-0-0-0-0-0-|------------------|

Riff 2
       + +     + + 3x      
|------------------|------------------| 
|------------------|------------------|
|------------------|--7/6---7/6---7/6-|
|--5~--------------|--x-----x-----x---|
|--7~--2-2-----2-2-|--5/4---5/4---5/4-|
|------0-0-----0-0-|------------------|

Riff 3
      + +++  + + + 3x
|------------------|------------------| 
|------------------|------------------|
|------------------|--7/6---7/6---7/6-|
|--5~--------------|--x-----x-----x---|
|--7~--------------|--5/4---5/4---5/4-|
|-----0-000--0-0-0-|------------------|

Riff 4
      + +++  + + +                     
|--------------------------------| 
|--------------------------------|
|--------------------------4--7--|
|--4-----------------5--5--4--7--|
|--4-----------------5--5--2--5--|
|--2--2-222--2-2-2---3--3--------|

Riff 5
      + +++  + + + + +  + +++ + + + 
|-----------------------------------|
|-----------------------------------|
|-----------------------------------|
|--4--------------------------------|
|--4--------------------------------|
|--2--2-222--2-2-2-2-2--2-222-2-2-2-|

Chorus:
So we close that line...
         3x
|---------|--------------------------------------|
|---------|--------------------------------------|
|---------|--7/6---7/6--7/6---9/8---9/8--9/8-----|
|--5~~~/x-|--x-----x----x-----x-----x----x-------|
|--7~~~/x-|--5/4---5/4--5/4---7/6---7/6--7/6-----|
|---------|--------------------------------------|

   Suffer    unto   my    a   poc   a  lypse 
|-------------------------------------|
|-------------------------------------|
|--------------------8----8----8----8-|
|--6666666666666666--8----8----8----8-|
|--5555555555555555--6----6----6----6-|
|-------------------------------------|

Riff 6
|--------------------|
|--------------------|
|--------------------|
|---10-9-----9-------|
|-7------8-9---9-8---|
|--------------------|
     + + + + + +  + +       +  + + + + + +  + +       +  + + + + + +  + + + + 
|------------------------------------------------------------------------------|
|------------------------------------------------------------------------------|
|------------------------------------------------------------------------------|
|-9--------------------9\7-----------------------7/9---------------------------|
|-7--------------------7\5-----------------------5/7---------------------------|
|----0-0-0-0-0-0--0-0-------0--0-0-0-0-0-0--0-0-------0--0-0-0-0-0-0--0-0-0-0--|

|-------------------| Repeat 4x (above and side)
|-------------------| Then repeat just this riff 3x and a dive bomb
|-------------------|
|---10-9-----9------|
|-7------8-9---9-8--|
|-------------------|
     + + + + + +  + +       + +       + +          + + + + + +  + +
|------------------------------------------------------------------------------|
|------------------------------------------------------------------------------|
|------------------------------------------------------------------------------|
|-9--------------------9\7-----------------------------------------------------|
|-7--------------------7\5-------5/7-------9\8--7--------------------7/8--5----|
|----0-0-0-0-0-0--0-0-------0-0--3/5--0-0--7\6--5--5-5-5-5-5-5--5-5--5/6--3----|
  + + + + + +  + +
|-------------------------| Repeat under solo as many times as needed
|-------------------------| 
|-------------------------|
|-------------------------|
|-------------------5--4--|
|-3-3-3-3-3-3--3-3--3--2--|

Solo
|--12---12---12---------6---6---6--------7----7----7-----------------|
|--15b--15b--15br15b----9b--9b--9brb----10b--10b--10br10b------------|
|--------------------------------------------------------------------|
|------------------------------------------------------------12b~~~/-|(<-not sure)
|--------------------------------------------------------------------|
|--------------------------------------------------------------------|
   + + + + + + + + + + + + + + + + + + + + + + + +  + + + + + + + +
|--3-2-0-0-5-3-0-0-7-5-0-0-5-3-0-0-7-5-0-0-8-7-0-0-10-8-0-0-8-7-0-0--|
|--------------------------------------------------------------------|
|--------------------------------------------------------------------|
|--------------------------------------------------------------------|
|--------------------------------------------------------------------|
|--------------------------------------------------------------------|

|--10p8p7--------12p10p8---------14p12p10----------15p14p12------------|
|---------10p8p7---------12p10p8----------14p12p10----------15p14p12/--|
|----------------------------------------------------------------------|
|----------------------------------------------------------------------|
|----------------------------------------------------------------------|
|----------------------------------------------------------------------|

|-------------------------------------------------------|
|--15b------15b-------------14b~~------14b--------------|
|--14b------14b--14p12------14b~~------14b--14p12-------|
|----------------------14-------------------------14----|
|-------------------------------------------------------|
|-------------------------------------------------------|

|-----------------------------------|
|--12-------------------------------|
|--12---------------------12--------|
|-------14~-----14p12-----12--------|
|---------------------14------14~/--|
|-----------------------------------|
   + + + + + + + + + + + + + + + + + + + + + + + +  + + + + + + + +
|--------------------------------------------------------------------|
|--------------------------------------------------------------------|
|--4-2-0-0-5-4-0-0-7-5-0-0-5-4-0-0-7-5-0-0-9-7-0-0-11-9-0-0-9-7-0-0--|
|--------------------------------------------------------------------|
|--------------------------------------------------------------------|
|--------------------------------------------------------------------|

|-----------------------------12h14p12-----------------------------|
|--------------------12h14h15----------15p14p12--------------------|
|-----------11h12h14-----------------------------14p12p11h12p11----|
|--11h12h14-----------------------------------------------------14-|
|------------------------------------------------------------------|
|------------------------------------------------------------------|

|------------------------------------|
|------------------------------------|
|--11------10------9--------8--------|
|------12------11------10-------9~/--|
|------------------------------------|
|------------------------------------|

  +  + + + +  + +   +  + + + +  + +   +  + + + +  + +   +  + + + +  + +   
|------------------------------------------------------------------------------|
|------------------------------------------------------------------------------|
|------------------------------------------------------------------------------|
|------------------------------------------------------------------------------|
|------------------------------------------------------------------------------|
|-0--0-0-0-0--0-0---0--0-0-0-0--0-0---0--0-0-0-0--0-0---0--0-0-0-0--0-0--------|

  +  + + + +  + +   +  + + + +  + +      +  + + + +  +      
|-----------------------------------------------------------------------------|
|-----------------------------------------------------------------------------|
|-----------------------------------------------------------10-101010-1010----|
|----------------------------------------------------3--3---10-101010-1010----|
|----------------------------------------------------3--3----8--8-8-8--8-8----|
|-0--0-0-0-0--0-0---0--0-0-0-0--0-0------1--1-1-1-1--1--1---------------------|

|--------------------------------------------|
|--------------------------------------------|
|--------------------------------------------|
|--------------------------------------------|
|----2----2--3-5-3-2---2-----2----2--3-5-3---|
|--0----0------------0-----0----0----------1~|

|--------------------------------------------------------| Repeat above and below harmonies 2x
|--------------------------------------------------------|
|---------------7-----------------------------7----------|
|----9----9--10---10-9------9-----9----9--10----10-------|
|--7----7---------------7-----7-----7---------------8~---|
|--------------------------------------------------------|
     ++++++++     ++++++++       + +
|-----------------------------------------| Repeat (this riff 4x)
|-----------------------------------------| Harmonies 2x 
|--9----------9/7-------------------------| Repeat 4x (this riff 4x)
|--9----------9/7-----------5/7------5/7--|
|--7----------7/5-----------5/7------5/7--|
|----00000000-----00000000--3/5--0-0-3/5--|

|-------------------| Repeat 4x 
|-------------------| 
|-------------------|
|---10-9-----9------|
|-7------8-9---9-8--|
|-------------------|

|------------------------------------------------------------------------------|
|------------------------------------------------------------------------------|
|---8-7-----7---------8-7-----7-------7-------7---------8--------8-------------|
|-5-----6-7---7-6---5-----6-7---7-6-----9-8-7---9-8-7-----10-9-8---10----------|
|------------------------------------------------------------------------------|
|------------------------------------------------------------------------------|
     + + + + +   + +
|--------------------|
|--------------------|
|--------------------|
|--5-4-3-2-3-4-5-4-3-|
|--5-4-3-2-3-4-5-4-3-|
|--3-2-1-0-1-2-3-2-1-|

Riff 3
      + +++  + + + 3x
|------------------|------------------| Repeat this riff 4x
|------------------|------------------|
|------------------|--7/6---7/6---7/6-|
|--5~--------------|--x-----x-----x---|
|--7~--------------|--5/4---5/4---5/4-|
|-----0-000--0-0-0-|------------------|
      
      + +++  + + +                     
|--------------------------------| Repeat 3x
|--------------------------------|
|--------------------------4--7--|
|--4-----------------5--5--4--7--|
|--4-----------------5--5--2--5--|
|--2--2-222--2-2-2---3--3--------|

      + +++  + + + + +  + +++ + + + 
|-----------------------------------|
|-----------------------------------|
|-----------------------------------|
|--4--------------------------------|
|--4--------------------------------|
|--2--2-222--2-2-2-2-2--2-222-2-2-2-|

So we close that line...
         3x
|---------|--------------------------------------|
|---------|--------------------------------------|
|---------|--7/6---7/6--7/6---9/8---9/8--9/8-----|
|--5~~~/x-|--x-----x----x-----x-----x----x-------|
|--7~~~/x-|--5/4---5/4--5/4---7/6---7/6--7/6-----|
|---------|--------------------------------------|

   Suffer    unto   my    a   poc   a  lypse 
|-------------------------------------|
|-------------------------------------|
|--------------------8----8----8----8-|
|--6666666666666666--8----8----8----8-|
|--5555555555555555--6----6----6----6-|
|-------------------------------------|

  + + + + + + + + + + + + + + + + 
|---------------------------------|
|---------------------------------|
|---------------------------------|
|---------------------------------|
|---------------------------------|
|-0-0-0-0-0-0-0-0-0-0-0-0-0-0-0-0-|

     + + + + +   + +
|--------------------| Repeat 4x times then...
|--------------------|
|--------------------|
|--5-4-3-2-3-4-5-4-3-|
|--5-4-3-2-3-4-5-4-3-|
|--3-2-1-0-1-2-3-2-1-|

|------|
|------| Rapidly pick this chord
|--10--|
|--10--|
|--8---|
|--8---|

|------|
|------| Let this chord ring in the left channel (around 4:46)
|--8---|
|--8---|
|--8---|
|--8---|

Then end off with a slide up and down.

Riff 1 4x
Riff 2 2x
Riff 3 4x
Riff 4 3x
Riff 5 1x
Chorus 1x
Riff 3 4x
Riff 4 3x
Riff 5 1x
Chorus 1x
Riff 3 1x
Riff 6 8x
See above for other Rhythm
Solo
See above as well

Key:
+ - palm mute
~ - vibrato
/ - slide up or down
x - mute
h - hammer on
p - pull off
b - bend
r - release bend


comments
print report bad tab
15 comments total. Showing first comments. show 1 bad comment
+3 reply
JAMSRS wrote on September 25 2008, 11:46 am

Seems okay but I haven't played much of it

-2 reply
tdrules wrote on September 25 2008, 06:30 pm

if this isnt copy pasta then this is a work of genius

I want to post or [tab]
guest
You may want to rate the tab now too:
select rating
Please do not post tabs as comments. Select "correction" instead!