Oops, an error
Loading. Please wait.

Death Magnetic Tab

ver2
ver2

Album

Interactive

More versions @911Tabs.com
72,568 views 51 this week
9 commentsread comments
1 2 3 4 5
excellent!
x 16
Autoscroll
+/-
esc
set tempo
stop
Contributor
Hey! There's an official Ultimate Guitar app which is ideal
for learning songs when you're away from computer. Get the app
WARNING: You are trying to view
                                    content from Ultimate-Guitar.com
                                    in an unauthorized application,
                                    which is prohibited.

                                    Please use an official Ultimate
                                    Guitar Tabs application for iPhone,
                                    iPad or Android to access legitimate
                                    chords, guitar, bass, and drum tabs
                                    from Ultimate-Guitar.com database.

                                    Type "ultimate guitar tabs" in Apple
                                    App Store's or Android Market's
                                    search to find the application.
                          METALLICA - DEATH MAGNETIC


=================================================================================== 
                           THAT WAS JUST YOUR LIFE
===================================================================================

Tabbed by: Jaymz Haas
Email: the.master.ofpuppets@hotmail.com

Tuning: Standard



Guitar I:  James Hetfield (Left Speaker)
Guitar II: Kirk Hammett (Right Speaker)

Clean Intro: 0:09
Guitar I
e|-------------------------------------------------------------------------|
B|-------------------------------------------------------------------------|
G|-------------0-------------------------------------0---------------------|
D|----------2--------2------------3--------------2--------2------------3---|
A|-----1----------------------1------------1----------------------1--------|
E|--0----------------------0------------0----------------------0-----------|

Guitar II:
e|-------------------------------------------------------------------------|
B|-------------------------------------------------------------------------|
G|-------------------------------------------------------------------------|
D|-------------------------------------------------------------------------|
A|-------------------------------------------------------------------------|
E|-------------------------------------------------------------------------|



continued: 0:20
Guitar I
e|-------------------------------------------------------------------------|
B|-------------------------------------------------------------------------|
G|-------------0-------------------------------------0---------------------|
D|----------2--------2------------3--------------2--------2------------3---|
A|-----1----------------------1------------1----------------------1--------|
E|--0----------------------0------------0----------------------0-----------|

Guitar II:
e|---------------------------------------------0---------------------------|
B|-------------------------------------------------------------------------|
G|-------------------------------------5-----------------------------------|
D|---------------------------------10-----9--8-----------------------------|
A|-------------------------------------------------------------------------|
E|-------------------------------------------------------------------------|



continued: 0:20
Guitar I
e|-------------------------------------------------------------------------|
B|-------------------------------------------------------------------------|
G|-------------0-------------------------------------0---------------------|
D|----------2--------2------------3--------------2--------2------------3---|
A|-----1----------------------1------------1----------------------1--------|
E|--0----------------------0------------0----------------------0-----------|

Guitar II: (the first lead in this bar is played inbetween the top bar and 
the previous)
e|---------------0-------------------------0-------------------------------|
B|-------------------------------------------------------------------------|
G|------5--------------------------5---------------------------------------|
D|--10-----9--8----------------10----9--8----------------------------------|
A|-------------------------------------------------------------------------|
E|-------------------------------------------------------------------------|


continued: 0:32
Guitar I
e|-------------------------------------------------------------------------|
B|-------------------------------------------------------------------------|
G|-------------0-------------------------------------0---------------------|
D|----------2--------2------------3--------------2--------2------------3---|
A|-----1----------------------1------------1----------------------1--------|
E|--0----------------------0------------0----------------------0-----------|

Guitar II: (the first lead in this bar is played inbetween the top bar and 
the previous)
e|---------------0-------------------------0-------------------------------|
B|-------------------------------------------------------------------------|
G|------5--------------------------5---------------------------------------|
D|--10-----9--8----------------10----9--8----------------------------------|
A|-------------------------------------------------------------------------|
E|-------------------------------------------------------------------------|



continued: 0:44
Guitar I
e|-------------------------------------------------------------------------|
B|-------------------------------------------------------------------------|
G|-------------0-------------------------------------0---------------------|
D|----------2--------2------------3--------------2--------2------------3---|
A|-----1----------------------1------------1----------------------1--------|
E|--0----------------------0------------0----------------------0-----------|

Guitar II: (the first lead in this bar is played inbetween the top bar and 
the previous)
e|---------------0-------------------------0-------------------------------|
B|-------------------------------------------------------------------------|
G|------12-------------------------5---------------------------------------|
D|--10-----9--8----------------10----9--8----------------------------------|
A|-------------------------------------------------------------------------|
E|-------------------------------------------------------------------------|

IMPORTANT: the next two guitars play at the same time as the last bar of 
clean intro.
Guitar I
e|---------------------------------------------------------------------|
B|---------------------------------------------------------------------|
G|---------------------------------------------------------------------|
D|--2------------------2---2---3--------2------------------2---2---3---|
A|--2----2-2--2--2-----2---1---3--------2----2-2--2--2-----2---1---3---|
E|--0----0-0--0--0-----0---0---1--------0----0-0--0--0-----0---0---1---|
         * *  *  *                           * *  *  *
Guitar II: 
e|---------------------------------------------------------------------|
B|---------------------------------------------------------------------|
G|---------------------------------------------------------------------|
D|--2------------------2---2---3--------2------------------2---2---3---|
A|--2----2-2--2--2-----2---1---3--------2----2-2--2--2-----2---1---3---|
E|--0----0-0--0--0-----0---0---1--------0----0-0--0--0-----0---0---1---|
         * *  *  *                           * *  *  *


continued electric intro: (Guitar tabs are not in sync, Kirk plays the leads
 inbetween the chords....you know what I mean)
Guitar I
e|---------------------------------------------------------------------|
B|---------------------------------------------------------------------|
G|---------------------------------------------------------------------|
D|--2------------------2---2---3--------2------------------2---2---3---|
A|--2----2-2--2--2-----2---1---3--------2----2-2--2--2-----2---1---3---|
E|--0----0-0--0--0-----0---0---1--------0----0-0--0--0-----0---0---1---|
         * *  *  *                           * *  *  *
Guitar II: 
e|-------------6~~~~~-----------------------6~~~~~---------------------|
B|--8-8-7--5--(6)~~~~------------8-8-7--5--(6)~~~~---------------------|
G|--5-5-4--2---------------------5-5-4--2------------------------------|
D|---------------------------------------------------------------------|
A|---------------------------------------------------------------------|
E|---------------------------------------------------------------------|


Slow Electric Riff: 1:07
Both Guitars
e|------|------------------------------------------|
B|------|------------------------------------------|  
G|------|*----------------------------------------*|
D|--2~--|*-----------------------------------2~---*|
A|--2~--|------7~-------8-8-8-8--3--3--3---5-2~----|
E|--0~--|--/6~----6~~---6-6-6-6--1--1--1---3-0~----|
         

Slightly Different Riff: 1:17
Both Guitars
e|-------------------------------------------------------------------------|
B|-------------------------------------------------------------------------|
G|-------------------------------------------------------------------------|
D|--2~-------------2~-------------------2~-------------2~------------------|
A|--2~-------7~~---2~-------7-8--3------2~-------7~~---2~-------7-8--3-----|
E|--0~---/6~-------0~---/6~---6--1------0~---/6~-------0~---/6~---6--1-----|


"That 80's RIff" which is also the main riff, verse riff, and backbone of 
the song :P
Only James plays this to start
Guitar I: 1:27
e|-------------------------------------------------------------------------|
B|-------------------------------------------------------------------------|
G|-------------------------------------------------------------------------|
D|-------------------------------------------------------------------------|
A|-----------7-----------------7-----------------7-------------------------|
E|--000--5-6---6-5-6--000--5-6---6-5-6--000--5-6---6-5-6---5-3-5-6-5-3-2-1-|
    ***               ***               ***

1:32
Guitar I:
e|-------------------------------------------------------------------------|
B|-------------------------------------------------------------------------|
G|-------------------------------------------------------------------------|
D|-------------------------------------------------------------------------|
A|-----------7-----------------7-----------------7-------------------------|
E|--000--5-6---6-5-6--000--5-6---6-5-6--000--5-6---6-5-6---5-3-5-6-5-3-2-1-|
    ***               ***               ***
Guitar II:
e|-------------------------------------------------------------------------|
B|-------------------------------------------------------------------------|
G|-------------------------------------------------------------------------|
D|-------------------------------------------------------------------------|
A|-------------------------------------------------------------------------|
E|--000---------------000---------------000----------------1---------------|
    ***               ***               ***                *


1:37
This is where the song really starts when the drums come in and you get a 
good feel for the rhythm
Both Guitars:
e|-------------------------------------------------------------------------|
B|-------------------------------------------------------------------------|
G|-------------------------------------------------------------------------|
D|-------------------------------------------------------------------------|
A|-----------7-----------------7-----------------7-------------------------|
E|--000--5-6---6-5-6--000--5-6---6-5-6--000--5-6---6-5-6---5-3-5-6-5-3-2-1-|
    ***               ***               ***
Both Guitars:
e|-------------------------------------------------------------------------|
B|-------------------------------------------------------------------------|
G|-------------------------------------------------------------------------|
D|-------------------------------------------------------------------------|
A|-----------7-----------------7-----------------7-------------------------|
E|--000--5-6---6-5-6--000--5-6---6-5-6--000--5-6---6-5-6---5-3-5-6-5-3-2-1-|
    ***               ***               ***

Both Guitars: 1:47
e|-------------------------------------------------------------------------|
B|-------------------------------------------------------------------------|
G|-------------------------------------------------------------------------|
D|-------------------------------------------------------------------------|
A|---------7---------7--------7---8--3---------7----------7--------7--8--3-|
E|--0--5h6----0--5h6----0-5h6-----6--1--0--5h6-----0--5h6----0-5h6----6--1-|
    


Verse 1:
Both Guitars:
e|-------------------------------------------------------------------------|
B|-------------------------------------------------------------------------|
G|-------------------------------------------------------------------------|
D|-------------------------------------------------------------------------|
A|-----------7-----------------7-----------------7-------------------------|
E|--000--5-6---6-5-6--000--5-6---6-5-6--000--5-6---6-5-6---5-3-5-6-5-3-2-1-|
    ***               ***               ***
    Like a siren in my head that always threatens to repeat
    Like a blind man that is strapped into the speeding driver's seat

Both Guitars:
e|-------------------------------------------------------------------------|
B|-------------------------------------------------------------------------|
G|-------------------------------------------------------------------------|
D|--------------------------------------------------------5----------------|
A|-----------7-----------------7-----------------7--------3--------3-------|
E|--000--5-6---6-5-6--000--5-6---6-5-6--000--5-6---6-5-6----0-0-0--1-0-0-0-|
    ***               ***               ***                 * * *    * * *
    Like a face      that learned to speak, when all it knew was how to bite
    
Both Guitars:
e|-------------------------------------------------------------------------|
B|-------------------------------------------------------------------------|
G|-------------------------------------------------------------------------|
D|-------------------------------------------------------------------------|
A|-----------7-----------------7-----------------7-------------------------|
E|--000--5-6---6-5-6--000--5-6---6-5-6--000--5-6---6-5-6---5-3-5-6-5-3-2-1-|
    ***               ***               ***
    Like a misery that keeps me focused though I've gone astray
    Like an endless nightmare that I must awaken from each day

Both Guitars:
e|-------------------------------------------------------------------------|
B|-------------------------------------------------------------------------|
G|-------------------------------------------------------------------------|
D|--------------------------------------------------------5----------------|
A|-----------7-----------------7-----------------7--------3--------3-------|
E|--000--5-6---6-5-6--000--5-6---6-5-6--000--5-6---6-5-6----0-0-0--1-0-0-0-|
    ***               ***               ***                 * * *    * * *
    Like Conviction,     A premonition,         Not worthy of so I deny  


And then this bit, which reminds me alot of the "Never!!!" part in Blackened
e|---------------------------------------|
B|---------------------------------------|
G|---------------------------------------|
D|---------------------------------------|
A|---------7---------7--------7---8--3---|
E|--0--5h6----0--5h6----0-5h6-----6--1---|
       I Deny!!!

Bridge: 2:22
Both Guitars
e|----------------------------------------------------------------------|
B|----------------------------------------------------------------------|
G|----------------------------------------------------------------------| x3
D|----------------------------------------------------------------------|
A|--2-2--------------2-2--------------2-2-------------------------------|
E|--0-0---0---0---0--0-0---0---0---0--0-0---0---0----0-5-3-5-6-5-3-2-1--|
    * *   *   *   *  * *   *   *   *  * *   *   *    *
    1. I blind my eyes and try to force it all into place,
    2. I stitch them up, see not my fall from grace.
    3. I blind my eyes, I hide and feel it passing me by,

4th time
Guitar I:
e|---------------X-X-----------------------------------------|
B|---------------X-X-----------------------------------------|
G|---------------X-X-----------------------------------------|
D|----------------------------------------------5-5----------|
A|--2--2--3--3--------2--3--3-------2--3--3-----3-3---3-3----|
E|--0--0--1--1--------0--1--1-------0--1--1-----------1-1----|
    *  *              *             *
Guitar II:
e|-----------------------------------------------------------|
B|-----------------------------------------------------------|
G|-----------------------------------------------------------|
D|----------------------------------------------5-5----------|
A|--2--2--3--3--------2--3--3-------2--3--3-----3-3---3-3----|
E|--0--0--1--1--------0--1--1-------0--1--1-----------1-1----|
    *  *              *             *
    I open just in time to say goodbye

Chorus: 2:44
Both Guitars:
e|-------------------------------------------------------|
B|-------------------------------------------------------|
G|-------------------------------------------------------|
D|-9-9-9-9-9------------------------------9-9---9--9---9-|
A|-7-7-7-7-7-8--7-7-7-7-7-5--3-3-3-3-3----7-7---7--7---7-|
E|-0-0-0-0-0-6--5-5-5-5-5-3--1-1-1-1-1----0-0---0--0---0-|
   Almost like your life, Almost like your endless fight

e|-------------------------------------------------------|
B|-------------------------------------------------------|
G|-------------------------------------------------------|
D|-9-9-9-9-9------------------------------5-5---5--5---5-|
A|-7-7-7-7-7-8--7-7-7-7-7-5--3-3-3-3-3----3-3---3--3---3-|
E|-0-0-0-0-0-6--5-5-5-5-5-3--1-1-1-1-1-------------------|
   Curse the day is long,       Realize you don't belong

e|-------------------------------------------------------|
B|-------------------------------------------------------|
G|-------------------------------------------------------|
D|-9-9-9-9-9------------------------------7-7---7--7---7-|
A|-7-7-7-7-7-8--7-7-7-7-7-5--3-3-3-3-3----5-5---5--5---5-|
E|-0-0-0-0-0-6--5-5-5-5-5-3--1-1-1-1-1-------------------|
   Disconnect somehow,       Never stop the bleeding now

e|-----------------------------------------|
B|-----------------------------------------|
G|-----------------------------------------|
D|-9-9-9-9-9-------------------------------|
A|-7-7-7-7-7-8--7-7-7-7-7-5--3-3-3-3-3-----|
E|-0-0-0-0-0-6--5-5-5-5-5-3--1-1-1-1-1-----|
   Almost like your fight, And there it went

Guitar I only:
e|-----------------|
B|-----------------|
G|-----------------|
D|--9-9---9--9---9-|
A|--7-7---7--7---7-|
E|-----------------|
 Almost like your life



Back to Main Riff:
Both Guitars:
e|-------------------------------------------------------------------------|
B|-------------------------------------------------------------------------|
G|-------------------------------------------------------------------------|
D|-------------------------------------------------------------------------|
A|-----------7-----------------7-----------------7-------------------------|
E|--000--5-6---6-5-6--000--5-6---6-5-6--000--5-6---6-5-6---5-3-5-6-5-3-2-1-|
    ***               ***               ***
Both Guitars:
e|-------------------------------------------------------------------------|
B|-------------------------------------------------------------------------|
G|-------------------------------------------------------------------------|
D|-------------------------------------------------------------------------|
A|-----------7-----------------7-----------------7-------------------------|
E|--000--5-6---6-5-6--000--5-6---6-5-6--000--5-6---6-5-6---5-3-5-6-5-3-2-1-|
    ***               ***               ***

Both Guitars: 
e|-------------------------------------------------------------------------|
B|-------------------------------------------------------------------------|
G|-------------------------------------------------------------------------|
D|-------------------------------------------------------------------------|
A|---------7---------7--------7---8--3---------7----------7--------7--8--3-|
E|--0--5h6----0--5h6----0-5h6-----6--1--0--5h6-----0--5h6----0-5h6----6--1-|

Verse 2:
Both Guitars:
e|-------------------------------------------------------------------------|
B|-------------------------------------------------------------------------|
G|-------------------------------------------------------------------------|
D|-------------------------------------------------------------------------|
A|-----------7-----------------7-----------------7-------------------------|
E|--000--5-6---6-5-6--000--5-6---6-5-6--000--5-6---6-5-6---5-3-5-6-5-3-2-1-|
    ***               ***               ***
    Like a wound that keeps on bleeding to remind me not to think
    Like a raging river drowning when I only need a drink

Both Guitars:
e|-------------------------------------------------------------------------|
B|-------------------------------------------------------------------------|
G|-------------------------------------------------------------------------|
D|--------------------------------------------------------5----------------|
A|-----------7-----------------7-----------------7--------3--------3-------|
E|--000--5-6---6-5-6--000--5-6---6-5-6--000--5-6---6-5-6----0-0-0--1-0-0-0-|
    ***               ***               ***                 * * *    * * *
    Like a poison            that I swallow, but I want the world to die
    
Both Guitars:
e|-------------------------------------------------------------------------|
B|-------------------------------------------------------------------------|
G|-------------------------------------------------------------------------|
D|-------------------------------------------------------------------------|
A|-----------7-----------------7-----------------7-------------------------|
E|--000--5-6---6-5-6--000--5-6---6-5-6--000--5-6---6-5-6---5-3-5-6-5-3-2-1-|
    ***               ***               ***
    Like a release from prison that I didn't know I was in,
    Like a fight to live the past I prayed to leave from way back then

Both Guitars:
e|-------------------------------------------------------------------------|
B|-------------------------------------------------------------------------|
G|-------------------------------------------------------------------------|
D|--------------------------------------------------------5----------------|
A|-----------7-----------------7-----------------7--------3--------3-------|
E|--000--5-6---6-5-6--000--5-6---6-5-6--000--5-6---6-5-6----0-0-0--1-0-0-0-|
    ***               ***               ***                 * * *    * * *
    Like a general      without a mission    until the wars will start again  


e|---------------------------------------|
B|---------------------------------------|
G|---------------------------------------|
D|---------------------------------------|
A|---------7---------7--------7---8--3---|
E|--0--5h6----0--5h6----0-5h6-----6--1---|
       Start Again!

Both Guitars
e|----------------------------------------------------------------------|
B|----------------------------------------------------------------------|
G|----------------------------------------------------------------------| x3
D|----------------------------------------------------------------------|
A|--2-2--------------2-2--------------2-2-------------------------------|
E|--0-0---0---0---0--0-0---0---0---0--0-0---0---0----0-5-3-5-6-5-3-2-1--|
    * *   *   *   *  * *   *   *   *  * *   *   *    *
    1. I blind my eyes and try to force it all into place,
    2. I stitch them up, see not my fall from grace.
    3. I blind my eyes, I hide and feel it passing me by,

4th time
Guitar I:
e|---------------X-X-----------------------------------------|
B|---------------X-X-----------------------------------------|
G|---------------X-X-----------------------------------------|
D|----------------------------------------------5-5----------|
A|--2--2--3--3--------2--3--3-------2--3--3-----3-3---3-3----|
E|--0--0--1--1--------0--1--1-------0--1--1-----------1-1----|
    *  *              *             *
Guitar II:
e|-----------------------------------------------------------|
B|-----------------------------------------------------------|
G|-----------------------------------------------------------|
D|----------------------------------------------5-5----------|
A|--2--2--3--3--------2--3--3-------2--3--3-----3-3---3-3----|
E|--0--0--1--1--------0--1--1-------0--1--1-----------1-1----|
    *  *              *             *
    I open just in time to say goodbye



Chorus:
Both Guitars:
e|-------------------------------------------------------|
B|-------------------------------------------------------|
G|-------------------------------------------------------|
D|-9-9-9-9-9------------------------------9-9---9--9---9-|
A|-7-7-7-7-7-8--7-7-7-7-7-5--3-3-3-3-3----7-7---7--7---7-|
E|-0-0-0-0-0-6--5-5-5-5-5-3--1-1-1-1-1----0-0---0--0---0-|
   Almost like your life, Almost like your endless fight

e|-------------------------------------------------------|
B|-------------------------------------------------------|
G|-------------------------------------------------------|
D|-9-9-9-9-9------------------------------5-5---5--5---5-|
A|-7-7-7-7-7-8--7-7-7-7-7-5--3-3-3-3-3----3-3---3--3---3-|
E|-0-0-0-0-0-6--5-5-5-5-5-3--1-1-1-1-1-------------------|
   Curse the day is long,       Realize you don't belong
   
e|-------------------------------------------------------|
B|-------------------------------------------------------|
G|-------------------------------------------------------|
D|-9-9-9-9-9------------------------------7-7---7--7---7-|
A|-7-7-7-7-7-8--7-7-7-7-7-5--3-3-3-3-3----5-5---5--5---5-|
E|-0-0-0-0-0-6--5-5-5-5-5-3--1-1-1-1-1-------------------|
   Disconnect somehow,       Never stop the bleeding now

e|-----------------------------------------|
B|-----------------------------------------|
G|-----------------------------------------|
D|-9-9-9-9-9-------------------------------|
A|-7-7-7-7-7-8--7-7-7-7-7-5--3-3-3-3-3-----|
E|-0-0-0-0-0-6--5-5-5-5-5-3--1-1-1-1-1-----|
   Almost like your fight, And there it went,

Guitar I only:
e|-----------------|
B|-----------------|
G|-----------------|
D|--9-9---9--9---9-|
A|--7-7---7--7---7-|
E|-----------------|
 Almost like your life





Bridge 2: 4:27
Guitar I:
e|--------------------------------------------------------------|
B|--------------------------------------------------------------|
G|--------------------------------------------------------------|
D|--------------------------------------------------------------|
A|-----------8-8--7--(8)7------------------8-8--7--(8)7---------|
E|-000--0-0---------6-----<6>~~~-000--0-0---------6-----7~~~----|
   ***  * *              (PH)    ***  * *
Guitar II:
e|--------------------------------------------------------------|
B|--------------------------------------------------------------|
G|--------------------------------------------------------------|
D|--------------------------------------------------------------|
A|--------------------------------------------------------------|
E|-000--0-0----------------------000--0-0-----------------------|
   ***  * *                      ***  * *
Guitar III: Im guessing James played this over the top of the two harmonies
e|--------------------------------------------------------------|
B|--------------------------------------------------------------|
G|--------------------------------------------------------------|
D|--------------------------------------------------------------|
A|--------------------------------------------------------------|
E|-----------0-0--0-0---0------------------0-0--0-0---0---------|
             * *  * *   *                  * *  * *   *

Guitar I:
e|--------------------------------------------------------------| \
B|--------------------------------------------------------------|  \
G|--------------------------------------------------------------|   \
D|--------------------------------------------------------------|    \
A|-----------8-8--7--(8)7------------------8-8--7--(8)7---------|     \
E|-000--0-0---------6-----6~~~---000--0-0---------6-----7~~~----|      \
   ***  * *                      ***  * *                               |
Guitar II:                                                              |
e|--------------------------------------------------------------|       |
B|--------------------------------------------------------------|       | 
G|--------------------------------------------------------------|       | X2
D|-----------7-7--6---7-6------------------7-7--6---7-6---------|       |
A|------------------5-----5~~~--------------------5-----7~~~----|       |
E|-000--0-0----------------------000--0-0-----------------------|       |
   ***  * *                      ***  * *                               |
Guitar III:                                                             |
e|--------------------------------------------------------------|      /
B|--------------------------------------------------------------|     /
G|--------------------------------------------------------------|    /
D|--------------------------------------------------------------|   /
A|--------------------------------------------------------------|  /
E|-----------0-0--0-0---0------------------0-0--0-0---0---------|/
             * *  * *   *                  * *  * *   *

Guitar I:
e|--------------------------------------------------------------| 
B|--------------------------------------------------------------|  
G|--------------------------------------------------------------|   
D|--------------------------------------------------------------|    
A|-----------8-8--7--(8)7------------------8-8--7--(8)7---------|     
E|-000--0-0---------6-----6~~~---000--0-0---------6-----7~~~----|      
   ***  * *                      ***  * *                               
Guitar II:                                                              
e|--------------------------------------------------------------|      
B|--------------------------------------------------------------|       
G|--------------------------------------------------------------|       
D|-----------7-7--6---7-6------------------7-7--6---7-6---------|       
A|------------------5-----5~~~--------------------5-----7~~~----|      
E|-000--0-0----------------------000--0-0-----------------------|       
   ***  * *                      ***  * *                               
Guitar III:                                                             
e|--------------------------------------------------------------|      
B|----------10-10-9--10-9-----------------10-10-9---10-9--------|  
G|------------------7-----7~~~~-------------------7------9~~~---|  
D|--------------------------------------------------------------|  
A|--------------------------------------------------------------|  
E|--------------------------------------------------------------|




Solo Build Up: 4:48
Both Guitars
e|-------------------------------------------------------------------------|
B|-------------------------------------------------------------------------|
G|-------------------------------------------------------------------------|
D|-------------------------------------------------------------------------|
A|-------------------------------------------------------------------------|
E|--000--0-0-0-0-0-0--000--0-0-0-0-0-0--000--0-0-0-0-0-0--000-000-000-000--|
    ***  * * * * * *  ***  * * * * * *  ***  * * * * * *  *** *** *** ***

4:51
Solo: Rhythm
Guitar I:
e|-------------------------------------------------------|
B|-------------------------------------------------------|
G|-------------------------------------------------------|
D|-9-9-9-9-9---------------------------------------------|
A|-7-7-7-7-7-8--7-7-7-7-7-5--3-3-3-3-3--2-2-2-2-2-2-2-2--|
E|-0-0-0-0-0-6--5-5-5-5-5-3--1-1-1-1-1--0-0-0-0-0-0-0-0--|

e|-------------------------------------------------------|
B|-------------------------------------------------------|
G|-------------------------------------------------------|
D|-9-9-9-9-9----------------------------5-5-5-5-5-5-5-5--|
A|-7-7-7-7-7-8--7-7-7-7-7-5--3-3-3-3-3--3-3-3-3-3-3-3-3--|
E|-0-0-0-0-0-6--5-5-5-5-5-3--1-1-1-1-1-------------------|

e|-------------------------------------------------------|
B|-------------------------------------------------------|
G|-------------------------------------------------------|
D|-9-9-9-9-9----------------------------7-7-7-7-7-7-7-7--|
A|-7-7-7-7-7-8--7-7-7-7-7-5--3-3-3-3-3--5-5-5-5-5-5-5-5--|
E|-0-0-0-0-0-6--5-5-5-5-5-3--1-1-1-1-1-------------------|

e|-----------------------------------------|
B|-----------------------------------------|
G|-----------------------------------------|
D|-9-9-9-9-9-------------------------------|
A|-7-7-7-7-7-8--7-7-7-7-7-5--3-3-3-3-3--2--|
E|-0-0-0-0-0-6--5-5-5-5-5-3--1-1-1-1-1--0--|

Solo: Lead
Guitar II: Wah Pedal

4:52
e|-------------------------------------------------------------------------|
B|-15h17p15p12-15h17p15p12-15h17p15p12-15h17p15p12-15h17p15p12-15h17p15p12-|
G|-------------------------------------------------------------------------|
D|-------------------------------------------------------------------------|
A|-------------------------------------------------------------------------|
E|-------------------------------------------------------------------------|

e|-------------------------------------------------------------------------|
B|-15h17p15p12-15h17p15p12-15h17p15p12-15h17p15p12-15h17p15p12-15h17p15p12-|
G|-------------------------------------------------------------------------|
D|-------------------------------------------------------------------------|
A|-------------------------------------------------------------------------|
E|-------------------------------------------------------------------------|

4:56           4:57                        4:58                 4:59
e|------------------------------17b(19)~~------------------------17b(19)~~-|
B|-17b(19)-17~-15h17p15--15--15------------15h17p15--15h17p15p12-----------|
G|-------------------------16----------------------------------------------|
D|-------------------------------------------------------------------------|
A|-------------------------------------------------------------------------|
E|-------------------------------------------------------------------------|

         5:00               5:01 
e|-------------------------------------------------------------------------|
B|--15h17p15---12h15p12----------------------------------------------------|
G|-----------------------14----12-14--12-14--------12~----12~--------------|
D|----------------------------------------------14-----14-----12~~---------|
A|-------------------------------------------------------------------------|
E|-------------------------------------------------------------------------|

   5:02                        5:03                5:04
e|-------------------------------------------------------------------------|
B|-------------------------------------------------------------------------|
G|-4p0h4p0-5p0h5p0-4p0h4p0-5p0h5p0-4p0h4p0-5p0h5p0-4p0h4p0-5p0h5p0-7p0h7p0-|
D|-------------------------------------------------------------------------|
A|-------------------------------------------------------------------------|
E|-------------------------------------------------------------------------|
  
   5:05                     5:06
e|--------------------------------------------------------------------|
B|--------------------------------------------------------------------|
G|-5p0h5p0-4p0h4p0-5p0h5p0--4-0wah\-----------------------------------|
D|----------------------------5wah-\----------------------------------|
A|----------------------------5wah--\---------------------------------|
E|-----------------------------------\--------------------------------|
                                     (slide or tremolo/whammy bar dip)
      5:07          5:08                5:09
e|---------------------------------------------------------|
B|----/12----------/12----------/12----------/12-----------|
G|--------12-14p12-----12-14p12-----12-14p12-----12-14p12--|
D|---------------------------------------------------------|
A|---------------------------------------------------------|
E|---------------------------------------------------------|

                5:10               5:11
e|----------------------------------------------------|
B|----------------------------------------------------|
G|----------------------------------------------------|
D|--------9wah-10wah-12wah-10wah----------------------|
A|---------------------------------12WAH\-------------|
E|---------------------------------12WAH-\------------|
                                          Tremolo/Whammy Bar dip


Verse 3:
Both Guitars:
e|-------------------------------------------------------------------------|
B|-------------------------------------------------------------------------|
G|-------------------------------------------------------------------------|
D|-------------------------------------------------------------------------|
A|-----------7-----------------7-----------------7-------------------------|
E|--000--5-6---6-5-6--000--5-6---6-5-6--000--5-6---6-5-6---5-3-5-6-5-3-2-1-|
    ***               ***               ***
    Like a touch from hell to feel how hot that it can get if you get caught

Both Guitars:
e|-------------------------------------------------------------------------|
B|-------------------------------------------------------------------------|
G|-------------------------------------------------------------------------|
D|--------------------------------------------------------5----------------|
A|-----------7-----------------7-----------------7--------3--------3-------|
E|--000--5-6---6-5-6--000--5-6---6-5-6--000--5-6---6-5-6----0-0-0--1-0-0-0-|
    ***               ***               ***                 * * *    * * *
    Like a strike from heaven to reprieve that brings you straight down to              
    your knees

Both Guitars:
e|-------------------------------------------------------------------------|
B|-------------------------------------------------------------------------|
G|-------------------------------------------------------------------------|
D|-------------------------------------------------------------------------|
A|-----------7-----------------7-----------------7-------------------------|
E|--000--5-6---6-5-6--000--5-6---6-5-6--000--5-6---6-5-6---5-3-5-6-5-3-2-1-|
    ***               ***               ***
    Like a touch from hell to feel how hot that it can get if I get caught,

Both Guitars:
e|-------------------------------------------------------------------------|
B|-------------------------------------------------------------------------|
G|-------------------------------------------------------------------------|
D|--------------------------------------------------------5----------------|
A|-----------7-----------------7-----------------7--------3--------3-------|
E|--000--5-6---6-5-6--000--5-6---6-5-6--000--5-6---6-5-6----0-0-0--1-0-0-0-|
    ***               ***               ***                 * * *    * * *
    Like a strike from heaven to reprieve that brings you straight down to              
    your knees  

Then this riff again: 5:32
Guitar I:
e|--------------------------------------------------------------| \
B|--------------------------------------------------------------|  \
G|--------------------------------------------------------------|   \
D|--------------------------------------------------------------|    \
A|-----------8-8--7--(8)7------------------8-8--7--(8)7---------|     \
E|-000--0-0---------6-----6~~~---000--0-0---------6-----7~~~----|      \
   ***  * *                      ***  * *                               |
Guitar II:                                                              |
e|--------------------------------------------------------------|       |
B|--------------------------------------------------------------|       | 
G|--------------------------------------------------------------|       | X2
D|-----------7-7--6---7-6------------------7-7--6---7-6---------|       |
A|------------------5-----5~~~--------------------5-----7~~~----|       |
E|-000--0-0----------------------000--0-0-----------------------|       |
   ***  * *                      ***  * *                               |
Guitar III:                                                             |
e|--------------------------------------------------------------|      /
B|--------------------------------------------------------------|     /
G|--------------------------------------------------------------|    /
D|--------------------------------------------------------------|   /
A|--------------------------------------------------------------|  /
E|-----------0-0--0-0---0------------------0-0--0-0---0---------|/
             * *  * *   *                  * *  * *   *

Both Guitars
e|-------------------------------------------------------------------------|
B|-------------------------------------------------------------------------|
G|-------------------------------------------------------------------------|
D|-------------------------------------------------------------------------|
A|-------------------------------------------------------------------------|
E|--000--0-0-0-0-0-0--000--0-0-0-0-0-0--000--0-0-0-0-0-0--000-000-000-000--|
    ***  * * * * * *  ***  * * * * * *  ***  * * * * * *  *** *** *** ***

Both Guitars:
e|-----------------------------------------|
B|-----------------------------------------|
G|-----------------------------------------|
D|-----------------------------------------|
A|---------7---------7--------7~~~~~~~~~~--|
E|--0--5h6----0--5h6----0-5h6--------------|
    
Dual Solo: 5:51
Guitar I:
e|-------------------------------------------------------------------------|
B|-------------------------------------------------------------------------|
G|--0-0h2p0/4~~2-0---------------------------------------------------------|
D|-----------------0~~-/4-4--2-0------/5-5-5-7-5------------7-7-7h9p7------|
A|-------------------------------0~~-------------/5-5-5-7-5-----------7-9~-|
E|-------------------------------------------------------------------------|

Guitar II:
e|----------------------------------------------------------0-0-0h3p0------|
B|--0-0h3p0/5~~------------------------------------------------------------|
G|------------/4-2----/4~~~-2-0-------/4-4-4-7-4----------------------4\2~-|
D|-----------------5~~----------0~~~-------------/4-4-4-7-4----------------|
A|-------------------------------------------------------------------------|
E|-------------------------------------------------------------------------|

Guitar III:
e|-------------------------------------------------------------------------|
B|-------------------------------------------------------------------------|
G|-------------------------------------------------------------------------|
D|----------------------4~~~~~~~7~~~~~~---------4~~~~~~~-2~~~~~~--7~~~~~~~-|
A|--2~~~~~~~~-5~~~~~~~~~2~~~~~~~5~~~~~~5~~~~~~~-2~~~~~~~~0~~~~~~~-5~~~~~~~-|
E|--0~~~~~~~~~3~~~~~~~~~~~~~~~---------3~~~~~~~----------------------------|



Guitar I: 6:03
e|-------------------------------------------------------------------------|
B|--0h3p0-5~~--3-0---------------------------------------------------------|
G|-----------------0~~--/4~~--2-0----4-4-4-7-4-----------4-4-4-7-4---2~~---|
D|--------------------------------0~~----------4-4-4-7-5-------------------|
A|-------------------------------------------------------------------------|
E|-------------------------------------------------------------------------|

Guitar II:
e|--0h2p0-3~~--2-0---------------------------------------0-0-0h3p0---------|
B|-----------------3~~~-/5~~~-3-0----3-3-3-5-3---------------------2/3~~---|
G|--------------------------------2~~----------2-2-2-4-2-------------------|
D|-------------------------------------------------------------------------|
A|-------------------------------------------------------------------------|
E|-------------------------------------------------------------------------|

Guitar III: 
e|-------------------------------------------------------------------------|
B|-------------------------------------------------------------------------|
G|-------------------------------------------------------------------------|
D|------------------------------------4----------------7-------------------|
A|--2-------2--------5----------------2-22222-2-22222--5-55555-5-55555-----|
E|--0-00000-0-00000--3-33333-3-33333---------------------------------------|
      *****   *****    *****   *****    ***** * *****    ***** * *****
Guitar III: continued
e|-------------------------------------------------------------------------|
B|-------------------------------------------------------------------------|
G|-------------------------------------------------------------------------|
D|-------------------4---------------------------------7-------------------|
A|--5----------------2-22222-2-22222--7----------------5-55555-5-55555-----|
E|--3-33333-3-33333-------------------5-55555-5-55555----------------------|
      *****   *****    *****   *****    ***** * *****    ***** * *****


IMPORTANT: While James and Kirk play that harmony, this riff is playyed as a
 backing track:
Guitar I:
e|--------------------------------------------------------------| \
B|--------------------------------------------------------------|  \
G|--------------------------------------------------------------|   \
D|--------------------------------------------------------------|    \
A|-----------8-8--7--(8)7------------------8-8--7--(8)7---------|     \
E|-000--0-0---------6-----6~~~---000--0-0---------6-----7~~~----|      \
   ***  * *                      ***  * *                               |
Guitar II:                                                              |
e|--------------------------------------------------------------|       |
B|--------------------------------------------------------------|       | 
G|--------------------------------------------------------------|       | X4
D|-----------7-7--6---7-6------------------7-7--6---7-6---------|       |
A|------------------5-----5~~~--------------------5-----7~~~----|       |
E|-000--0-0----------------------000--0-0-----------------------|       |
   ***  * *                      ***  * *                               |
Guitar III:                                                             |
e|--------------------------------------------------------------|      /
B|--------------------------------------------------------------|     /
G|--------------------------------------------------------------|    /
D|--------------------------------------------------------------|   /
A|--------------------------------------------------------------|  /
E|-----------0-0--0-0---0------------------0-0--0-0---0---------|/
             * *  * *   *                  * *  * *   *


Guitar I: 6:12
e|-------------------------------------------------------------------------|
B|--0-0h3p0--5\----0-0h3p0--5\----0-0h3p0--5\----0-0h3p0--5\----0-0h2-3----|
G|--------------------------------------------------------------*----------|
D|-------------------------------------------------------------------------|
A|-------------------------------------------------------------------------|
E|-------------------------------------------------------------------------|
Guitar II:
e|--0-0h2p0--5\----0-0h2p0--5\----0-0h5p0--7\----0-0h5p0--7\----0-0h3-5----|
B|-------------------------------------------------------------------------|
G|-------------------------------------------------------------------------|
D|-------------------------------------------------------------------------|
A|-------------------------------------------------------------------------|
E|-------------------------------------------------------------------------|



Then straight into this build up:
Both Guitars
e|-------------------------------------------------------------------------|
B|-------------------------------------------------------------------------|
G|-------------------------------------------------------------------------|
D|-------------------------------------------------------------------------|
A|-------------------------------------------------------------------------|
E|--000--0-0-0-0-0-0-000--0-0-0-0-0-0-0-000--0-0-0-0-0--000-000-000-000----|
    ***  * * * * * * ***  * * * * * * * ***  * * * * *  *** *** *** ***

Main Riff:
Both Guitars:
e|-------------------------------------------------------------------------|
B|-------------------------------------------------------------------------|
G|-------------------------------------------------------------------------|
D|-------------------------------------------------------------------------|
A|-----------7-----------------7-----------------7-------------------------|
E|--0-0--5-6---6-5-6--000--5-6---6-5-6--000--5-6---6-5-6---5-3-5-6-5-3-2-1-|
                      ***               ***
Both Guitars:
e|-------------------------------------------------------------------------|
B|-------------------------------------------------------------------------|
G|-------------------------------------------------------------------------|
D|-------------------------------------------------------------------------|
A|-----------7-----------------7-----------------7-------------------------|
E|--000--5-6---6-5-6--000--5-6---6-5-6--000--5-6---6-5-6---5-3-5-6-5-3-2-1-|
    ***               ***               ***

Then a different chorus and Lars comes in with some fat double kick drumming:
Both Guitars:
e|-------------------------------------------------------|
B|-------------------------------------------------------|
G|-------------------------------------------------------|
D|-9-9-9-9-9---------------------------------------------|
A|-7-7-7-7-7-8--7-7-7-7-7-5--3-3-3-3-3--2-2-2-2-2-2-2-2--|
E|-0-0-0-0-0-6--5-5-5-5-5-3--1-1-1-1-1--0-0-0-0-0-0-0-0--|
   Almost like your life, Almost like your endless fight

e|-------------------------------------------------------|
B|-------------------------------------------------------|
G|-------------------------------------------------------|
D|-9-9-9-9-9----------------------------3-3-3-3-3-3-3-3--|
A|-7-7-7-7-7-8--7-7-7-7-7-5--3-3-3-3-3--1-1-1-1-1-1-1-1--|
E|-0-0-0-0-0-6--5-5-5-5-5-3--1-1-1-1-1-------------------|
   Curse the day is long,       Realize you don't belong

e|-------------------------------------------------------|
B|-------------------------------------------------------|
G|-------------------------------------------------------|
D|-9-9-9-9-9----------------------------5-5-5-5-5-5-5-5--|
A|-7-7-7-7-7-8--7-7-7-7-7-5--3-3-3-3-3--3-3-3-3-3-3-3-3--|
E|-0-0-0-0-0-6--5-5-5-5-5-3--1-1-1-1-1-------------------|
  Disconnect somehow        Never stop the bleeding now

e|-----------------------------------------|
B|-----------------------------------------|
G|-----------------------------------------|
D|-9-9-9-9-9-------------------------------|
A|-7-7-7-7-7-8--7-7-7-7-7-5--3-3-3-3-3-----|
E|-0-0-0-0-0-6--5-5-5-5-5-3--1-1-1-1-1-----|
   Almost like your fight, And there it went

Guitar I only:
e|-----------------|
B|-----------------|
G|-----------------|
D|--7-7---7--7---7-|
A|--5-5---5--5---5-|
E|-----------------|
 Almost like your life

And then finish with a big:
Guitar I:
e|-------------------------------------------------------------------------|
B|-------------------------------------------------------------------------|
G|-------------------------------------------------------------------------|
D|-------------------------------------------------------------------------|
A|-----------7-----------------7-----------------7-------------------------|
E|--000--5-6---6-5-6--000--5-6---6-5-6--000--5-6---6-5-6---5-3-5-6-5-3-2-1-|
    ***               ***               ***
Guitar II:
e|-------------------------------------------------------------------------|
B|-------------------------------------------------------------------------|
G|-------------------------------------------------------------------------|
D|-------------------------------------------------------------------------|
A|-----------7-----------------7-----------------7-------------------------|
E|--000--5-6---6-5-6--000--5-6---6-5-6--000--5-6---6-5-6---5-3-5-6-5-3-2-1-|
    ***               ***               ***  
                                                         That Was Just Your 
Guitar I:
e|----------|
B|----------|
G|----------|
D|--2~~~~~--|
A|--2~~~~~--|
E|--0~~~~~--|

e|-------------------------|
B|-------------------------|
G|--9~~~~~~~(feedback)~~\--|
D|--9~~~~~~~---------------|
A|--7~~~~~~~---------------|
E|--0~~~~~~~---------------|
    LIFE!!





| /  slide up
| \  slide down
| h  hammer-on
| p  pull-off
| ~  vibrato
| +  harmonic
| x  Mute note
============================================================================
                         THE END OF THE LINE
============================================================================


Standard Tuning

Intro
                                                                  PM PM
     E.  E  S S S S S Q.        S S S S  S S  S  S  S S  S S S S S  S
E||--------------------------|-----------------------------------------|
B||--------------------------|-----------------------------------------|
G||--------------------------|-----------------------------------------|
D||--------------------------|-----------------------------------------|
A||--3---2----5---5---2------|--8-8-8-7~-L-7-10-10-10-7~-L-7-5-7-------|
E||--1---0--0-3---3---0------|-----------------------------------0--0--|


                                                              PM PM
  E.  E  S S S S S Q.        S S S S  S S  S  S  S S  S S S S S  S
--------------------------|-----------------------------------------|
--------------------------|-----------------------------------------|
--------------------------|-----------------------------------------|
--------------------------|-----------------------------------------|
--3---2----5---5---2------|--8-8-8-7~-L-7-10-10-10-7~-L-7-5-7-------|
--1---0--0-3---3---0------|-----------------------------------0--0--|


                                                              PM PM
  E.  E  S S S S S Q.        S S S S  S S  S  S  S S  S S S S S  S
--------------------------|-----------------------------------------|
--------------------------|-----------------------------------------|
--------------------------|-----------------------------------------|
--------------------------|-----------------------------------------|
--3---2----5---5---2------|--8-8-8-7~-L-7-10-10-10-7~-L-7-5-7-------|
--1---0--0-3---3---0------|-----------------------------------0--0--|


  E.  E  S S S S S Q.        S S S S  S S  S  S  S S  S S S S S S
--------------------------|---------------------------------------|
--------------------------|---------------------------------------|
--------------------------|---------------------------------------|
--------------------------|---------------------------------------|
--3---2----5---5---2------|--8-8-8-7~-L-7-10-10-10-7~-L-7-5-7-----|
--1---0--0-3---3---0------|---------------------------------------|


                       PM PM PM PM PM PM
  S S S S S S S  S S S S  S  S  S  S  S
-----------------------------------------|
-----------------------------------------|
-----------------------------------------|
-----------------------------------------|
--3-3-3-2---2-2h-5-5---------------------|
--1-1-1-0---0-0h-3-3---0--0--0--0--0--0--|


                       PM PM PM PM PM PM
  S S S S S S S  S S S S  S  S  S  S  S
-----------------------------------------|
-----------------------------------------|
-----------------------------------------|
-----------------------------------------|
--3-3-3-2---2-2h-5-5---------------------|
--1-1-1-0---0-0h-3-3---0--0--0--0--0--0--|


                       PM PM PM PM PM PM
  S S S S S S S  S S S S  S  S  S  S  S
-----------------------------------------|
-----------------------------------------|
-----------------------------------------|
-----------------------------------------|
--3-3-3-2---2-2h-5-5---------------------|
--1-1-1-0---0-0h-3-3---0--0--0--0--0--0--|


                       PM PM PM PM PM PM
  S S S S S S S  S S S S  S  S  S  S  S     E.  E  S  S S  S S Q.
-----------------------------------------|----------------------------|
-----------------------------------------|----------------------------|
-----------------------------------------|----------------------------|
-----------------------------------------|----------------------------|
--3-3-3-2---2-2h-5-5---------------------|--8---7----10---10---7------|
--1-1-1-0---0-0h-3-3---0--0--0--0--0--0--|--6---5--5--8----8---5------|


   E.  E  S  S S  S S E  E  E     W                   W
-------------------------------|-------------------|-------------------|
-------------------------------|-------------------|-------------------|
-------------------------------|-------------------|-------------------|
-------------------------------|-------------------|-------------------|
--10---9----12---12---9-----2--|--L----------------|--L----------------|
---8---7--7-10---10---7-----0--|--L----------------|--L----------------|

 Riff 1
  E.  S S  S E.  S S S S S E      E.  S S  S E.  S S S S S E
-------------------------------|-------------------------------|
-------------------------------|-------------------------------|
-------------------------------|-------------------------------|
-------------------------------|-------------------------------|
-----------------------5---7~--|-----------------------5---7~--|
--0---0-5h-6-0---0-5-6---6-----|--0---0-5h-6-0---0-5-6---6-----|


  E.  S S  S E.  S S S S S E      E.  S S  S E.  S S S S S E
-------------------------------|-------------------------------|
-------------------------------|-------------------------------|
-------------------------------|-------------------------------|
-------------------------------|-----------------------5-------|
-----------------------5---7~--|-------------------------5-7~--|
--0---0-5h-6-0---0-5-6---6-----|--0---0-5h-6-0---0-5-6---------|


  E.  S S  S E.  S S S S S E      E.  S S  S E.  S S S S S E
-------------------------------|-------------------------------|
-------------------------------|-------------------------------|
-------------------------------|-------------------------------|
-------------------------------|-------------------------------|
-----------------------5---7~--|-----------------------5---7~--|
--0---0-5h-6-0---0-5-6---6-----|--0---0-5h-6-0---0-5-6---6-----|


                                                 PM PM PM PM PM PM PM
  E.  S S  S E.  S S S S S E      E.  S S  S E.  S  S  S  S  S  S  S
-------------------------------|--------------------------------------|
-------------------------------|--------------------------------------|
-------------------------------|--------------------------------------|
-------------------------------|--------------------------------------|
-----------------------5---7~--|--------------------------------------|
--0---0-5h-6-0---0-5-6---6-----|--0---0-5h-6-0---0--0--0--0--0--0--0--|

 Riff 2
    PM PM PM      PM PM PM PM      PM PM
  S S  S  S  S  S S  S  S  S  S  S S  S  S  S
----------------------------------------------|
----------------------------------------------|
----------------------------------------------|
----------------------------------------------|
--2----------7S-8-------------7S-8-------7S-9-|
--0-0--0--0--5S-6-0--0--0--0--5S-6-0--0--5S-7-|


    PM PM PM      PM PM PM PM      PM PM
  S S  S  S  S  S S  S  S  S  S  S S  S  S  S
----------------------------------------------|
----------------------------------------------|
----------------------------------------------|
----------------------------------------------|
--2----------7S-8-------------7S-8-------7S-9-|
--0-0--0--0--5S-6-0--0--0--0--5S-6-0--0--5S-7-|


    PM PM PM      PM PM PM PM      PM PM
  S S  S  S  S  S S  S  S  S  S  S S  S  S  S
----------------------------------------------|
----------------------------------------------|
----------------------------------------------|
----------------------------------------------|
--2----------7S-8-------------7S-8-------7S-9-|
--0-0--0--0--5S-6-0--0--0--0--5S-6-0--0--5S-7-|


    PM PM PM      PM PM PM PM      PM PM
  S S  S  S  S  S S  S  S  S  S  S S  S  S  S
----------------------------------------------|
----------------------------------------------|
----------------------------------------------|
----------------------------------------------|
--2----------7S-8-------------7S-8-------7S-9-|
--0-0--0--0--5S-6-0--0--0--0--5S-6-0--0--5S-7-|


    PM PM PM   PM PM PM   PM PM PM   PM PM PM
  S S  S  S  S S  S  S  S S  S  S  S S  S  S
----------------------------------------------|
----------------------------------------------|
----------------------------------------------|
----------------------------------------------|
--2----------3----------5----------8----------|
--0-0--0--0--1-0--0--0--3-0--0--0--6-0--0--0--|


     PM PM PM PM             PM PM PM
  E  S  S  S  S  S S  S  S S S  S  S  E
-----------------------------------------|
-----------------------------------------|
-----------------9-9S-7S-9-9-------------|
-----------------------------------------|
--2--------------7-7S-5S-7-7----------3--|
--0--0--0--0--0--------------0--0--0--1--|


     PM PM PM PM                 PM
  E  S  S  S  S  S S  S  S S S S S  E
---------------------------------------|
---------------------------------------|
-----------------9-9S-7S-9---9---------|
---------------------------------------|
--2--------------7-7S-5S-7---7------3--|
--0--0--0--0--0------------------0--1--|


     PM PM PM PM             PM PM PM
  E  S  S  S  S  S S  S  S S S  S  S  E
-----------------------------------------|
-----------------------------------------|
-----------------9-9S-7S-9-9-------------|
-----------------------------------------|
--2--------------7-7S-5S-7-7----------3--|
--0--0--0--0--0--------------0--0--0--1--|


    PM PM PM   PM PM PM   PM PM PM   PM PM PM
  S S  S  S  S S  S  S  S S  S  S  S S  S  S
----------------------------------------------|
----------------------------------------------|
----------------------------------------------|
----------------------------------------------|
--2----------3----------5----------8----------|
--0-0--0--0--1-0--0--0--3-0--0--0--6-0--0--0--|


     PM PM PM PM             PM PM PM
  E  S  S  S  S  S S  S  S S S  S  S  E
-----------------------------------------|
-----------------------------------------|
-----------------9-9S-7S-9-9-------------|
-----------------------------------------|
--2--------------7-7S-5S-7-7----------3--|
--0--0--0--0--0--------------0--0--0--1--|


     PM PM PM PM             PM PM PM
  E  S  S  S  S  S S  S  S S S  S  S  E
-----------------------------------------|
-----------------------------------------|
-----------------9-9S-7S-9-9-------------|
-----------------------------------------|
--2--------------7-7S-5S-7-7----------3--|
--0--0--0--0--0--------------0--0--0--1--|
                                      Second guitar plays the harmony notes

     PM PM PM PM             PM PM PM
  E  S  S  S  S  S S  S  S S S  S  S  E
-----------------------------------------|
-----------------------------------------|
-----------------------------------------|
-----------------5-5S-4S-5-5-------------|
--2--------------7-7S-5S-7-7----------3--|
--0--0--0--0--0--------------0--0--0--1--|


    PM PM PM   PM PM PM   PM PM PM   PM PM PM
  S S  S  S  S S  S  S  S S  S  S  S S  S  S
----------------------------------------------|
----------------------------------------------|
----------------------------------------------|
----------------------------------------------|
--2----------3----------5----------8----------|
--0-0--0--0--1-0--0--0--3-0--0--0--6-0--0--0--|


     PM PM      PM PM PM PM      PM PM
  E  S  S  S  S S  S  S  S  S  S S  S  S  S    E.  S S  S E.  S S S S S E
--------------------------------------------|-------------------------------|
--------------------------------------------|-------------------------------|
--------------------------------------------|-------------------------------|
--------------------------------------------|-------------------------------|
--2--------7S-8-------------7S-8-------7S-9-|-----------------------5---7~--|
--0--0--0--5S-6-0--0--0--0--5S-6-0--0--5S-7-|--0---0-5h-6-0---0-5-6---6-----|


  E.  S S  S E.  S S S S S E      E.  S S  S E.  S S S S S E
-------------------------------|-------------------------------|
-------------------------------|-------------------------------|
-------------------------------|-------------------------------|
-------------------------------|-------------------------------|
-----------------------5---7~--|-----------------------5---7~--|
--0---0-5h-6-0---0-5-6---6-----|--0---0-5h-6-0---0-5-6---6-----|


                 PM PM PM PM PM PM PM
  E.  S S  S E.  S  S  S  S  S  S  S
--------------------------------------|
--------------------------------------|
--------------------------------------|
--------------------------------------|
--------------------------------------|
--0---0-5h-6-0---0--0--0--0--0--0--0--|


    PM PM PM      PM PM PM PM      PM PM
  S S  S  S  S  S S  S  S  S  S  S S  S  S  S
----------------------------------------------|
----------------------------------------------|
----------------------------------------------|
----------------------------------------------|
--2----------7S-8-------------7S-8-------7S-9-|
--0-0--0--0--5S-6-0--0--0--0--5S-6-0--0--5S-7-|


    PM PM PM      PM PM PM PM      PM PM
  S S  S  S  S  S S  S  S  S  S  S S  S  S  S
----------------------------------------------|
----------------------------------------------|
----------------------------------------------|
----------------------------------------------|
--2----------7S-8-------------7S-8-------7S-9-|
--0-0--0--0--5S-6-0--0--0--0--5S-6-0--0--5S-7-|


    PM PM PM      PM PM PM PM      PM PM
  S S  S  S  S  S S  S  S  S  S  S S  S  S  S
----------------------------------------------|
----------------------------------------------|
----------------------------------------------|
----------------------------------------------|
--2----------7S-8-------------7S-8-------7S-9-|
--0-0--0--0--5S-6-0--0--0--0--5S-6-0--0--5S-7-|


    PM PM PM      PM PM PM PM      PM PM
  S S  S  S  S  S S  S  S  S  S  S S  S  S  S
----------------------------------------------|
----------------------------------------------|
----------------------------------------------|
----------------------------------------------|
--2----------7S-8-------------7S-8-------7S-9-|
--0-0--0--0--5S-6-0--0--0--0--5S-6-0--0--5S-7-|


    PM PM PM   PM PM PM   PM PM PM   PM PM PM
  S S  S  S  S S  S  S  S S  S  S  S S  S  S
----------------------------------------------|
----------------------------------------------|
----------------------------------------------|
----------------------------------------------|
--2----------3----------5----------8----------|
--0-0--0--0--1-0--0--0--3-0--0--0--6-0--0--0--|


     PM PM PM PM             PM PM PM
  E  S  S  S  S  S S  S  S S S  S  S  E
-----------------------------------------|
-----------------------------------------|
-----------------9-9S-7S-9-9-------------|
-----------------------------------------|
--2--------------7-7S-5S-7-7----------3--|
--0--0--0--0--0--------------0--0--0--1--|


     PM PM PM PM                 PM
  E  S  S  S  S  S S  S  S S S S S  E
---------------------------------------|
---------------------------------------|
-----------------9-9S-7S-9---9---------|
---------------------------------------|
--2--------------7-7S-5S-7---7------3--|
--0--0--0--0--0------------------0--1--|


     PM PM PM PM             PM PM PM
  E  S  S  S  S  S S  S  S S S  S  S  E
-----------------------------------------|
-----------------------------------------|
-----------------9-9S-7S-9-9-------------|
-----------------------------------------|
--2--------------7-7S-5S-7-7----------3--|
--0--0--0--0--0--------------0--0--0--1--|


    PM PM PM   PM PM PM   PM PM PM   PM PM PM
  S S  S  S  S S  S  S  S S  S  S  S S  S  S
----------------------------------------------|
----------------------------------------------|
----------------------------------------------|
----------------------------------------------|
--2----------3----------5----------8----------|
--0-0--0--0--1-0--0--0--3-0--0--0--6-0--0--0--|


     PM PM PM PM             PM PM PM
  E  S  S  S  S  S S  S  S S S  S  S  E
-----------------------------------------|
-----------------------------------------|
-----------------9-9S-7S-9-9-------------|
-----------------------------------------|
--2--------------7-7S-5S-7-7----------3--|
--0--0--0--0--0--------------0--0--0--1--|


     PM PM PM PM             PM PM PM
  E  S  S  S  S  S S  S  S S S  S  S  E
-----------------------------------------|
-----------------------------------------|
-----------------9-9S-7S-9-9-------------|
-----------------------------------------|
--2--------------7-7S-5S-7-7----------3--|
--0--0--0--0--0--------------0--0--0--1--|


     PM PM PM PM             PM PM PM
  E  S  S  S  S  S S  S  S S S  S  S  E
-----------------------------------------|
-----------------------------------------|
-----------------------------------------|
-----------------5-5S-4S-5-5-------------|
--2--------------7-7S-5S-7-7----------3--|
--0--0--0--0--0--------------0--0--0--1--|


    PM PM PM   PM PM PM   PM PM PM   PM PM PM
  S S  S  S  S S  S  S  S S  S  S  S S  S  S
----------------------------------------------|
----------------------------------------------|
----------------------------------------------|
----------------------------------------------|
--2----------3----------5----------8----------|
--0-0--0--0--1-0--0--0--3-0--0--0--6-0--0--0--|


     PM PM      PM PM PM PM      PM PM
  E  S  S  S  S S  S  S  S  S  S S  S  S  S
--------------------------------------------|
--------------------------------------------|
--------------------------------------------|
--------------------------------------------|
--2--------7S-8-------------7S-8-------7S-9-|
--0--0--0--5S-6-0--0--0--0--5S-6-0--0--5S-7-|


  S S  S S S  S S S  S S S  S S S  S S    S S  S S S  S S S  S S S  S S S  S S
---------------------------------------|--------------------------------------|
---------------------------------------|--------------------------------------|
---------------------------------------|--------------------------------------|
---------------------------------------|--------------------------------------|
---------------------------------------|--------------------------------------|
-0-5h-6-0-5h-6-0-5h-6-0-5h-6-0-5h-6-6-|--0-5h-6-0-5h-6-0-5h-6-0-5h-6-0-5h66---|

 Chorus
  E   S S  S  S S  S S  S  S S  S  S  S  S
-------------------------------------------|
-------------------------------------------|
-------------------------------------------|
-------------------------------------------|
-------------------------------------------|
--0--15-0-15-15-0-15-0-15-15-0-15-15-15-15-|


  E   S S  S  S S  S S  S  S S  S  S  S  S
-------------------------------------------|
-------------------------------------------|
-------------------------------------------|
-------------------------------------------|
-------------------------------------------|
--0--15-0-15-15-0-15-0-15-15-0-15-15-15-15-|


  E   S S  S  S S  S S  S  S S  S  S  S  S
-------------------------------------------|
-------------------------------------------|
-------------------------------------------|
-------------------------------------------|
-------------------------------------------|
--0--15-0-15-15-0-15-0-15-15-0-15-15-15-15-|


  E   S S  S  S S  S S  S  S S  S  S  S  S
-------------------------------------------|
-------------------------------------------|
-------------------------------------------|
-------------------------------------------|
-------------------------------------------|
--0--15-0-15-15-0-15-0-15-15-0-15-15-15-15-|


  E   S S  S  S S  S S  S  S S  S  S  S  S
-------------------------------------------|
-------------------------------------------|
-------------------------------------------|
-------------------------------------------|
-------------------------------------------|
--0--15-0-15-15-0-15-0-15-15-0-15-15-15-15-|


  E   S S  S  S S  S S  S  S S  S  S  S  S
-------------------------------------------|
-------------------------------------------|
-------------------------------------------|
-------------------------------------------|
-------------------------------------------|
--0--15-0-15-15-0-15-0-15-15-0-15-15-15-15-|


  E   S S  S  S S  S S  S  S S  S  S  S  S
-------------------------------------------|
-------------------------------------------|
-------------------------------------------|
-------------------------------------------|
-------------------------------------------|
--0--15-0-15-15-0-15-0-15-15-0-15-15-15-15-|


  E   S S  S  S S  S S  S  S S  S  S  S  S
-------------------------------------------|
-------------------------------------------|
-------------------------------------------|
-------------------------------------------|
-------------------------------------------|
--0--15-0-15-15-0-15-0-15-15-0-15-15-15-15-|


  |--3--|  |--3--|  |--3--|  |--3--|
  E  E  E  E  E  E  E  E  E  E  E  E     E.  S S  S E.  S S S S S E
--------------------------------------|-------------------------------|
--------------------------------------|-------------------------------|
--------------------------------------|-------------------------------|
--------------------------------------|-------------------------------|
--8-----8-----8-----8-----8-----8-----|-----------------------5---7~--|
--6-----6-----6-----6-----6-----6-----|--0---0-5h-6-0---0-5-6---6-----|


  E.  S S  S E.  S S S S S E      E.  S S  S E.  S S S S S E
-------------------------------|-------------------------------|
-------------------------------|-------------------------------|
-------------------------------|-------------------------------|
-------------------------------|-------------------------------|
-----------------------5---7~--|-----------------------5---7~--|
--0---0-5h-6-0---0-5-6---6-----|--0---0-5h-6-0---0-5-6---6-----|


  E.  S S  S E.  S S S S S E      E.  S S  S E.  S S S S S E
-------------------------------|-------------------------------|
-------------------------------|-------------------------------|
-------------------------------|-------------------------------|
-----------------------5-------|-------------------------------|
-------------------------5-7~--|-----------------------5---7~--|
--0---0-5h-6-0---0-5-6---------|--0---0-5h-6-0---0-5-6---6-----|


  E.  S S  S E.  S S S S S E      E.  S S  S E.  S S S S S E
-------------------------------|-------------------------------|
-------------------------------|-------------------------------|
-------------------------------|-------------------------------|
-------------------------------|-------------------------------|
-----------------------5---7~--|-----------------------5---7~--|
--0---0-5h-6-0---0-5-6---6-----|--0---0-5h-6-0---0-5-6---6-----|


                 PM PM PM PM PM PM PM
  E.  S S  S E.  S  S  S  S  S  S  S
--------------------------------------|
--------------------------------------|
--------------------------------------|
--------------------------------------|
--------------------------------------|
--0---0-5h-6-0---0--0--0--0--0--0--0--|


    PM PM PM      PM PM PM PM      PM PM
  S S  S  S  S  S S  S  S  S  S  S S  S  S  S
----------------------------------------------|
----------------------------------------------|
----------------------------------------------|
----------------------------------------------|
--2----------7S-8-------------7S-8-------7S-9-|
--0-0--0--0--5S-6-0--0--0--0--5S-6-0--0--5S-7-|


    PM PM PM      PM PM PM PM      PM PM
  S S  S  S  S  S S  S  S  S  S  S S  S  S  S
----------------------------------------------|
----------------------------------------------|
----------------------------------------------|
----------------------------------------------|
--2----------7S-8-------------7S-8-------7S-9-|
--0-0--0--0--5S-6-0--0--0--0--5S-6-0--0--5S-7-|


    PM PM PM      PM PM PM PM      PM PM
  S S  S  S  S  S S  S  S  S  S  S S  S  S  S
----------------------------------------------|
----------------------------------------------|
----------------------------------------------|
----------------------------------------------|
--2----------7S-8-------------7S-8-------7S-9-|
--0-0--0--0--5S-6-0--0--0--0--5S-6-0--0--5S-7-|


    PM PM PM      PM PM PM PM      PM PM
  S S  S  S  S  S S  S  S  S  S  S S  S  S  S
----------------------------------------------|
----------------------------------------------|
----------------------------------------------|
----------------------------------------------|
--2----------7S-8-------------7S-8-------7S-9-|
--0-0--0--0--5S-6-0--0--0--0--5S-6-0--0--5S-7-|


    PM PM PM   PM PM PM   PM PM PM   PM PM PM
  S S  S  S  S S  S  S  S S  S  S  S S  S  S
----------------------------------------------|
----------------------------------------------|
----------------------------------------------|
----------------------------------------------|
--2----------3----------5----------8----------|
--0-0--0--0--1-0--0--0--3-0--0--0--6-0--0--0--|


     PM PM PM PM             PM PM PM
  E  S  S  S  S  S S  S  S S S  S  S  E
-----------------------------------------|
-----------------------------------------|
-----------------9-9S-7S-9-9-------------|
-----------------------------------------|
--2--------------7-7S-5S-7-7----------3--|
--0--0--0--0--0--------------0--0--0--1--|


     PM PM PM PM                 PM
  E  S  S  S  S  S S  S  S S S S S  E
---------------------------------------|
---------------------------------------|
-----------------9-9S-7S-9---9---------|
---------------------------------------|
--2--------------7-7S-5S-7---7------3--|
--0--0--0--0--0------------------0--1--|


     PM PM PM PM             PM PM PM
  E  S  S  S  S  S S  S  S S S  S  S  E
-----------------------------------------|
-----------------------------------------|
-----------------9-9S-7S-9-9-------------|
-----------------------------------------|
--2--------------7-7S-5S-7-7----------3--|
--0--0--0--0--0--------------0--0--0--1--|


    PM PM PM   PM PM PM   PM PM PM   PM PM PM
  S S  S  S  S S  S  S  S S  S  S  S S  S  S
----------------------------------------------|
----------------------------------------------|
----------------------------------------------|
----------------------------------------------|
--2----------3----------5----------8----------|
--0-0--0--0--1-0--0--0--3-0--0--0--6-0--0--0--|


     PM PM PM PM             PM PM PM
  E  S  S  S  S  S S  S  S S S  S  S  E
-----------------------------------------|
-----------------------------------------|
-----------------9-9S-7S-9-9-------------|
-----------------------------------------|
--2--------------7-7S-5S-7-7----------3--|
--0--0--0--0--0--------------0--0--0--1--|


     PM PM PM PM             PM PM PM
  E  S  S  S  S  S S  S  S S S  S  S  E
-----------------------------------------|
-----------------------------------------|
-----------------9-9S-7S-9-9-------------|
-----------------------------------------|
--2--------------7-7S-5S-7-7----------3--|
--0--0--0--0--0--------------0--0--0--1--|


     PM PM PM PM             PM PM PM
  E  S  S  S  S  S S  S  S S S  S  S  E
-----------------------------------------|
-----------------------------------------|
-----------------------------------------|
-----------------5-5S-4S-5-5-------------|
--2--------------7-7S-5S-7-7----------3--|
--0--0--0--0--0--------------0--0--0--1--|


    PM PM PM   PM PM PM   PM PM PM   PM PM PM
  S S  S  S  S S  S  S  S S  S  S  S S  S  S
----------------------------------------------|
----------------------------------------------|
----------------------------------------------|
----------------------------------------------|
--2----------3----------5----------8----------|
--0-0--0--0--1-0--0--0--3-0--0--0--6-0--0--0--|


     PM PM      PM PM PM PM      PM PM
  E  S  S  S  S S  S  S  S  S  S S  S  S  S
--------------------------------------------|
--------------------------------------------|
--------------------------------------------|
--------------------------------------------|
--2--------7S-8-------------7S-8-------7S-9-|
--0--0--0--5S-6-0--0--0--0--5S-6-0--0--5S-7-|


  S S  S S S  S S S  S S S  S S S  S S    S S  S S S  S S S  S S S  S S S  S S
---------------------------------------|--------------------------------------|
---------------------------------------|--------------------------------------|
---------------------------------------|--------------------------------------|
---------------------------------------|--------------------------------------|
---------------------------------------|--------------------------------------|
0-5h-6-0-5h-6-0-5h-6-0-5h-6-0-5h-6-6-|--0-5h-6-0-5h-6-0-5h-6-0-5h-6-0-5h-66---|


  E   S S  S  S S  S S  S  S S  S  S  S  S
-------------------------------------------|
-------------------------------------------|
-------------------------------------------|
-------------------------------------------|
-------------------------------------------|
--0--15-0-15-15-0-15-0-15-15-0-15-15-15-15-|


  E   S S  S  S S  S S  S  S S  S  S  S  S
-------------------------------------------|
-------------------------------------------|
-------------------------------------------|
-------------------------------------------|
-------------------------------------------|
--0--15-0-15-15-0-15-0-15-15-0-15-15-15-15-|


  E   S S  S  S S  S S  S  S S  S  S  S  S
-------------------------------------------|
-------------------------------------------|
-------------------------------------------|
-------------------------------------------|
-------------------------------------------|
--0--15-0-15-15-0-15-0-15-15-0-15-15-15-15-|


  E   S S  S  S S  S S  S  S S  S  S  S  S
-------------------------------------------|
-------------------------------------------|
-------------------------------------------|
-------------------------------------------|
-------------------------------------------|
--0--15-0-15-15-0-15-0-15-15-0-15-15-15-15-|


  E   S S  S  S S  S S  S  S S  S  S  S  S
-------------------------------------------|
-------------------------------------------|
-------------------------------------------|
-------------------------------------------|
-------------------------------------------|
--0--15-0-15-15-0-15-0-15-15-0-15-15-15-15-|


  E   S S  S  S S  S S  S  S S  S  S  S  S
-------------------------------------------|
-------------------------------------------|
-------------------------------------------|
-------------------------------------------|
-------------------------------------------|
--0--15-0-15-15-0-15-0-15-15-0-15-15-15-15-|


  E   S S  S  S S  S S  S  S S  S  S  S  S
-------------------------------------------|
-------------------------------------------|
-------------------------------------------|
-------------------------------------------|
-------------------------------------------|
--0--15-0-15-15-0-15-0-15-15-0-15-15-15-15-|


  E   S S  S  S S  S S  S  S S  S  S  S  S
-------------------------------------------|
-------------------------------------------|
-------------------------------------------|
-------------------------------------------|
-------------------------------------------|
--0--15-0-15-15-0-15-0-15-15-0-15-15-15-15-|


  |--3--|  |--3--|  |--3--|  |--3--|
  E  E  E  E  E  E  E  E  E  E  E  E
--------------------------------------||
--------------------------------------||
--------------------------------------||
--------------------------------------||
--8-----8-----8-----8-----8-----8-----||
--6-----6-----6-----6-----6-----6-----||


Duration Legend
---------------
W - whole
H - half
Q - quarter
E - 8th
S - 16th
T - 32nd
X - 64th
. - note dotted
|-n-|  - n-tuplets


Tablature Legend
----------------
L - tied note
x - dead note
g - grace note
(n) - ghost note
> - accentuded note
NH - natural harmonic
AH - artificial harmonic
TH - tapped harmonic
SH - semi harmonic
PH - pitch harmonic
h - hammer on
p - pull off
b - bend
br - bendRelease
pb - preBend
pbr - preBendRelease
brb - bendReleaseBend
\n/ - tremolo bar dip
\n - tremolo bar dive
-/n - tremolo bar Release up
/n\ - tremolo bar inverted dip
/n - tremolo bar return
-\n - tremolo bar Release down
S - shift slide
s - legato slide
/ -  slide into from below or out of upwards
\ -  slide into from above or out of downwards
~ - vibrato
W - wide vibrato
tr - tril'
TP - tremolo picking
T - tapping
S - slap
P - pop
< - fade in
^ - brush up
v - brush down


===================================================================================
                              BROKEN, BEAT & SCARRED
===================================================================================


Broken, Beat & Scarred
Tuning: Standard eBGDAE

|------------------------|
|------------------------|
|------------------------|
|------------------------|
|------------2-2--2------|
|--/6\--/6\--0-0--0------|
|            . .         |
|                        |
|------------------------|
|------------------------|
|------------------------|
|------------------------|
|------------2-2--2-2-2--|
|--/6\--/6\--0-0--0-0-0--|
             . .    . .

|------------|---------------------------|
|------------|---------------------------|
|------------|---------------------------| The notes in this riff
|------------|----------7----------------| get a layered octave after
|------------|-------/7----8-7\5-7h8p7~--| a few repeats.
|--/6\--/6\--|--0-0----------------------|
|                                        |
|                                        |
|------------|----------|----------------|
|------------|----------|----------------|
|------------|----------|----------------| 
|------------|----------|----------------| 
|------------|--2-2-2-2-|-2-2-2-2-2-2-2--| 
|--/6\--/6\--|--0-0-0-0-|-0-0-0-0-0-0-0--|
                . . . .   . . . . . . .

|------------------------------------------------------------------|
|------------------------------------------------------------------|
|-----(7)--------(7)---(9)---(10)----------(9)---------5-----------| 
|----------------------------------------------------7-------------|
|------5----------5-----7-----8-------------7------5---------------|
|------------------------------------------------------------------|
| Brackets contain octaved layer                                   |
|                                                                  |
|------------------------------------------------------------------|
|------------------------------------------------------------------|
|---------------------------------------------------------------5--|
|------5-----5-------------5-----7-----8-------------7--------7----|
|------5-----5-------------5-----7-----8-------------7------5------|
|--0-0-3-0-0-3-0-0-0-0-0-0-3-0-0-5-0-0-6-6-6-6-6-6-6-5-5-5---------|
   . .   . .        . .   . .   . . . . . .   . .

|-------------------|-------------------|
|-------------------|-------------------| 
|-------------------|-------------------| 
|------3-----3------|--2-2-----7--------| 
|------3-----3------|--2-2--/7---8-7\5--| 
|--0-0-1-0-0-1-0-0--|--0-0--------------|
   . .   . .   . .

|-------------------------------------------------------|---------------|
|-------------------------------------------------------|---------------|
|-------------------------------------------------------|---------------|
|-------------------------------------------------------|---------------|
|-------------------------------------------------------|---------------|
|--15h17p15\14\12-000-12-12-000-12-000-12-12-000-12-12--|--15-15-15-15--|
                  ...       ...    ...       ...          
 
 (You rise, you fall, you're down...)
|-------------------------------------------|
|-------------------------------------------|
|-------------------------------------------|
|-------------------------------------.-----| [(.) Staccato'd note]
|---------------2-----2-2-----2-----2-2--2--|
|--3333-3h5p3/2-0-000-0-0-0-0-0-0-0-0-0--0--|
   ....           ...     . .   . .   

 (Rise, fall, down...)
|--------|----------------------------|
|--------|----------------------------| 
|--------|----------------------------|
|--------|--2---/---10---\---5--/7\5--|
|--------|--2---/---10---\---5--/7\5--| 
|--3333--|--0---/---8----\---3--/5\3--|
   ....

 (Through black days...)
|-----------------------------------------------------------------------|
|-----------------------------------------------------------------------|
|-----------------------------------------------------------------------|
|------5-----5-------------5-----7-----8-------------7-----3-----3------|
|------5-----5-------------5-----7-----8-------------7-----3-----3------|
|--0-0-3-0-0-3-0-0-0-0-0-0-3-0-0-5-0-0-6-6-6-6-6-6-6-5-0-0-1-0-0-1-0-0--|
   . .   . .   . . . . . .   . .   . .   . . . . . .   . .   . .   . .

|---------------------------------------------------|
|---------------------------------------------5-----|
|---------------------------------------------------|
|----------7-----------------8-7h8p7--------7-----x-|
|--2-2--/7---8-7\5---2-2--/7---------8p7--5-------x-|
|--0-0---------------0-0--------------------------x-|

 (Breaking your teeth on the...)
|------|----------------------------------------------------------------|
|------|----------------------------------------------------------------|
|------|----------------------------------------------------------------|
|--9\--|----------------------------------------------------------------|
|--7\--|-------------5h7-77-5------------5h7-77-9------------5h7-77-10--|
|--0---|--0000000000-0-0-00-3-0000000000-0-0-00-7-0000000000-0-0-00-8---|
          ..........          ..........          ..........
 
|----------|----------------------|---------|
|----------|----------------------|------5--|
|----------|----------------------|---------|
|----------|----------------------|----7----|
|--5h7-77--|--------7--------8----|--5------|
|--0-0-00--|--0-5-6----0-5-6------|---------|

 (But we die hard..)
|-------------------|-------------------|
|-------------------|-------------------| 
|-------------------|-------------------| 
|------3-----3------|--2-2-----7--------| 
|------3-----3------|--2-2--/7---8-7\5--| 
|--0-0-1-0-0-1-0-0--|--0-0--------------|
   . .   . .   . .

|-------------------------------------------------------|---------------|
|-------------------------------------------------------|---------------|
|-------------------------------------------------------|---------------|
|-------------------------------------------------------|---------------|
|-------------------------------------------------------|---------------|
|--15h17p15\14\12-000-12-12-000-12-000-12-12-000-12-12--|--15-15-15-15--|
                  ...       ...    ...       ...          
 
 (The dawn, the death, the fight...)
|-------------------------------------------|
|-------------------------------------------|
|-------------------------------------------|
|-------------------------------------.-----|
|---------------2-----2-2-----2-----2-2--2--|
|--3333-3h5p3/2-0-000-0-0-0-0-0-0-0-0-0--0--|
   ....           ...     . .   . .   

 (Dawn, death, fight...)
|--------|----------------------------|
|--------|----------------------------| 
|--------|----------------------------| 
|--------|--2---/---10---\---5--/7\5--|
|--------|--2---/---10---\---5--/7\5--| 
|--3333--|--0---/---8----\---3--/5\3--|
   ....

 (They scratched me, They scraped...)
|-----------------------------------------------------------------------|
|-----------------------------------------------------------------------|
|-----------------------------------------------------------------------|
|------5-----5-------------5-----7-----8-------------7-----3-----3------|
|------5-----5-------------5-----7-----8-------------7-----3-----3------|
|--0-0-3-0-0-3-0-0-0-0-0-0-3-0-0-5-0-0-6-6-6-6-6-6-6-5-0-0-1-0-0-1-0-0--|
   . .   . .   . . . . . .   . .   . .   . . . . . .   . .   . .   . .

|---------------------------------------------------|
|---------------------------------------------5-----|
|---------------------------------------------------|
|----------7-----------------8-7h8p7--------7-----x-|
|--2-2--/7---8-7\5---2-2--/7---------8p7--5-------x-|
|--0-0---------------0-0--------------------------x-|

 (Breaking your teeth on the...)
|------|----------------------------------------------------------------|
|------|----------------------------------------------------------------|
|------|----------------------------------------------------------------|
|--9\--|----------------------------------------------------------------|
|--7\--|-------------5h7-77-5------------5h7-77-9------------5h7-77-10--|
|--0---|--0000000000-0-0-00-3-0000000000-0-0-00-7-0000000000-0-0-00-8---|
          ..........          ..........          ..........

 (Breaking your life, broken...)
|----------|----------------------|---------|---------------------|
|----------|----------------------|------5--|---------------------|
|----------|----------------------|---------|---------------------|
|----------|----------------------|----7----|------3-----3-----2--|
|--5h7-77--|--------7----------8--|--5------|------3-----3-----2--|
|--0-0-00--|--0-5-6------0-5-6----|---------|--0-0-1-0-0-1-0-0-0--|
                                               . .   . .   . .

 Rhythm for the solo:
|-------------------------|-------------------------|
|-------------------------|-------------------------|
|-------------------------|-------------------------|
|-------------------------|-------------------------|
|-------------------------|-------------------------|
|--0-0-0-6-0-0-0-6-6-6-5--|--0-0-0-6-0-0-0-6-6~--5--|
   . . .     . .             . . .   . . .  

|-----------|---------------------|
|-----------|---------------------|
|-----------|---------------------|
|-----------|--------3-----3------|
|--------6--|--------3-----3------|
|--0-0-0----|--0-0-0-1-0-0-1-0-0--|
   . . .       . . .   . .   . .

|----------------------------------|
|----------------------------------|
|----------------------------------|
|----------------------------------|
|----5~-4----5~-4----4~-3----3~-2--|
|--4-------4-------4-------4-------|

|----------------------------------|
|----------------------------------|
|----------------------------------|
|----------------------------------|
|----7~-6----7~-6----6~-5----5~-4--|
|--6-------6-------6-------6-------|

|-----------------|---------------------------------|---------------------|
|-----------------|---------------------------------|---------------------|
|-----------------|---------------------------------|---------------------|
|-----------------|--------8-7-------7-6-------6-5--|---------------------|
|-----------------|--------8-7-------7-6-------6-5--|--x\---(Pick-Slide)--|
|--0-0-0-0-0-0-0--|--0-0-0-6-5-0-0-0-5-4-0-0-0-4-3--|--x\-----------------|
   . . . . . . .     . . .     . . .     . . . 

|-------------------------|-------------------------|-----------|
|-------------------------|-------------------------|-----------|
|-------------------------|-------------------------|-----------|
|-------------------------|-------------------------|-----------|
|--------3-------3-3-3-2--|--------3-------3-3~--2--|--------3--|
|--2-2-2---2-2-2----------|--2-2-2---2-2-2----------|--2-2-2----|
   . . .     . .             . . .   . . .             . . .

|-------------------------------------------------------------------------------------|
|-------------------------------------------------------------------------------------|
|-------------------------------------------------------------------------------------|
|--------5-----5-----5-----5-------------5-----7-----8-------------7-----3-----3------|
|--------5-----5-----5-----5-------------5-----7-----8-------------7-----3-----3------|
|--2-2-2-3-2-2-3-2-2-3-2-2-3-2-2-2-2-2-2-3-3-3-5-5-5-6-6-6-6-6-6-6-5-1-1-1-1-1-1-0-0--|
   . . .   . .   . .   . .   . . . . . .   . .   . .   . . . . . .   . .   . .   . .

|---------------------------------------------|
|---------------------------------------------|
|---------------------------------------------|
|--2-2----------------2-2---------------------|
|--2-2-------------7--2-2--------------7-8----|
|--0-0--0-0-0-0-/5----0-0--0-0-0-0-/5------6--|
        . . . .            . . . .

 (Breaking your teeth on the...)
|------|----------------------------------------------------------------|
|------|----------------------------------------------------------------|
|------|----------------------------------------------------------------|
|--9\--|----------------------------------------------------------------|
|--7\--|-------------5h7-77-5------------5h7-77-9------------5h7-77-10--|
|--0---|--0000000000-0-0-00-3-0000000000-0-0-00-7-0000000000-0-0-00-8---|
          ..........          ..........          ..........

|----------|----------------------|
|----------|----------------------|
|----------|----------------------|
|----------|----------------------|
|--5h7-77--|--------7----------8--|
|--0-0-00--|--0-5-6------0-5-6----|
        
 
|-----------------------------------------------------------------------|
|-----------------------------------------------------------------------|
|-----------------------------------------------------------------------|
|------5-----5-------------5-----7-----8-------------7-----3-----3------|
|------5-----5-------------5-----7-----8-------------7-----3-----3------|
|--0-0-3-0-0-3-0-0-0-0-0-0-3-0-0-5-0-0-6-6-6-6-6-6-6-5-0-0-1-0-0-1-0-0--|
   . .   . .   . . . . . .   . .   . .   . . . . . .   . .   . .   . .
 
 (We die hard...)
|---------------------------------------------|
|---------------------------------------------|
|---------------------------------------------|
|--2-2----------------2-2---------------------|
|--2-2-------------7--2-2--------------7-8----|
|--0-0--0-0-0-0-/5----0-0--0-0-0-0-/5------6--|
        . . . .            . . . .

|-----------------------------------------------------------------------|
|-----------------------------------------------------------------------|
|-----------------------------------------------------------------------|
|------5-----5-------------5-----7-----8-------------7-----3-----3------|
|------5-----5-------------5-----7-----8-------------7-----3-----3------|
|--0-0-3-0-0-3-0-0-0-0-0-0-3-0-0-5-0-0-6-6-6-6-6-6-6-5-0-0-1-0-0-1-0-0--|
   . .   . .   . . . . . .   . .   . .   . . . . . .   . .   . .   . .

|---------------------------------------------|--------------------------|
|---------------------------------------------|--------------------------|
|---------------------------------------------|--------------------------|
|--2-2----------------2-2---------------------|--2-2----------------2-2--|
|--2-2-------------7--2-2--------------7-8----|--2-2-------------7--2-2--|
|--0-0--0-0-0-0-/5----0-0--0-0-0-0-/5------6--|--0-0--0-0-0-0-/5----0-0--|
        . . . .            . . . .                    . . . .


===================================================================================
                           THE DAY THAT NEVER COMES
===================================================================================


Metallica - The Day That Never Comes - Death Magnetic

Tabbed by: Chase Grimes
Email: bigbucksgrimes@yahoo.com
Website: http://chasegrimeswebsite.blogspot.com/

Time took to complete tab:
approx. 12 hours

Tuning: Guitar 1 (James Hetfield) - EADGBe (standard)
        Guitar 2 (Kirk Hammett) - EADGBe (standard)

Key:

 r     return bend
 b     bend
 /     slide up
 \     slide down
 h     hammer-on
 p     pull-off
 ~     vibrato
 +     pinched harmonic
 x     dead note
 *     palm mute
 ()    ghost note



Song Order for Guitar 1 (James Hetfield):
Part 1  x6
Part 2  x8
Part 3  x4
Part 4  x1
Part 5  x2
Part 2  x4
Part 3  x4
Part 6  x1
Part 7  x1
Part 8  x4
Part 9  x1
Part 4  x1
Part 10 x1
Part 11 x1
Part 7  x1
Part 12 x4
Part 13 x1
Part 14 x2
Part 15 x1
Part 12 x4
Part 16 x1
Part 17 x1
Part 18 x1



Song Order for Guitar 2 (Kirk Hammett):
Lead 1  x1
Lead 2  x1
Lead 3  x1
Lead 2  x1
Lead 4  x1
Lead 5  x2
Lead 6  x1
Lead 6  x1
Lead 7  x1
Lead 5  x2
Lead 8  x1







Part 1 - Clean Electric - Guitar 1

e|------12----------12----------12----------12----|
B|---13----13----13----13----12----12----12----12-|
G|14----------14----------12----------12----------|
D|------------------------------------------------|
A|------------------------------------------------|
E|------------------------------------------------|

e|------14----------14----------12----------12----|
B|---15----15----15----15----13----13----13----13-|
G|12----------12----------14----------14----------|
D|------------------------------------------------|
A|------------------------------------------------|
E|------------------------------------------------|



Lead 1 - Distorted Electric - Guitar 2
(Two guitars transcribed into one.)

e|------------------------------------------------|
B|------------------------------------------------|
G|7----/9-----------------------------------------|
D|--------7-----7--/9-----5-----------------------|
A|5----/7-----------------------------------------|
E|--------5-----5--/7-----3-----------------------|

e|------------------------------------------------|
B|------------------------------------------------|
G|7----/9-----------------------------------------|
D|--------7-----7--/9-----7-----------------------|
A|5----/7-----------------------------------------|
E|--------5-----5--/7-----5-----------------------|

e|------------------------------------------------|
B|------------------------------------------------|
G|7----/9-----------------------------------------|
D|--------7-----7--/9-----5-----------------------|
A|5----/7-----------------------------------------|
E|--------5-----5--/7-----3-----------------------|

e|------------------------------------------------|
B|------------------------------------------------|
G|7----/9-----------------------------------------|
D|--------7-----7--/9-----7-----------------------|
A|5----/7-----------------------------------------|
E|--------5-----5--/7-----5-----------------------|

e|------------------------------------------------|
B|------------------------------------------------|
G|7----/9-----------------------------------------|
D|--------7-----7--/9-----5~----5-/7--7-/9--9-/10-|
A|5----/7-----------------------------------------|
E|--------5-----5--/7-----3-----3-/5--5-/7--7-/8--|

e|------------------------------------------------|
B|------------------------------------------------|
G|------------------------------------------------|
D|9-----5/7---7-9-9-10-10p7~-------------5------7-|
A|------------------------------------------------|
E|7-----------------------------------------------|

e|--------------------------------------------------------|
B|--------------------------------------------------------|
G|--------------------------------------------------------|
D|7-----------5-7-9---7-9-10---9-10-12---10---9h10-9~---\-|
A|--------------------------------------------------------|
E|--------------------------------------------------------|

e|----------------------------------------------------|
B|------------------------------------------------8---|
G|---------7---9---7--------7---9---10---9---10-------|
D|9---10---------------10-----------------------------|
A|----------------------------------------------------|
E|----------------------------------------------------|

e|------------------------------------------------|
B|10~---------------------------------------------|
G|------------------------------------------------|
D|------------------------------------------------|
A|------------------------------------------------|
E|------------------------------------------------|



Part 2 - Clean Electric - Guitar 1

e|----------------------------------------------------------------|
B|----1---0---------------------------1---0-----1-----1---0-------|
G|----------2---0-------0-------0-----------2---------------0---2-|
D|--2-----------------0-------0---------------------2--------(0)--|
A|0-----0-----0-----2-------2-------2---2-----2---3-----3---------|
E|----------------3------(3)------0-------------------------------|



Part 3 - Distorted Electric - Guitar 1

e|----------------------------------------0-----------------------|
B|----------------------------------------0-----------------------|
G|------------------------------------------------5-5-----5-5-----|
D|7---------------5---------------2-----2---------5-5-----5-5-----|
A|7---------------5---------------2-----2---------3-3-----3-3-----|
E|5-------5-8-5-3-3-------3-7-3-0-0-----0-------------------------|



Lead 2 - Distorted Electric - Guitar 2

e|----------------------------------------------------------------|
B|----------------------------------------------------------------|
G|5~------5h7-5\4-5~------4h5-4\2-0---------------5-5~----5-5~----|
D|----------------------------------------------------------------|
A|----------------------------------------------------------------|
E|----------------------------------------------------------------|

e|----------------------------------------------------------------|
B|----------------------------------------------------------------|
G|5~------5h7-5\4-5~------4h5-4h5-4~--------------5-5~----5-5~----|
D|----------------------------------------------------------------|
A|----------------------------------------------------------------|
E|----------------------------------------------------------------|



Part 4 - Distorted Electric - Guitar 1

  * * * * * * * * * *
e|------------------------------------------------|
B|------------------------------------------------|
G|------------------------------------------------|
D|--------------------5-6-------------------------|
A|------0-2-3-5-7-8-8-----7~----------------------|
E|0-1-4-------------------------------------------|



Part 5 - Distorted Electric - Guitar 1

e|------0-----------0-----------0-----------0-----|
B|---1-----1-----1-----1-----0-----0-----0-----0--|
G|2-----------2-----------0-----------0-----------|
D|------------------------------------------------|
A|------------------------------------------------|
E|------------------------------------------------|

e|------2-----------2-----------0-----------0-----|
B|---3-----3-----3-----3-----1-----1-----1-----1--|
G|0-----------0-----------2-----------2-----------|
D|------------------------------------------------|
A|------------------------------------------------|
E|------------------------------------------------|



Lead 3 - Distorted Electric - Guitar 2

e|------------------------------------------------|
B|------------------------------------------------|
G|7----/9-----------------------------------------|
D|--------7-----7--/9-----5-----------------------|
A|5----/7-----------------------------------------|
E|--------5-----5--/7-----3-----------------------|

e|------------------------------------------------|
B|------------------------------------------------|
G|7----/9-----------------------------------------|
D|--------7-----7--/9-----7-----------------------|
A|5----/7-----------------------------------------|
E|--------5-----5--/7-----5-----------------------|

e|------------------------------------------------|
B|------------------------------------------------|
G|7----/9-----------------------------------------|
D|--------7-----7--/9-----5-----------------------|
A|5----/7-----------------------------------------|
E|--------5-----5--/7-----3-----------------------|

e|------------------------------------------------|
B|------------------------------------------------|
G|7----/9-----------------------------------------|
D|--------7-----7--/9-----7-----------------------|
A|5----/7-----------------------------------------|
E|--------5-----5--/7-----5-----------------------|

e|------------------------------------------------|
B|------------------------------------------------|
G|------------------------------------------------|
D|7-----------------------------------------------|
A|------------------------------------------------|
E|5-----------------------------------------------|



Part 6 - Distorted Electric - Guitar 1

  * * * * * * * * * *                       * * * * * *
e|------------------------------------------------------------------|
B|------------------------------------------------------------------|
G|------------------------------------------------------------------|
D|--------------------5-6-------------------------------5-----------|
A|------0-2-3-5-7-8-8-----7~----------------------0-2-3-5-----------|
E|0-1-4-------------------------------------0-1-4-------3-----------|

  * * * * * *       * * *       * * *       * * * * * * * * * *
e|------------------------------------------------------------------|
B|------------------------------------------------------------------|
G|------------2-----------5-----------4-----------------------------|
D|------------2-----------5-----------4-------------------------5-7-|
A|------0-2-3-0-----------3-----------2-----------0-2-3-5-7-8-8-----|
E|0-1-4-------------0-1-4-------0-1-4-------0-1-4-------------------|



Part 7 - Distorted Electric - Guitar 1

e|----------------------------------------------------------------|
B|----------------------------------------------------------------|
G|----------------------------------------------------------------|
D|10------\-------2---------------9-------\-------2---------------|
A|10------\-------2---------------9-------\-------2---------------|
E|8-------\-------0---------------7-------\-------0---------------|

e|----------------------------------------------------------------|
B|----------------------------------------------------------------|
G|----------------------------------------------------------------|
D|10------\-------2---------------9-------\-------2---------------|
A|10------\-------2---------------9-------\-------2---------------|
E|8-------\-------0---------------7-------\-------0---------------|



Part 8 - Distorted Electric - Guitar 1

e|play-this-part|-------------------------------------------------|
B|on-the-first--|-------------------------------------------------|
G|time only-----|-------------------------------------------------|
D|--------------|-------------------------------------------------|
A|7----7--------|-10----7---10----7----7----------10----7---10----|
E|0----0--------|-0-----0---0-----0----0----------0-----0---0-----|

                                            *    *    *    *    *
e|----------------------------------------------------------------|
B|----------------------------------------------------------------|
G|----------------------------------------------------------------|
D|----------------------------------------------------------------|
A|7----7----------10----7---10----9----8--------------------------|
E|0----0----------0-----0---0-----7----6----0----0----0----0----0-|

  * * * * *   *
e|--------------|
B|--------------|
G|--------------|
D|--------------|
A|--------------|
E|3-3-3-2-0---0-|



Part 9 - Distorted Electric - Guitar 1

e|----------------------------------------------------------------|
B|----------------------------------------------------------------|
G|----------------------------------------------------------------|
D|----------------------------------------------------------------|
A|4----4----------7-----4---7-----4----4----------7-----4---7-----|
E|2----2----------5-----2---5-----2----2----------5-----2---5-----|

e|----------------------------------------------------------------|
B|----------------------------------------------------------------|
G|----------------------------------------------------------------|
D|----------------------------------------------------------------|
A|4----4----------7-----4---7-----7-------9-------6-------9-------|
E|2----2----------5-----2---5-----5-------7-------4-------7-------|

e|----------------------------------------------------------------|
B|----------------------------------------------------------------|
G|----------------------------------------------------------------|
D|----------------------------------------------------------------|
A|9-------11------7-------11------12------9-------12--12----12-\--|
E|7-------9-------5-------9-------10------7-------10--10----10-\--|

                             * * * * * * * * * *
e|----------------------------------------------------------------|
B|----------------------------------------------------------------|
G|----------------------------------------------------------------|
D|-----------------------------------------------5-6--------------|
A|12--12----12-\-------------------0-2-3-5-7-8-8-----7~-----------|
E|10--10----10-\-------------0-1-4--------------------------------|



Part 10 - Distorted Electric - Guitar 1

  * * * * * * * * * * * *         * * * * * * * * * * * *
e|----------------------------------------------------------------|
B|----------------------------------------------------------------|
G|----------------------------------------------------------------|
D|----------------------------------------------------------------|
A|----------------------------------------------------------------|
E|0-0-0-0-0-0-0-0-0-0-0-0-0-0-----0-0-0-0-0-0-0-0-0-0-0-0-0-0-----|

  * * * * * *         * * * * * *         * * * * * *     * *
e|----------------------------------------------------------------|
B|----------------------------------------------------------------|
G|----------------------------------------------------------------|
D|----------------------------------------------------------------|
A|------------------------------------------------------------6~--|
E|0-0-0-0-0-0-1-0-----0-0-0-0-0-0-1-0-----0-0-0-0-0-0-1-0-0-0-----|

  * * * * * * * * * * * *         * * * * * * * * * * * *
e|----------------------------------------------------------------|
B|----------------------------------------------------------------|
G|----------------------------------------------------------------|
D|----------------------------------------------------------------|
A|----------------------------------------------------------------|
E|0-0-0-0-0-0-0-0-0-0-0-0-0-0-----0-0-0-0-0-0-0-0-0-0-0-0-0-0-----|

  * * * * * *         * * * * * *         * * * * * *     * *
e|----------------------------------------------------------------|
B|----------------------------------------------------------------|
G|----------------------------------------------------------------|
D|----------------------------------------------------------------|
A|------------------------------------------------------------6~--|
E|0-0-0-0-0-0-1-0-----0-0-0-0-0-0-1-0-----0-0-0-0-0-0-1-0-0-0-----|

  * * * * * * * * * * * *         * * * * * * * * * * * *
e|----------------------------------------------------------------|
B|----------------------------------------------------------------|
G|----------------------------------------------------------------|
D|----------------------------------------------------------------|
A|----------------------------------------------------------------|
E|0-0-0-0-0-0-0-0-0-0-0-0-0-0-----0-0-0-0-0-0-0-0-0-0-0-0-0-0-----|



Part 11 - Distorted Electric - Guitar 1

e|----------------------------------------------------------------|
B|----------------------------------------------------------------|
G|9---9-9-9p7-------7--7-7-7p4-----4---4-4-4p2-----2p0------------|
D|--------------9--------------7---------------5-------2---5p2----|
A|-------------------------------------------------------------5--|
E|----------------------------------------------------------------|

e|----------------------------------------------------------------|
B|----------------------------------------------------------------|
G|9---9-9-9p7-------7--7-7-7p4-----4---4-4-4p2-----7b9-7---4h7-7--|
D|--------------9--------------7---------------5------------------|
A|----------------------------------------------------------------|
E|----------------------------------------------------------------|

e|--------------------------------------------------------------------------------|
B|12---12-12-12p10--------10---10-10-10p8--------8---8-8-8p7-------7p5-----5p3----|
G|-------------------12---------------------11-----------------9-------7-------5--|
D|--------------------------------------------------------------------------------|
A|--------------------------------------------------------------------------------|
E|--------------------------------------------------------------------------------|

e|--------------------------------------------------------------------------------|
B|12---12-12-12p10--------10---10-10-10p8--------8---8-8-8p7-----5h7p5---3h5p3----|
G|-------------------12---------------------11-----------------9-------7-------5--|
D|--------------------------------------------------------------------------------|
A|--------------------------------------------------------------------------------|
E|--------------------------------------------------------------------------------|

e|--------------------------------7-7-0-|
B|1h3p1-----0h1p0-----0---5-5-0---------|
G|------4---------2---------------------|
D|--------------------------------------|
A|--------------------------------------|
E|--------------------------------------|



Lead 4 - Distorted Electric - Guitar 2

e|----------------------------------------------------------------|
B|----------------------------------------------------------------|
G|9---9-9-9p7-------7--7-7-7p4-----4---4-4-4p2-----2p0------------|
D|--------------9--------------7---------------5-------2---5p2----|
A|-------------------------------------------------------------5--|
E|----------------------------------------------------------------|

e|----------------------------------------------------------------|
B|----------------------------------------------------------------|
G|9---9-9-9p7-------7--7-7-7p4-----4---4-4-4p2-----7b9-7---4h7-7--|
D|--------------9--------------7---------------5------------------|
A|----------------------------------------------------------------|
E|----------------------------------------------------------------|

e|----------------------------------------------------------------|
B|----------------------------------------------------------------|
G|9---9-9-9p7-------7--7-7-7p4-----4---4-4-4p2-----2p0------------|
D|--------------9--------------7---------------5-------2---5p2----|
A|-------------------------------------------------------------5--|
E|----------------------------------------------------------------|

e|19---19-19-19p17--------17---17-17-17p15--------15---15-15p14--------12h14p12-|
B|-------------------20----------------------19-------------------17------------|
G|------------------------------------------------------------------------------|
D|------------------------------------------------------------------------------|
A|------------------------------------------------------------------------------|
E|------------------------------------------------------------------------------|

e|-----10h12p10------8h10p8-------7h8p7--------------------7-7-0-|
B|15------------11-----------12-----------10---0---5-5-0---------|
G|---------------------------------------------------------------|
D|---------------------------------------------------------------|
A|---------------------------------------------------------------|
E|---------------------------------------------------------------|



Part 12 - Distorted Electric - Guitar 1

e|------------------------------------------------|
B|------------------------------------------------|
G|------------------------------------------------|
D|------------------------------------------------|
A|------------------------------------------------|
E|0h5h8-0h5h8-0h5h8-0h5h8-0h5h8-0h5h8-0h5h8-0h5h8-|

e|------------------------------------------------|
B|------------------------------------------------|
G|------------------------------------------------|
D|------------------------------------------------|
A|------------------------------------------------|
E|0h5h7-0h5h7-0h5h7-0h5h7-0h4h7-0h4h7-0-----------|



Lead 5 - Distorted Electric - Guitar 2

e|0h5h8-0h5h8-0h5h8-0h5h8-0h5h8-0h5h8-0h5h8-0h5h8-|
B|------------------------------------------------|
G|------------------------------------------------|
D|------------------------------------------------|
A|------------------------------------------------|
E|------------------------------------------------|

e|0h5h7-0h5h7-0h5h7-0h5h7-0h4h7-0h4h7-0-----------|
B|------------------------------------------------|
G|------------------------------------------------|
D|------------------------------------------------|
A|------------------------------------------------|
E|------------------------------------------------|



Part 13 - Distorted Electric - Guitar 1

e|--------------------------------------------------------7-7-0-0-|
B|----------------------------------------------0-5-5-0-0---------|
G|----------------------------------------------------------------|
D|10------\-------2---------------9-------------------------------|
A|10------\-------2---------------9-------------------------------|
E|8-------\-------0---------------7-------------------------------|

e|--------------------------------------------------------7-7-0-0-|
B|----------------------------------------------0-5-5-0-0---------|
G|----------------------------------------------------------------|
D|10------\-------2---------------9-------------------------------|
A|10------\-------2---------------9-------------------------------|
E|8-------\-------0---------------7-------------------------------|


e|----------------------------------------------------------------|
B|----------------------------------------------------------------|
G|----------------------------------------------------------------|
D|2---------------------------------------------------------------|
A|2---------------------------------------------------------------|
E|0---------------------------------------------------------------|



Lead 6 - Distorted Electric - Guitar 2

e|----------7-7-0-0|
B|0-5-5-0-0--------|
G|-----------------|
D|-----------------|
A|-----------------|
E|-----------------|



Part 14 - Distorted Electric - Guitar 1

e|---------------------------------------------------------------|
B|---------------------------------------------------------------|
G|---------------------------------------------------------------|
D|-------------------------------------------12------------------|
A|9---7---5---2---9---7---5---2---7---9--12--10-/14--12-/9---7---|
E|7---5---3---0---7---5---3---0---5---7--10-----/12--10-/7---5---|

e|---------------------------------------------------------------|
B|---------------------------------------------------------------|
G|---------------------------------------------------------------|
D|-------------------------------------------12------------------|
A|9---7---5---2---9---7---5---2---7---9--12--10--2---5---9---5---|
E|7---5---3---0---7---5---3---0---5---7--10------0---3---7---3---|



Lead 7 - Distorted Electric - Guitar 2
(Note: Lead 7 requires a 24 fret guitar.)


e|---------------------------------------------------------------------------|
B|---------------------------------------------------------------------------|
G|4b-4b-4b-4b-4b-4b-4b-4b-4b-4b-4b-4b-4b-4b-4b-4b-4b-4r--2---4r--2---4r--2---|
D|---------------------------------------------------------------------------|
A|---------------------------------------------------------------------------|
E|---------------------------------------------------------------------------|

e|---------------------------------------------------------------------------|
B|---------------------------------------------------------------------------|
G|----------------7-----------------7-----------------7---7-9-9b11r9-7-9-7---|
D|4~----------7-9---9~----------7-9---9~----------7-9---9------------------9-|
A|---------------------------------------------------------------------------|
E|---------------------------------------------------------------------------|

e|--------------------------------14-17p15p14------------17p15p14------------|
B|-----7---8---10--12~------/17---------------17p15p14------------17p15p14---|
G|-7-9-----------------------------------------------------------------------|
D|---------------------------------------------------------------------------|
A|---------------------------------------------------------------------------|
E|---------------------------------------------------------------------------|

e|17p15p14------------17p15p14---------------------------------------------|
B|---------17p15p14------------17p15p14-----17p15p14------------17p15p14---|
G|---------------------------------------------------16p14p13--------------|
D|-------------------------------------------------------------------------|
A|-------------------------------------------------------------------------|
E|-------------------------------------------------------------------------|

e|------------------------------------------------------------------------|
B|-----------15-14-12-14-12-----------------------------------------------|
G|16p14p13------------------14p13p12---14---16r14---12~-------12~----12---|
D|---------------------------------------------------------14-------------|
A|------------------------------------------------------------------------|
E|------------------------------------------------------------------------|

e|---------------------------------------------------------------------|
B|---------------------------------------------------------------------|
G|------11--------10--------9---------8---------7---------6------------|
D|13---------12--------11--------10--------9---------8---------7\------|
A|---------------------------------------------------------------------|
E|---------------------------------------------------------------------|

e|-----------------------------------------------8-----8--10~----5----6----|
B|-------------------------8-----8--10~----10-10----10-----------8b10-9b11-|
G|----7-----7--9~----9--9-----9--------------------------------------------|
D|/9-----9-----------------------------------------------------------------|
A|-------------------------------------------------------------------------|
E|-------------------------------------------------------------------------|

e|14----------14----------14----------14----------|
B|---12-10-12----12-10-12----12-10-12----12-10-12-|
G|------------------------------------------------|
D|------------------------------------------------|
A|------------------------------------------------|
E|------------------------------------------------|

e|15----------15----------15----------15----------|
B|---13-12-13----13-12-13----13-12-13----13-12-13-|
G|------------------------------------------------|
D|------------------------------------------------|
A|------------------------------------------------|
E|------------------------------------------------|

e|17----------17----------17----------17----------|
B|---15-13-15----15-13-15----15-13-15----15-13-15-|
G|------------------------------------------------|
D|------------------------------------------------|
A|------------------------------------------------|
E|------------------------------------------------|

e|19----------17----------19----------17----------|
B|---17-15-17----17-15-17----17-15-17----17-15\---|
G|------------------------------------------------|
D|------------------------------------------------|
A|------------------------------------------------|
E|------------------------------------------------|

e|14----------14----------14----------14----------|
B|---12-10-12----12-10-12----12-10-12----12-10-12-|
G|------------------------------------------------|
D|------------------------------------------------|
A|------------------------------------------------|
E|------------------------------------------------|

e|15----------15----------15----------15----------|
B|---13-12-13----13-12-13----13-12-13----13-12-13-|
G|------------------------------------------------|
D|------------------------------------------------|
A|------------------------------------------------|
E|------------------------------------------------|

e|17----------17----------17----------17----------|
B|---15-13-15----15-13-15----15-13-15----15-13-15-|
G|------------------------------------------------|
D|------------------------------------------------|
A|------------------------------------------------|
E|------------------------------------------------|

e|19----------17----------19----------17----------|
B|---17-15-17----17-15-17----17-15-17----17-15-17-|
G|------------------------------------------------|
D|------------------------------------------------|
A|------------------------------------------------|
E|------------------------------------------------|

e|24p23p22-23p22p21-22p21p20-21p20p19-20p19p18-19p18p17-18p17p16-17p16p15-|
B|------------------------------------------------------------------------|
G|------------------------------------------------------------------------|
D|------------------------------------------------------------------------|
A|------------------------------------------------------------------------|
E|------------------------------------------------------------------------|

e|16p15p14-15p14p13-14p13p12-13p12p11-12p11p10-11p10p9-10p9p8-9p8p7-------|
B|------------------------------------------------------------------7-----|
G|---------------------------------------------------------------------9--|
D|------------------------------------------------------------------------|
A|------------------------------------------------------------------------|
E|------------------------------------------------------------------------|

e|------|
B|------|
G|7\----|
D|------|
A|------|
E|------|

e|----------------------------------------------------15---17---19---20---|
B|----------10b12----------12-15b17---------15---17-----------------------|
G|----7--7--------------12------------/16---------------------------------|
D|/9----------------/14---------------------------------------------------|
A|------------------------------------------------------------------------|
E|------------------------------------------------------------------------|

e|22b24\-|
B|-------|
G|-------|
D|-------|
A|-------|
E|-------|



Part 15 - Distorted Electric - Guitar 1

  * * * * * * * * * * * * * * * * * * * * * * * * * * * * * * * *
e|----------------------------------------------------------------|
B|----------------------------------------------------------------|
G|----------------------------------------------------------------|
D|----------------------------------------------------------------|
A|2-2-2-2-2-2-2-2-2-2-2-2-2-2-2-2-2-2-2-2-2-2-2-2-2-2-2-2-2-2-2-2-|
E|----------------------------------------------------------------|

  * * * * * * * * * * * * * * * * * * * * * * * * * * * * * * * *
e|----------------------------------------------------------------|
B|----------------------------------------------------------------|
G|----------------------------------------------------------------|
D|----------------------------------------------------------------|
A|2-2-2-2-2-2-2-2-2-2-2-2-2-2-2-2-2-2-2-2-2-2-2-2-2-2-2-2-2-2-2-2-|
E|----------------------------------------------------------------|

  * * * * * * * * * * * * * * * * * * * * * * * * * * * * * * * *
e|----------------------------------------------------------------|
B|----------------------------------------------------------------|
G|----------------------------------------------------------------|
D|----------------------------------------------------------------|
A|----------------------------------------------------------------|
E|0-0-0-0-0-0-0-0-0-0-0-0-0-0-0-0-0-0-0-0-0-0-0-0-0-0-0-0-0-0-0-0-|

  * * * * * * * * * * * * * * * * * * * * * * * * * * * * * * * *
e|----------------------------------------------------------------|
B|----------------------------------------------------------------|
G|----------------------------------------------------------------|
D|----------------------------------------------------------------|
A|----------------------------------------------------------------|
E|0-0-0-0-0-0-0-0-0-0-0-0-0-0-0-0-0-0-0-0-0-0-0-0-0-0-0-0-0-0-0-0-|

  * * * * * * * * * * * * * * * * * * * * * * * * * * * * * * * *
e|----------------------------------------------------------------|
B|----------------------------------------------------------------|
G|----------------------------------------------------------------|
D|----------------------------------------------------------------|
A|0-0-0-0-0-0-0-0-0-0-0-0-0-0-0-0-0-0-0-0-0-0-0-0-1-1-1-1-2-2-2-2-|
E|----------------------------------------------------------------|

  * * * * * * * * * * * * * * * * * * * * * * * * * * * * * * * *
e|----------------------------------------------------------------|
B|----------------------------------------------------------------|
G|----------------------------------------------------------------|
D|----------------------------------------------------------------|
A|2-2-2-2-2-2-2-2-2-2-2-2-2-2-2-2---------------------------------|
E|--------------------------------3-3-3-3-3-3-3-3-3-3-3-3-3-3-3-3-|

  * * * * * * * * * * * * * * * * * * * * * * * * * * * * * * * *
e|----------------------------------------------------------------|
B|----------------------------------------------------------------|
G|----------------------------------------------------------------|
D|----------------------------------------------------------------|
A|0-0-0-0-0-0-0-0-0-0-0-0-0-0-0-0---------------------------------|
E|--------------------------------2-2-2-2-2-2-2-2-2-2-2-2-2-2-2-2-|

  * * * * * * * * * * * * * * * * * * * * * * * * * * * * * * * *
e|----------------------------------------------------------------|
B|----------------------------------------------------------------|
G|----------------------------------------------------------------|
D|----------------------------------------------------------------|
A|2-2-2-2-2-2-2-2-2-2-2-2-2-2-2-2---------------------------------|
E|--------------------------------3-3-3-3-3-3-3-3-3-3-3-3-3-3-3-3-|

  * * * * * * * * * * * * * * * * * * * * * * * * * * * * * * * *
e|----------------------------------------------------------------|
B|----------------------------------------------------------------|
G|----------------------------------------------------------------|
D|----------------------------------------------------------------|
A|0-0-0-0-0-0-0-0-0-0-0-0-0-0-0-0---------------------------------|
E|--------------------------------2-2-2-2-2-2-2-2-2-2-2-2-2-2-2-2-|

  * * * * * * * * * * * * * * * * * * * * * * * * * * * * * * * *
e|----------------------------------------------------------------|
B|----------------------------------------------------------------|
G|----------------------------------------------------------------|
D|----------------------------------------------------------------|
A|----------------------------------------------------------------|
E|0-0-0-0-0-0-0-0-0-0-0-0-0-0-0-0-0-0-0-0-0-0-0-0-0-0-0-0-0-0-0-0-|

  * * * * * * * * * * * * * * * * * * * * * * * * * * * * * * * *
e|----------------------------------------------------------------|
B|----------------------------------------------------------------|
G|----------------------------------------------------------------|
D|----------------------------------------------------------------|
A|----------------------------------------------------------------|
E|0-0-0-0-0-0-0-0-0-0-0-0-0-0-0-0-0-0-0-0-0-0-0-0-0-0-0-0-0-0-0-0-|



Part 16 - Distorted Electric - Guitar 1

e|----------------------------------------------------------------|
B|----------------------------------------------------------------|
G|----------------------------------------------------------------|
D|10------\-------2---------------9-------\-------2---------------|
A|10------\-------2---------------9-------\-------2---------------|
E|8-------\-------0---------------7-------\-------0---------------|

                                                  * * * * * * * *
e|----------------------------------------------------------------|
B|----------------------------------------------------------------|
G|----------------------------------------------------------------|
D|10------\-------2---------------9-------\-----------------------|
A|10------\-------2---------------9-------\-----------------------|
E|8-------\-------0---------------7-------\-------3-2-1-0-3-2-1-0-|

                                                  * * * * * * * *
e|----------------------------------------------------------------|
B|----------------------------------------------------------------|
G|----------------------------------------------------------------|
D|10------\-------2---------------9-------\-----------------------|
A|10------\-------2---------------9-------\-----------------------|
E|8-------\-------0---------------7-------\-------3-2-1-0-3-2-1-0-|



Part 17 - Distorted Electric - Guitar 1

e|----------------------------------------------------------------|
B|----------------------------------------------------------------|
G|----------------------------------------------------------------|
D|--------10--9---------------------------10--9-------------------|
A|10--9---8---7---5---4---2-------10--9---8---7---5---4---2-------|
E|8---7-----------3---2---0-------8---7-----------3---2---0-------|

                      * * * * * *                     * * * * * *
e|----------------------------------------------------------------|
B|----------------------------------------------------------------|
G|----------------------------------------------------------------|
D|7-------------------------------7-------------------------------|
A|5---------4---------5-4-3-5-4-3-5---------4---------5-4-3-5-4-3-|
E|----------2---------5-4-3-5-4-3-----------2---------5-4-3-5-4-3-|

e|--------------------------------|
B|--------------------------------|
G|--------------------------------|
D|--------10--9-------------------|
A|10--9---8---7---5---4---2-------|
E|8---7-----------3---2---0-------|



Part 18 - Distorted Electric - Guitar 1

e|------------------------------------------------|
B|------------------------------------------------|
G|------------------------------------------------|
D|------------------------------------------------|
A|------------------------------------------------|
E|0h5h8-0h5h8-0h5h8-0h5h8-0h5h8-0h5h8-0h5h8-0h5h8-|

e|------------------------------------------------|
B|------------------------------------------------|
G|------------------------------------------------|
D|------------------------------------------------|
A|---------------------------8--8--8--8--8--7-----|
E|0h4h7-0h4h7-0h4h7-0h4h7----8--8--8--8--8--7-----|



Lead 8 - Distorted Electric - Guitar 2

e|0h5h8-0h5h8-0h5h8-0h5h8-0h5h8-0h5h8-0h5h8-0h5h8-|
B|------------------------------------------------|
G|------------------------------------------------|
D|------------------------------------------------|
A|------------------------------------------------|
E|------------------------------------------------|

e|0h4h7-0h4h7-0h4h7-0h4h7-------------------------|
B|------------------------------------------------|
G|------------------------------------------------|
D|------------------------------------------------|
A|---------------------------8--8--8--8--8--7-----|
E|---------------------------8--8--8--8--8--7-----|



| b  bend string
| r  return bend
| /  slide up
| \  slide down
| h  hammer-on
| p  pull-off
| ~  vibrato
| +  harmonic
| *  palm mute
| () ghost note



===================================================================================
                              ALL NIGHTMARE LONG
===================================================================================


Band: Metallica
Song: All Nightmare Long
CD: Death Magnetic

(BTW, it's drop d tuning)

+ means palm mute
^ means harmonic
tr means tremelo pick


Intro
clean
e|-------------------------------|
b|-------------------------------|
g|-------------------------------|x4
d|----0--5-6-5-------5--------5--|
a|------------------------------6|
D|-0------------0------3--0------|

distorted
|--------------|
|--------------|
|--------------|x2
|--------------|
|-0----6-5--0-0|
|-0----6-5--0-0|
            + +

|---------------------------------------------------------------|
|---------------------------------------------------------------|
|---------------------------------------------------------------|
|---------------------------------------------------------------|
|-0----6-5--0-0-0-------0----6-5--0-0--0---0-0--0---6-5--0---6-5|
|-0----6-5--0-0-0-------0----6-5--0-0--0---0-0--0---6-5--0---6-5|
            + + +                 + +

|--------------------------------------|
|--------------------------------------|
|--------------------------------------|
|--------------------------------------|
|--------------------------------------|
|000000000000000000000000002^2^3^3^4^4^|
 ++++++++++++++++++++++++++

|-------------------------------|
|-------------------------------|
|-------------------------------|
|-------------------------------|x4
|-------------------------------|
|-110-0-0-0-0-0-0-0-0-0-0-0-0-0-|
  +++ + + + + + + + + + + + + +

Post-Chorus
|----------------------------|    |--------------------|
|----------------------------|    |--------------------|
|----------------------------|x7  |--------------------|
|----------------------------|    |--------------------|
|-----------1-1---1-1--------|    |-----------1-1---1-1|
|-110-0-0-0-1-1-0-1-1-222-333|    |-110-0-0-0-1-1-0-1-1|
  +++ + + +     +     +++ +++       +++ + + +     +

|--------------------|
|--------------------|
|--------------------|
|--------------------|
|--3p0--5p0--3p0--5p0|
|--3p0--5p0--3p0--5p0|

Pre-Chorus+Pre-verse part 1
|------------------------------------------------------------|
|------------------------------------------------------------|
|------------------------------------------------------------|x2 1st time
|---------------------------------------------7-7-7-5-5-/1010|x1 2nd time
|-0--0-3-000000--0--0-3-000000--0--0-3-000000-5-5-5-3-3-/8-8-|
|-0--0-3-000000--0--0-3-000000--0--0-3-000000----------------|
         ++++++         ++++++         ++++++

Pre-chorus+Pre-verse part 2                       1st time only
|-------------------------------------------------------------|
|-------------------------------------------------------------|
|-------------------------------------------------------------|
|-2---3---6---7---10-101010-101010-101010-101012-121212121212-|
|-0---1---4---5---8--8-8-8--8-8-8--8-8-8--8-8-10-101010101010-|
|-------------------------------------------------------------|
                     + + +  + + +  + + +  + + +

rest of the time
|-----------------------------------|
|-----------------------------------|
|-----------------------------------|
|-2---3---6---7---1010101010101010--|
|-0---1---4---5---8-8-8-8-8-8-8-8---|
|-----------------------------------|

Verse
|-----------------------------------------------------------|
|-----------------------------------------------------------|
|-----------------------------------------------------------|
|-9tr----------------------------------2--------------------|
|------8tr-7tr-5tr-2tr-----------2-3-5---5-3-3h5p3-2--------|
|----------------------3333-2tr----------------------2tr----|
                                 + + +   + + +     +

|-------------------------------------------------------------|
|-------------------------------------------------------------|
|-------------------------------------------------------------|
|-------2-------------4---------5---------4---------5---------|
|-2-3-5---5-3-3h5p3---2let ring-3let ring-2let ring-3let ring-|
|-------------------------------------------------------------|
  + + +   + + +
|----------------------------------------------------------------------------|
|----------------------------------------------------------------------------|
|----------------------------------------------------------------------------|
|-4--------4--------4--------4--------444-------444------444------444--------|
|-2--2--3--2--2--3--2--2--3--2--2--3--222222333222222333222222333222222333---|
|----2--3-----2--3-----2--3-----2--3-----222333---222333---222333---222333---|
                                      ++++++++++++++++++++++++++++++++++++
Chorus
|----------------------------------------------------------------|
|----------------------------------------------------------------|
|----------------------------------------------------------------|x4
|------1010-9-9\7------1010-9-9\7------1010-9-9\7----------------|
|-0-0--8-8--7-7\5-0-0--8-8--7-7\5-0-0--8-8--7-7\5-5-5-5-3-3-3-3\2|
|-0-0-------------0-0-------------0-0-------------5-5-5-3-3-3-3\2|

|-------|
|-------|
|-------|
|-1-1-1-|
|-1-1-1-|
|-1-1-1-|

Interlude 1                                repeat section x8
|-------------------------------------|------------------------------|
|-------------------------------------|------------------------------|
|-------------------------------------|------------------------------|
|-------------------------------------|---0-8-7--0-7-3--0-3-2--0-2-0-|
|-3p0005p0003p0005p000-0----3p0005p000|------------------------------|
|-3p0005p0003p0005p000-0----3p0005p000|-0----------------------------|
  ++++++++++++++++++++      ++++++++++

Solo 1
S S S S S S S S S S S S S S S S S S S S S S S S
e|--------------------------------------------------------------------------------------------|
B|--------------------------------------------------------------------------------------------|
G|--------------------------------------------------------------------------------------------|
D|--12-12-12-12-12-12-12-12-12-12-12-12-12-12-0-0-12-12-12-12-0-0-12-12-0-0-------------------|
A|--------------------------------------------------------------------------------------------|
D|--------------------------------------------------------------------------------------------|

S S S S S S S S S S S S S S S S S S S S S S S S S S S S S S S
e|--------------------------------------------------------------------------------------------|
B|--------------------------------------------------------------------------------------------|
G|--------------------------------------------------------------------------------------------|
D|--12-12-12-12-0-0-12-12-12-12-0-0-12-12-0-0-12-0-11-0-10-0-9-0-8-0-7-0-6-0-5----------------|
A|--------------------------------------------------------------------------------------------|
D|--------------------------------------------------------------------------------------------|

E. S S S E. S E Q x3 E. S S S E H
e|-----------------------------|---------------------------------------------------------------|
B|o----------------------5----o|---------------------------------------------------------------|
G|-----------------------5-----|---------------------------------------------------------------|
D|---7--5--7--5--7--5--7-------|---7--5--7--5--7---(7)-----------------------------------------|
A|o---------------------------o|---------------------------------------------------------------|
D|-----------------------------|---------------------------------------------------------------|

S S S S S S S S S S S S S S S S x6
e|---------------------------------------------------------------------------------------------|
B|---------------------------------------------------------------------------------------------|
G|--4--2-----2--4--2--4--2-----2--4--2--4--2-----2---------------------------------------------|
D|--------4-----------------4-----------------4------------------------------------------------|
A|---------------------------------------------------------------------------------------------|
D|---------------------------------------------------------------------------------------------|

S S S S S S E S S E S S E S S S S S S S S S S S S S S S S
e|---------------------------------------------------------------------------------------------|
B|-----------0--5--2--0--6--2--0--7--2--0--8--2--0--0--9--6--0--0--9--5--0--0--9--9--0--0------|
G|--4--2--4------------------------------------------------------------------------------------|
D|---------------------------------------------------------------------------------------------|
A|---------------------------------------------------------------------------------------------|
D|---------------------------------------------------------------------------------------------|

S S S S S T T S S S S S S S S S S S S S S S S S S S S S S
e|--------------------------------------------------------------------------------------------|
B|--9--9--0--0-12--9--0-15-12--0--0-16-13--0--0-17-14--0--0-18-15--0--0-19-16--0--0-20-17-----|
G|--------------------------------------------------------------------------------------------|
D|--------------------------------------------------------------------------------------------|
A|--------------------------------------------------------------------------------------------|
D|--------------------------------------------------------------------------------------------|

S S S S S S S S S S E S S E S S E S S E S S E S S E Q E
e|--------------------------------------------------------------------------------------------|
B|--0--0-21-18--0--0-22--0-22-19--0-22-19--0-22-19--0-22-19--0-22-19--0-22-19-0--22/--(22/)---|
G|--------------------------------------------------------------------------------------------|
D|---


Interlude 2
                    Repeat x2
|------------------------------|
|------------------------------|
|------------------------------|
|-7-8-7-----7-8-7--------------|
|-------8---------8-5----------|
|-0-0-0-0-0-0-0-0-0-0-0-0-0-0-0|
          +           + + + + +
|-----------------------------------------------|
|-----------------------------------------------|
|-----------------------------------------------|repeat whole Interlude x2
|-7-8-7----7--7-7-8-7---6--6-6-7-6--2--2-2-3-2--|
|-------8--7--7-7-8-7---6--6-6-7-6--2--2-2-3-2--|
|-0-0-0-0--7--7-7-8-7---6--6-6-7-6--2--2-2-3-2--|

Pre-solo
|---------------------------------------------------------------|
|---------------------------------------------------------------|
|---------------------------------------------------------------|
|---------------------------------------------------------------|
|---------------------------------------------------------------|
|-00000000000000000000000000000000222222222222222222222222222222|
  ++++++++++++++++++++++++++++++++++++++++++++++++++++++++++++++

Solo 2 (with wah)
S S Q S S Q S S E S S Q S S Q S S E
e|--------------------------------------------------------------------------------------------|
B|--------------------------------------------------------------------------------------------|
G|--3--2-----3--2-----3--2-----3--2-----3--2-----3--2-----------------------------------------|
D|--------2--------2--------2--------2--------2--------2--------------------------------------|
A|--------------------------------------------------------------------------------------------|
D|--------------------------------------------------------------------------------------------|

S S Q S S Q S S E S S Q S S Q S S E
e|--------------------------------------------------------------------------------------------|
B|--------------------------------------------------------------------------------------------|
G|--3--2-----3--2-----3--2-----3--2-----3--2-----3--2-----------------------------------------|
D|--------3--------3--------3--------3--------3--------3--------------------------------------|
A|--------------------------------------------------------------------------------------------|
D|--------------------------------------------------------------------------------------------|

S S S S S S S S S S S S S S S S x4 S S Q S S Q S S S S
e|--------------------------------------------------|------------------------------------------|
B|--------------------------------------------------|------------------------------------------|
G|--5--3--0--0--5--3--0--0--5--3--0--0--5--3--0--0--|-----3--2-----3--2-----3--2---------------|
D|--------------------------------------------------|-----------2--------2--------2--2---------|
A|--------------------------------------------------|------------------------------------------|
D|--------------------------------------------------|------------------------------------------|

S S S S S S S S S S S S S S S S
e|--------------------------------------------------------------------------------------------|
B|--------------------------------------------------------------------------------------------|
G|--3--2--------3--2--------3--2--------3--2--------------------------------------------------|
D|--------2--2--------2--2--------2--2--------2--2--------------------------------------------|
A|--------------------------------------------------------------------------------------------|
D|--------------------------------------------------------------------------------------------|

S S S S S S S S S S S S S S S S
x2
e|--------------------------------------------------------------------------------------------|
B|--------------------------------------------------------------------------------------------|
G|--3--2--------3--2--------3--2--------3--2--------------------------------------------------|
D|--------3--3--------3--3--------3--3--------3--3--------------------------------------------|
A|--------------------------------------------------------------------------------------------|
D|--------------------------------------------------------------------------------------------|

S S S S S S S S S S S S S S S S
x2
e|--------------------------------------------------------------------------------------------|
B|--------------------------------------------------------------------------------------------|
G|--5--3--0--0--5--3--0--0--5--3--0--0--5--3--0--0--------------------------------------------|
D|--------------------------------------------------------------------------------------------|
A|--------------------------------------------------------------------------------------------|
D|--------------------------------------------------------------------------------------------|

S S S S S S S S S S S S S S S S
x2
e|--------------------------------------------------------------------------------------------|
B|--------------------------------------------------------------------------------------------|
G|--------------------------------------------------------------------------------------------|
D|--5--3--0--0--5--3--0--0--5--3--0--0--5--3--0--0--------------------------------------------|
A|--------------------------------------------------------------------------------------------|
D|--------------------------------------------------------------------------------------------|

S S S S S S S S S S S S S S S S S S S S S S S T T
H
e|------------------------------------------------------------12-10----12-14--15tr-19tr--24\--|
B|-10--8-----8--10--8--10--8-----8--10--8--10--8-----8--10/12-------12------------------------|
G|--------9-------------------9-------------------9-------------------------------------------|
D|--------------------------------------------------------------------------------------------|
A|--------------------------------------------------------------------------------------------|

Bridge                          repeat this section x3
|---------------------|---------------------------------------|
|---------------------|---------------------------------------|
|---------------------|---------------------------------------|
|---------------------|-----------------------10-9--8--7--8--9|
|---------------------|-----------------------8--7--6--5--6--7|
|-00000000000000000000|0000000000000000000000-----------------|
  +++++++++++++++++++++++++++++++++++++++++++

                                  repeat this section x6 (don’t last note on
|-----------------------------|------------------| sixth repeat
|-----------------------------|------------------|
|-----------------------------|------------------|
|-7--6--5--4--5---------------|-------------3-2-1|
|-5--4--3--2--3---------------|-------------3-2-1|
|---------------00000000000000|00000000000003-2-1|
                ++++++++++++++++++++++++++++

Outro-first repeat clean part of intro with distortion and wah, then this
|----------------------------------------|
|----------------------------------------|
|----------------------------------------|x2
|----------------------------------------|
|-3p0-5p0-3p0-5p0-0-0-3p0-5p0-3p0-3p0-0-0|
|-3p0-5p0-3p0-5p0-0-0-3p0-5p0-3p0-5p0-0-0|

|--------------|
|--------------|
|--------------|
|-----------5--|x4
|-0--0-3------6|
|-0--0-3--0----|

|--------------------------|
|--------------------------|
|--------------------------|
|---0-5-6-5let-ring---0-5-0|
|-------------------------0|
|-0-----------------0-----0|
                    +
Order of song:
1.Intro
2.Post-chorus
3.Pre-chorus+pre-verse parts 1 and 2
4.Verse
5.Pre-chorus part 2
6.Pre-chorus part 1
7.Pre-chorus part 2
8.Chorus
9.Post-chorus
10.Pre-verse parts 1 and 2
11.Pre-chorus part 2
12.Pre-chorus part 1
13.Pre-chorus part 2
14.Interlude 1
15.Solo 1
16.Interlude 2
17.Solo 2
18.Bridge
19.Chorus
20.Pre-verse part 1
21.Outro


====================================================================================
                                    CYANIDE
====================================================================================


Cyanide
Metallica
Death Magnetic

Standard Tuning



Riff A (intro)


|-------------------------------------------------------------|
|-------------------------------------------------------------|
|-------------------------------------------------------------|
|--------------3-------3--------3-----------------------------|
|-2--2--2------1-------1--------1-------2--2--2---------------|
|-0--0--0--0-0----0-0-----0-0-----0-0---0--0--0--0-0-0-0-0-0--|
           * *    * *     * *     * *            * * * * * *

(Bass Line)


Riff B (Verse)


|------------------------------------------------------------|
|------------------------------------------------------------|
|------------------------------------------------------------|
|---------------------------12\9---7/9--9--------------------|
|-14-14-14-13-13-13-12-12---10\7---5/7--7--------------------|
|-0--0--0--0--0--0--0--0-------------------------------------|


Riff C


|-----------------------------------------------------------------------|
|-----------------------------------------------------------------------|
|-----------------------------------------------------------------------|
|-----------------------------------------------------------------------|
|----------7-5-----7-5-----7-5-----7-5-----7-5-----7-5------7-5-----7-5-|
|-12\--0-0-----0-0-----0-0-----0-0-----0-0-----0-0------0-0-----0-0-----|


Riff D (Pre-Chorus)


|--------------------------------------------------------------|
|--------------------------------------------------------------|
|--------------------------------------------------------------|
|-5-5-5-5-5-5-5-5-5-5-5-5-5-5-5-5-5-5-5-5-5-5-5-5-5-5-5-5-5-5--|
|-3-3-3-3-3-3-3-3-3-3-3-3-3-3-3-3-3-3-3-3-3-3-3-3-3-3-3-3-3-3--|
|-3-3-3-3-3-3-3-3-3-3-3-3-3-3-3-3-3-3-3-3-3-3-3-3-3-3-3-3-3-3--|

|--------------------------------------------------------------|
|--------------------------------------------------------------|
|--------------------------------------------------------------|
|-8-8-8-8-8-8-8-8-8-8-8-8-8-8-8-8---4---4---7-7----7-----------|
|-6-6-6-6-6-6-6-6-6-6-6-6-6-6-6-6---2---2---5-5----5-----------|
|-6-6-6-6-6-6-6-6-6-6-6-6-6-6-6-6---2---2---5-5----5-----------|

|--------------------------------------------------------------|
|--------------------------------------------------------------|
|--------------------------------------------------------------|
|--------------------------------------------------------------|
|-----7-5-----7-5-----7-5-----7-5------------------------------|
|-0-0-----0-0-----0-0-----0-0----------------------------------|

Riff E


|--------------------------------------------------------|
|--------------------------------------------------------|
|--------------------------------------------------------|
|-8-8-8-8-8-8-8-8-8-8-8-8-8-8-8-8------------------------|
|-7-7-7-7-7-7-7-7-7-7-7-7-7-7-7-7---2-2-2-2--------------|
|-6-6-6-6-6-6-6-6-6-6-6-6-6-6-6-6---0-0-0-0--------------|


Riff F (Chorus)


|--------------------------------------------------------------|
|--------------------------------------------------------------|
|--------------------------------------------------------------|
|--------------------------------------------------------------|
|-2------------------------------------------------------------|
|-0-0-0-0-0-0-0-0-0-0-0-0-0-0-6-3-0-0-0-0-6-7-6h7p6\3-0-0-0-0--|
    * * * * * * * * * * * * *       * * *               * * *

|-------------------------------------------------------------|
|-------------------------------------------------------------|
|-------------------------------------------------------------|
|-------------------------------------------------------------|
|-----4-4b5r4-------------------------------------------------|
|-6-7----------7-6-3-0----------------------------------------|


Riff G (Interlude)


|------------------------------------------------------------|
|------------------------------------------------------------|
|------------------------------------------------------------|
|-------0-3--2-0---------------------------0-----------------|
|--2-2--0-3--2-0--2------------------------0-----------------|
|--0-0------------0---0-0-6-6-0----0-0-4-4-------------------|
        * *  * *      * * * * *    * * * * *

Riff H


|-----------------------------------------------------------|
|-----------------------------------------------------------|
|-----------------------------------------------------------|
|-----------------------------------------4-----------------|
|--4----5---4\------------4-4-4--5---4\---------------------|
|--2----3---2\------------2-2-2--3---2\---------------------|


Riff I


|-----------------------------------------------------|
|-----------------------------------------------------|
|-----------------------------------------------------|
|-----4-------5\--------------------------------------|
|---4------4--4\--4-----------------------------------|
|-2------0--------------------------------------------|


Riff J


|------------------------------------------------------|
|------------------------------------------------------|
|------------------------------------------------------|
|------------------------------------------------------|
|-4-4-4------5------4--5--4-4-4-4-4-4-4----------------|
|-2-2-2--0-0-3-0-0--2--5--4----------------------------|
         * *   * *          * * * * * *

|------------------------------------------------------|
|------------------------------------------------------|
|------------------------------------------------------|
|------------------------------------------------------|
|-4--4-4-4------5------4--5--4-------------------------|
|-4--2-2-2--0-0-3-0-0--2--5--4-------------------------|
            * *   * *


Riff K


|-----------------------------------------------------|
|-----------------------------------------------------|
|-----------------------------------------------------|
|-----------------------------------------------------|
|-4---4---5--4--2--4---------3-3--4--------1-1--2-----|
|-2---2---3--2--0--2-----2-2------2----0-0------0-----|
          *  *  *        * * * *       * * * *  *


Riff L


|-----------------------------------------------------|
|-----------------------------------------------------|
|-----------------------------------------------------|
|-----------------------------------------------------|
|-4\-------------------3-------3-----3-----3----------|
|-2\---------------2-2----2-2----2-2---2-2---2-2------|



Riff M


|--------------------------------------------|
|--------------------------------------------|
|--------------------------------------------|
|-5---------8------4--4---7---7\-------------|
|-3---------6------2--2---5---5\-------------|
|-3---------6------2--2---5---5\-------------|


Riff N (Harmony)

|-------------------------------------------------------------------|
|--------------------------------------8-7--------------------------|
|---------------------------9-7-------------------------------------|
|-----------------9-7-----------------------------------------9-7---|
|------10-9----------------------------------------10-9-------------|
|-0--0-------0--0-----0--0-------0--0--------0--0--------0--0-------|

|-15-14-17-15-19-17-24\--|
|------------------------|
|------------------------|
|------------------------|
|------------------------|
|------------------------|



====================================================================================
                              THE UNFORGIVEN III
====================================================================================


Metallica - The Unforgiven III
Heard the leak on youtube, and who couldn’t say this song is 
amazing. I did an attempt on the entire solo, though theres some
notes missing around the place, this can be used as a guide 
anyway. Enjoy!

Tuning: Standard E

Check out my band: www.myspace.com/triameraband

Chorus
0:55
E|--------------------|
B|--------------------|
G|--------------------|
D|---2---2---2-----2--|
A|--------------------|
E|-0---0---0---2h3----|

1:11
E|-----------------------------------|----------------------------------|
B|-----------------------------------|----------------------------------|
G|-----9----------------9------------|----------------------------------|
D|---5---5---9-10-9---5---5---9-10-9-|-----10-----7-9-7-----5-------5---|
A|-7-------7--------7-------7--------|---7----7-----------7---7---6---6-|
E|-----------------------------------|-8--------8-------7-------7-------|

Verse
1:36
E|---------------------------------------------------------------|
B|---------------------------------------------------------------|
G|---------------------------------------------------------------|
D|-----------5h7s9------------5h7s9-5-------5h7s9-7---7---4---4--|
A|-2---2-5h7--------2---2-5h7-----------5h7-------5---5---2---3--|
E|-0---0------------0---0----------------------------------------|

E|------------------------------------------------|------------------|
B|------------------------------------------------|------------------|
G|------------------------------------------------|------------------|
D|-9---9---5---5---7---7--------------------------|------------------|
A|-7---7---3---3---5---5---5---5---s7----6---5----|-4----3---2---1---|
E|-------------------------3---3-------8---7---6--|----5---4---3---2-|

Bridge
4:33
E|-----------------------------------------------------------------|
B|-----------------------------------------------------------------|
G|-----------------------------------------------------------------|
D|---2---2---2-------2---2---2-------2---2---2-------2---2---2-----|
A|---------------------------------------------0h2-----------------|
E|-0---0---0---2-3-2---2---2---3-5-3---3---3-------2---2---2---3-5-|

Volume Swells
4:41
E|----------------------------------|
B|----------------------------------|
G|----------------------------------|
D|----------------------------------|
A|-(7)----(9)----(10)----(12)--(9)--|
E|----------------------------------|
Build Up
5:04
E|--------------------------------|
B|--------------------------------|
G|--------------------------------|
D|--------------------------------|
A|--------------------------------|
E|-0----2h3-2-----3h5-3-----5h7-2-|

5:19
E|------0------------------------0--------------------|
B|------0------------------------0--------------------|
G|----------------------------------------------------|
D|-2--------------------------------------------------|
A|-2--------4s5-4-------5s7-5---------7s9-4-------5s7-|
E|-0--------2s3-2-------3s5-3---------5s7-2-------3s5-|

5:26
E|----------------|-----------------|-----------------|-----------------|
B|----------------|-----------------|-----------------|-----------------|
G|----------------|-----------------|-----------------|-----------------|
D|----------------|-----------------|-----------------|-----------------|
A|-2--2-2-2-2-4-5-|-4-4-4-4-4-4-5-7-|-5-5-5-5-5-5-7-9-|-4-4-4-4-4-4-5-7-|
E|-0--0-0-0-0-2-3-|-2-2-2-2-2-2-3-5-|-3-3-3-3-3-3-5-7-|-2-2-2-2-2-2-3-5-|

Solo
5:34
E|-----------------------|-----12-----------------12---------12------|
B|-14^------14^----------|--------15p12h15p12--15^--15p12-15^--15p12-|
G|-14^------14^--12------|-14^---------------------------------------|
D|------------------14---|-------------------------------------------|
A|-----------------------|-------------------------------------------|
E|-----------------------|-------------------------------------------|

5:41
E|----12---12-15^-12-12-15^-12-12-12-12-|
B|-15^--15^-----------------------------|
G|--------------------------------------|
D|--------------------------------------|
A|--------------------------------------|
E|--------------------------------------|

5:45
E|-12h15p12---12------------------------|-------------------------|
B|----------15--15-12-12-12-------------|-12h13p12---12-----------|
G|--------------------14^--14v12----12~~|----------14--14-12------|
D|-------------------------------14-----|-------------------14-12-|
A|--------------------------------------|-------------------------|
E|--------------------------------------|-------------------------|

5:49
E|-------------------------------------|
B|----12h13p12-------------------------|
G|-------------14p12----12h14p12-------|
D|-14----------------14----------14----|
A|-------------------------------------|
E|-------------------------------------|

5:51
E|------------------------------------------|
B|-12h13p12---------------------------------|
G|----------14p12-14p12---12h14p12----------|
D|---------------------14^--------14-12-14--|
A|------------------------------------------|
E|------------------------------------------|

5:53
E|----12---------------------------------------------------------------|
B|-15^--15-12----12h13p12----12----------12--12-12----------12--12-12--|
G|------------14----------14----14p12----12--12-12--14p12---12--12-12--|
D|------------------------------------14-----------------14------------|
A|---------------------------------------------------------------------|
E|---------------------------------------------------------------------|

5:56
E|----------------------------------------------|
B|-14^----14^----14^----14b15b14--12----12------|
G|-14^-12-14^-12-14^-12-14b15b14--12----12------|
D|-----------------------------------14----14---|
A|----------------------------------------------|
E|----------------------------------------------|

6:00
E|-------------------------------------------------------|
B|-----12-12-----12-12-----12-----12-12-----12-12-----12-|
G|-14^-------14^-------14^----14^-------14^-------14^----|
D|-------------------------------------------------------|
A|-------------------------------------------------------|
E|-------------------------------------------------------|

6:03
E|-----------------------------|-----------------------------------|
B|-----------------------------|--------------------14---14---14---|
G|--------------12-14-s16------|----------12-14-s16-14^--14^--14^--|
D|-14--14-12-14-----------14---|-14-12-14--------------------------|
A|-----------------------------|-----------------------------------|
E|-----------------------------|-----------------------------------|

6:14
E|----12-15p14p12-15p14p12-15p14p12-15p14p12-|
B|-15^---------------------------------------|
G|-------------------------------------------|
D|-------------------------------------------|
A|-------------------------------------------|
E|-------------------------------------------|

6:17
E|-12-12-12-19p17p15-19p17p15-19p17p15-19p17p15-|
B|----------------------------------------------|
G|----------------------------------------------|
D|----------------------------------------------|
A|----------------------------------------------|
E|----------------------------------------------|

6:18
E|-19p17p15-19p17p15----------19p17p15-19p17p15----------|
B|-------------------19p17p15-------------------19p17p15-|
G|-------------------------------------------------------|
D|-------------------------------------------------------|
A|-------------------------------------------------------|
E|-------------------------------------------------------|

6:24
E|-----------------12-----------------------------------------|
B|-15^-15^-15~~-15^--15p12---12-15p12----12-13p12----12h14-12-|
G|------------------------14^---------14----------14----------|
D|------------------------------------------------------------|
A|------------------------------------------------------------|
E|------------------------------------------------------------|

6:27
E|-------------------------------------|
B|-------------------------------------|
G|-12--11--10----9^-9-9-7--------------|
D|---13--12--11-----------9-7-5-4-2----|
A|-------------------------------------|
E|-------------------------------------|



========================================================================================
                                    THE JUDAS KISS
========================================================================================


Metallica - The Judas Kiss
Heard the leak on youtube, and this is definately my favourite 
song from Death Magnetic. Here’s the first 4 minutes, the other
3 will come in the next few days, keep a eye out :)

Tuning: Standard E

CHeck out my cover of this song:
http://au.youtube.com/watch?v=iJL2BAghoM4
Check out my band: 
www.myspace.com/triameraband

0:0
E|--------------------------|
A|--------------------------|
G|--------------------------|
D|--------------------------|
A|-----5-----------5---7----|
E|-0-2s3---0-0-0-0-3---5----|

0:13
E|-------------------------|------------------------------------|
B|-------------------------|------------------------------------|
G|-------------------------|-----------------------9-12-----9---|
D|-------------------------|-9---10---12---12--12-------12------|
A|-------------------------|------------------------------------|
E|-3---5---2---3---5---3---|------------------------------------|
/// Guitar 1
\\\ Guitar 2
E|-------------------------|------------------------------------|
B|-------------------------|------------------------------------|
G|-------------------------|------------------------------------|
D|-------------------------|-------------------------10---------|
A|-2---3---0---2-----------|-10---12---9---10--10-12----10--7---|
E|-----------------1---0---|------------------------------------|

0:21
E|---------------x----|
B|----------------x---|
G|-----------------x--|
D|------------------x-|
A|-2---2---2---2------|
E|-0---0---0---0------|

0:25
E|---------------------------|
B|---------------------------|
G|---------------------------|
D|-8^-------8^---------------|
A|-7^-------7^---------------|
E|-----0--0-----0--0-000-000-|

0:47
E|--------------------------|--------------------------------|
B|--------------------------|--------------------------------|
G|--------------------------|--------------------------------|
D|-11------11---------------|-11------11---------------------|
A|-9---11--9---10-----------|-9---11--9---10--10--10--10--10-|
E|-----9-------8--8-888-888-|-----9-------8---8---8---8---8--|

E|----------------x--|
B|----------------x--|
G|----------------x--|
D|-11------11-----x--|
A|-9---11--9---10----|
E|-----9-------8-----|

0:58
E|-------------------------------------------------|
B|-------------------------------------------------|
G|-------------------------------------------------|
D|-------------------------------------5s7s5---5s7-|
A|-------------------------------------------------|
E|-3p0-0-0-3p0-3p0-0-0-3p0-3p0-0-0-3p0-3s5s3-0-3s5-|

1:07
E|-------------------------------------------------|
B|-------------------------------------------------|
G|-------------------------------------------------|
D|-------------------------------------5s7s5---5s7-|
A|-------------------------------------------------|
E|-3p0-0-0-0-0-3p0-0-0-0-0-3p0-0-0-0-0-3s5s3-0-3s5-|

1:14
E|-----------------------|
B|-----------------------|
G|-7-------5-----12-9~~--|
D|-7-------5-------------|
A|-5-------3-------------|
E|-5-------3-------------|

1:39
E|------------------------------|
B|------------------------------|
G|------------------------------|
D|------------------------------|
A|---5----5----5----5-----------|
E|-0-3--0-3--0-3--0-3--x-x-x-x--|

1:44
E|--------------------------------------|-------------------------------|
B|--------------------------------------|-------------------------------|
G|--------------------------------------|-------------------------------|
D|--------9s10--10--10----7s9---9--9----|-9s10--10--10-10----7s9---9----|
A|-2------7s8---8---8--88-5s7---7--7-77-|-7s8---8---8--8--88-5s7---7-77-|
E|-0--0-00----x---------------z---------|-----x------------------x------|

1:52
E|----------------|
B|----------------|
G|----------------|
D|----------------|
A|-7--------------|
E|-5-555555555555-|

2:04
E|------------------------------|
B|------------------------------|
G|------------------------------|
D|------------------------------|
A|---5----5----5----5-----------|
E|-0-3--0-3--0-3--0-3--x-x-x-x--|

2:10
E|------------------------|
B|------------------------|
G|-----------------------|
D|----------2----2-------|
A|-4--4-----0----0-------|
E|-2--2---2----2----2----|

3:52
E|--------------------------|--------------------------|
B|--------------------------|--------------------------|
G|--------------------------|--------------------------|
D|-11------11---------------|-11------11---------------|
A|-9---11--9---10-----------|-9---9---9---8------------|
E|-----9-------8--8-888-888-|-----7-------6--6-666-666-|

4:03
E|------------------------------|
B|------------------------------|
G|------------------------------|
D|------------------------------|
A|-----4--------3-------0-------|
E|-2--------2-------0h2---2-0h1-|

E|--------------------------------|
B|--------------------------------|
G|--------------------------------|
D|-4--------4---------------------|
A|-----4--------3---0-2-3-4-------|
E|----------------------------1-2-|

4:26
E|-----------------|
B|-----------------|
G|-----------------|
D|-----------------|
A|-2---2---2---2---|
E|-0---0---0---0---|

4:30
E|-----------------------|
B|-----------------------|
G|-----------------------|
D|-----------0-----------|
A|-----------0---2---2---|
E|-0-0--0-0------0---0---|

Solo
4:30
E|-------------------------|-----------------------------|
B|-------------------------|-15-------15-----------------|
G|-------------------15----|-15^^-----15vv-12--------12--|
D|-------------14----------|-------------------14-14-----|
A|-------13----------------|-----------------------------|
E|-12----------------------|-----------------------------|

4:44
E|-----------------------------------|
B|-------------12---14^^-p12----12^--|
G|-------------12---14^^-p12----12^--|
D|-14-14-14-14---------------14------|
A|-----------------------------------|
E|-----------------------------------|

4:52
E|-------------------------------|
B|--------------------------12^--|
G|-------------s16-12-------12^--|
D|-14-14-14-14----------14-------|
A|-------------------------------|
E|-------------------------------|

4:54
E|-10p8p7--------10p8p7---------|
B|--------10p8p7--------10p8p7--|
G|------------------------------|
D|------------------------------|
A|------------------------------|
E|------------------------------|

4:56
E|-12p10p8---------12p10p8----------|
B|---------12p10p8---------12p10p8--|
G|----------------------------------|
D|----------------------------------|
A|----------------------------------|
E|----------------------------------|

4:57
E|-14p12p10----------14p12p10-----------|
B|----------14p12p10----------14p12p10--|
G|--------------------------------------|
D|--------------------------------------|
A|--------------------------------------|
E|--------------------------------------|

4:59
E|-15p14p12----------15p14p12-----------|
B|----------15p14p12----------15p14p12--|
G|--------------------------------------|
D|--------------------------------------|
A|--------------------------------------|
E|--------------------------------------|

5:00
E|-19p17p15----------19p17p15----------19p17p15----------19^----|
B|----------19p17p15----------19p17p15----------19p17p15--------|
G|--------------------------------------------------------------|
D|--------------------------------------------------------------|
A|--------------------------------------------------------------|
E|--------------------------------------------------------------|

5:02
This sounds to me like a tremelo pick with both strings
E|-x-v-v-v-v-v-v-v-v-v-v-|
B|-x-v-v-v-v-v-v-v-v-v-v-|
G|-----------------------|
D|-----------------------|
A|-----------------------|
E|-----------------------|

5:03
E|-------------------------------|
B|-------------------------------|
G|-2b4----b2p0h2p0h2p0h2p0h2p0h2-|
D|-------------------------------|
A|-------------------------------|
E|-------------------------------|

5:07
E|---------------------------------------|
B|---------------------------------------|
G|-2^^-0h2p0-----------0-----------------|
D|-----------2p0---0h2---0h2-0h3-0h2-0h3-|
A|---------------2-----------------------|
E|---------------------------------------|

5:08
E|-----------------------------------------|
B|-----------------------------------------|
G|-0h2-0h3-0h2-0h3-0h5h7-0h7h8-0h5h7-0h7h8-|
D|-----------------------------------------|
A|-----------------------------------------|
E|-----------------------------------------|

5:11
E|-------------------------------------------------------17s--|
B|-------------------11h13h14-11h13h14-14h15h17-14h15h17------|
G|-12h14h15-12h14h15------------------------------------------|
D|------------------------------------------------------------|
A|------------------------------------------------------------|
E|------------------------------------------------------------|

5:14
E|-19-17-14-19-17-14-19-17-14-19-17-14-19-17-14-19-17-14-etc--|
B|------------------------------------------------------------|
G|------------------------------------------------------------|
D|------------------------------------------------------------|
A|------------------------------------------------------------|
E|------------------------------------------------------------|

5:20
E|-17p15p14----------17p15p14-17p15p14----------17p15p14-|
B|----------17p15p14-------------------17p15p14----------|
G|-------------------------------------------------------|
D|-------------------------------------------------------|
A|-------------------------------------------------------|
E|-------------------------------------------------------|

5:27
E|-19p17p15-19p17p15-19p17p15-19p17p15-etc-x-x-x-x-x-x-x-x-x-|
B|-----------------------------------------x-x-x-x-x-x-x-x-x-|
G|-----------------------------------------------------------|
D|-----------------------------------------------------------|
A|-----------------------------------------------------------|
E|-----------------------------------------------------------|

E|------------------------------|
B|-2b4~~~~~~~~~~~~~~------------|
G|------------------------------|
D|------------------------------|
A|------------------------------|
E|------------------------------|

Riff
5:30
E|-----------------------|
B|-----------------------|
G|-----------------------|
D|---x-----------x-------|
A|---x-----------x-------|
E|-x-x---------x-x-------|

5:34
E|--------------------------|--------------------|
B|--------------------------|--------------------|
G|--------------------------|--------------------|
D|-11------11---------------|--------------------|
A|-9---11--9---10-----------|--------------------|
E|-----9-------8--8-888-888-|--8-888-888-888-888-|

Solo 2
5:40
E|------------------------------------------------------------------|
B|-12-12--12--12--12--------------------14-14--14--14---------------|
G|-12-12--12--12--12--------------------14-14--14--14--14-12-14-12--|
D|---------------------14-12-14---12-14-----------------------------|
A|------------------------------------------------------------------|
E|------------------------------------------------------------------|

5:45
E|-------------------------------------------------|
B|-14^--12---14^--12---14-12-14^--12------15--17---|
G|-14^--12---14^--12---14-12-14^--12--s16----------|
D|-------------------------------------------------|
A|-------------------------------------------------|
E|-------------------------------------------------|

5:50
E|-------------------------|
B|---5------------5--------|
G|-----5^-5^--4h6---6-4h5--|
D|-4-----------------------|
A|-------------------------|
E|-------------------------|

5:57
E|----------------------------|
B|---5------------5-5-----7-7-|
G|-----5^-5^--4h6-----4h6-----|
D|-4--------------------------|
A|----------------------------|
E|----------------------------|

6:00
E|----------------------9s---|
B|---------5---7---10--------|
G|-----6---------------------|
D|-4-------------------------|
A|---------------------------|
E|---------------------------|

6:04
E|--------------------------------------|
B|----12-----12------12------12---------|
G|----12-----12------12------12-x-x-x-x-|
D|-14-----14------14------14------------|
A|--------------------------------------|
E|--------------------------------------|

6:10
E|---------------------------------------|
B|-^^^^^^^^^^^^^^^-----------------------|
G|-9-9-9-9-9-9-9-9-br9-br9-br9-br9p7-----|
D|-----------------------------------9---|
A|---------------------------------------|
E|---------------------------------------|

6:15
E|-------------------------------|
B|-------------------------------|
G|-7h8-9----------7h8-9----------|
D|--------7h8-9---------7--h8-9--|
A|-------------------------------|
E|-------------------------------|

6:18
E|----------------------------------------|
B|----------------------------------------|
G|----------------------------------------|
D|----------------------------------------|
A|-7p5-7p5-7p5-7p5-5--7--5-----5----------|
E|--------------------------7-----7--0----|

Post Solo Riff
6:20
E|----------------------------|-------------------------------|
B|----------------------------|-------------------------------|
G|----------------------------|-------------------------------|
D|----------------------------|-------------------------------|
A|-7------7h8---8------5h7-7--|-7------7h8---8------5h7-7b-7--|
E|-0--0-0-0---0-0--0-0-0---0--|-0--0-0-0---0-0--0-0-0---0--0--|

E|-------------------------------|
B|-------------------------------|
G|-------------------------------|
D|-------------------------------|
A|-8------8h10-10-10-10-10-7-7-7-|
E|-0--0-0-0----------------------|

6:52
E|-----------------|-----------------|-----------------|-----------------|
B|-----------------|-----------------|-----------------|-----------------|
G|-----------------|-----------------|-----------------|-----------------|
D|-----------------|-----------------|-----------------|-----------------|
A|-----------------|-----------------|-----------------|-----------------|
E|-222-2-2-2-2-2-2-|-333-3-3-3-3-3-3-|-444-4-4-4-4-4-4-|-555-5-5-5-5-5-5-|

6:58
E|----------|----------|----------|----------|
B|----------|----------|----------|----------|
G|----------|----------|----------|----------|
D|---etc----|----etc---|----etc---|---etc----|
A|----------|----------|----------|----------|
E|-66666666-|-77777777-|-88888888-|-99999999-|

Ending
7:47
E|------------------------------|
B|------------------------------|
G|------------------------------|
D|-----6-------5----------------|
A|-4---4---4---3--2-4-7--4--2-1-|
E|-2-------2------0-2-5--2--0-0-|

E|----------------------|
B|----------------------|
G|----------------------|
D|-----6-------5--------|
A|-4---4---4---3---4-x--|
E|-2-------2-------2-x--|



======================================================================================
                               SUICIDE & REDEMPTION
======================================================================================



Metallica
Suicide And Redemption
Tabbed by ExoM7 09/05/08
Updated 10/01/08 (thanks ibanezemg87)
Updated 12/01/08 (bunch of small stuff)

1st:----------|
2nd:----------|
3rd:----------|
4th:-4--4--5--|
5th:-2--2--3--|
6th:-2--2--3--| x6

1st:-------------------------------------|
2nd:-------------------------------------|
3rd:-------------------------------------|
4th:-4~--------4~---------4~---------4~--|
5th:-2~--------2~---------2----------2~--|
6th:-------------------------------------|

1st:----------------------------------|
2nd:----------------------------------|
3rd:----------------------------------|
4th:-------------4-4-------------4-4--|
5th:-2-2-0-2-2-0-2p0-2-2-0-2-2-0-3p0--|
6th:----------------------------------| x4
     [palm mute]     [palm mute]

1st:----------------------    ---|
2nd:----------------------    ---|
3rd:-4---4---4------------    ---|
4th:-4---4---4---4-4-4-4--    -4-|
5th:-2-x-2-x-2-x-3-3-3-3--    -2-|
6th:---------------------- x3 ---|

(bass riff)

1st:-----------------------------|
2nd:-----------------------------|
3rd:-7b^8r7-4--------------------|
4th:-7--8-7-4-4-4-4-4-4-4-4-4-4--|
5th:----------0-2-2-0-2-2-0-2-0--|
6th:-----------------------------| x4
              [palm muted-----|

1st:-------------------------------------------------------------|
2nd:-------------------------------------------------------------|
3rd:-7-7-7-7-7-7-7-7-7-7-7-7-14-14-14-14-14-14-14-14-14-14-14-14-|
4th:-------------------------------------------------------------|
5th:-5-5-5-5-5-5-5-5-5-5-5-5-12-12-12-12-12-12-12-12-12-12-12-12-|
6th:-------------------------------------------------------------|

1st:-----------------------------|
2nd:-----------------------------|
3rd:-7b^8r7-4--------------------|
4th:-7--8-7-4-4-4-4-4-4-4-4-4-4--|
5th:----------0-2-2-0-2-2-0-2-0--|
6th:-----------------------------| x4
              [palm muted-----|

1st:-------------------------------------------------------------|
2nd:-------------------------------------------------------------|
3rd:-7-7-7-7-7-7-7-7-7-7-7-7-14-14-14-14-14-14-14-14-14-14-14-14-|
4th:-------------------------------------------------------------|
5th:-5-5-5-5-5-5-5-5-5-5-5-5-12-12-12-12-12-12-12-12-12-12-12-12-|
6th:-------------------------------------------------------------|


1st:------------------------------------------|
2nd:------------------------------------------|
3rd:------------------------------------------|
4th:---------------5/4---5/4------------------|
5th:-4-4-2-4-2-4-x-3/2-x-3/2-4-4-2-4-2-4-2-4--|
6th:-2-2-0-2-0-2-x-3-2-x-3-2-2-2-0-2-0-2-0-2--| x2

1st:--------------------------|
2nd:--------------------------|
3rd:--------------------------|
4th:--------------------------|
5th:-7-7-7-7-7-7-8-8-8-8-8-8--|
6th:--------------------------|
     [palm muted--------------|

1st:------------------------------------------|
2nd:------------------------------------------|
3rd:------------------------------------------|
4th:---------------5/4---5/4------------------|
5th:-4-4-2-4-2-4-x-3/2-x-3/2-4-4-2-4-2-4-2-4--|
6th:-2-2-0-2-0-2-x-3-2-x-3-2-2-2-0-2-0-2-0-2--|

1st:--------------------------------------------|
2nd:--------------------------------------------|
3rd:-----------------------------------------8--|
4th:-------------------------------------7-8----|
5th:-7-7-7-7-7-7-8-8-8-8-8-8-9-9-9-9-9-9--------|
6th:--------------------------------------------|
     [palm muted, gradually release-------------|

1st:-----------------------------|
2nd:-----------------------------|
3rd:-7b^8r7-4--------------------|
4th:--------4-4-4-4-4-4-4-4-4-4--|
5th:----------0-2-2-0-2-2-0-2-0--|
6th:-----------------------------|
              [palm muted-----|

1st:-----------------------------|
2nd:-----------------------------|
3rd:-7b^8r7-4--------------------|
4th:-7--8-7-4-4-4-4-4-4-4-4-4-4--|
5th:----------0-2-2-0-2-2-0-2-0--|
6th:-----------------------------| x3
              [palm muted-----|

---

Guitar 2 (delay)
1st:---------------------------------|
2nd:---------------------------------|
3rd:-------7--(7)------7--(7)------7-|
4th:-9--(9)------9--(9)------9--(9)--|
5th:---------------------------------|
6th:---------------------------------| x4

1st:-----------------------------|
2nd:-----------------------------|
3rd:-7b^8r7-4--------------------|
4th:-7--8-7-4-4-4-4-4-4-4-4-4-4--|
5th:----------0-2-2-0-2-2-0-2-0--|
6th:-----------------------------| x4
              [palm muted-----|

---

1st:-------------------------------------------------------------|
2nd:-------------------------------------------------------------|
3rd:-7-7-7-7-7-7-7-7-7-7-7-7-14-14-14-14-14-14-14-14-14-14-14-14-|
4th:-------------------------------------------------------------|
5th:-5-5-5-5-5-5-5-5-5-5-5-5-12-12-12-12-12-12-12-12-12-12-12-12-|
6th:-------------------------------------------------------------|

---

Guitar 2 (delay)
1st:---------------------------------|
2nd:---------------------------------|
3rd:-------7--(7)------7--(7)------7-|
4th:-9--(9)------9--(9)------9--(9)--|
5th:---------------------------------|
6th:---------------------------------| x4

1st:-----------------------------|
2nd:-----------------------------|
3rd:-7b^8r7-4--------------------|
4th:-7--8-7-4-4-4-4-4-4-4-4-4-4--|
5th:----------0-2-2-0-2-2-0-2-0--|
6th:-----------------------------| x4
              [palm muted-----|

---

1st:-------------------------------------------------------------|
2nd:-------------------------------------------------------------|
3rd:-7-7-7-7-7-7-7-7-7-7-7-7-14-14-14-14-14-14-14-14-14-14-14-14-|
4th:-------------------------------------------------------------|
5th:-5-5-5-5-5-5-5-5-5-5-5-5-12-12-12-12-12-12-12-12-12-12-12-12-|
6th:-------------------------------------------------------------|

1st:------------------------------------------|
2nd:------------------------------------------|
3rd:------------------------------------------|
4th:---------------5/4---5/4------------------|
5th:-4-4-2-4-2-4-x-3/2-x-3/2-4-4-2-4-2-4-2-4--|
6th:-2-2-0-2-0-2-x-3-2-x-3-2-2-2-0-2-0-2-0-2--| x2

1st:--------------------------------------------|
2nd:--------------------------------------------|
3rd:-----------------------------------------8--|
4th:-------------------------------------7-8----|
5th:-7-7-7-7-7-7-8-8-8-8-8-8-9-9-9-9-9-9--------|
6th:--------------------------------------------|
     [palm muted, gradually release-------------|

1st:-----------------------------|
2nd:-----------------------------|
3rd:-7b^8r7-4--------------------|
4th:--------4-4-4-4-4-4-4-4-4-4--|
5th:----------0-2-2-0-2-2-0-2-0--|
6th:-----------------------------|
              [palm muted-----|

1st:-----------------------------|
2nd:-----------------------------|
3rd:-7b^8r7-4--------------------|
4th:-7--8-7-4-4-4-4-4-4-4-4-4-4--|
5th:----------0-2-2-0-2-2-0-2-0--|
6th:-----------------------------| x3
              [palm muted-----|

1st:-------------------------|
2nd:-------------------------|
3rd:------------------7-8-9--|
4th:-2-2--2-2--2--2-2--------|
5th:-2-2--2-2--2--2-2-5-6-7--|
6th:-0-0--0-0--0--0-0--------| x4

1st:-------------------------------------------|
2nd:-------------------------------------------|
3rd:------------------7-8-9-----5-----7--------|
4th:-5-5--5-5--5--5-5--------5--5--7--7--7-6-5-|
5th:-3-3--3-3--3--3-3-5-6-7--5--3--7--5--5-4-3-|
6th:-3-3--3-3--3--3-3--------3-----5-----------|

1st:-------------------------|
2nd:-------------------------|
3rd:------------------7-8-9--|
4th:-2-2--2-2--2--2-2--------|
5th:-2-2--2-2--2--2-2-5-6-7--|
6th:-0-0--0-0--0--0-0--------| x2

1st:--------------------------------------------------------|
2nd:--------------------------------------------------------|
3rd:------------------7-8-9-----5-----7---------------------|
4th:-5-5--5-5--5--5-5--------5--5--7--7--7-6-5--5-4-3--2--5-|
5th:-3-3--3-3--3--3-3-5-6-7--5--3--7--5--5-4-3--3-2-1--0--3-|
6th:-3-3--3-3--3--3-3--------3-----5------------------------|

---

1st:----
2nd:----
3rd:----
4th:-4--
5th:-2--
6th:----

Guitar 1 (clean)
1st:-2----2-----------------2---------------2--|
2nd:-3----3------3p2--------3--2-2h3p2------3--|
3rd:-4----4----4-----4------4---------4-----4--|
4th:------4--4------------4---------------4----|
5th:--------------------2---------------2------|
6th:-------------------------------------------|

---

Guitar 2 (lead)
1st:------------------------------------|
2nd:-----7-----7---------7--------------|
3rd:-7/9---9-7---9---7/9---9/6-9-7/6----|
4th:---------------------------------9--|
5th:------------------------------------|
6th:------------------------------------| x2

Guitar 1 (clean)
     D       A      Bm
1st:-----2-----------------------------|
2nd:-----3-------2------3-3p2-------3--|
3rd:---2---------2------4-----4-----4--|
4th:-0---------2------4-----------4----|
5th:---------0------2-----------2------|
6th:-----------------------------------| x2

---

Guitar 2
1st:---------------------------------|
2nd:-----7-----7/10~------7----------|
3rd:-7/9---9-7--------7/9---9-7/6----|
4th:------------------------------9--|
5th:---------------------------------|
6th:---------------------------------|

Guitar 1 (clean)
     Bm     A      E
1st:-----------------------------|
2nd:-----3------2----------------|
3rd:-----4------2------1------1--|
4th:---4------2--------2------2--|
5th:-2------0--------2------2----|
6th:---------------0------0------|

---

Guitar 2
1st:----------------------------------------------|
2nd:----------------------------------------------|
3rd:----------------------------------------------|
4th:-9~------------9------9----------------9------|
5th:----------7-10---7-10-------------7-10---7-10-|
6th:----------------------------------------------|

Guitar 1 (turn up volume on guitar, or turn on distortion)
1st:-------------------------------------|
2nd:-------------------------------------|
3rd:-------------7-8-9-------------7-8-9-|
4th:-2-2--2-2--2-------2-2--2-2--2-------|
5th:-2-2--2-2--2-5-6-7-2-2--2-2--2-5-6-7-|
6th:-0-0--0-0--0-------0-0--0-0--0-------|

---

Guitar 2
1st:--------------------------------------------------------------|
2nd:-8~-----8-7~---7-7h8p7-5~---5---------5~-------5----5-7--5-7--|
3rd:------------------------------7-5-5-7------5-7----7-----------|
4th:--------------------------------------------------------------|
5th:--------------------------------------------------------------|
6th:--------------------------------------------------------------|

Guitar 3
1st:-7~-------7~--------------------------------------------------|
2nd:-----------------------8~-------------8~----------------------|
3rd:--------------------------------------------------------------|
4th:--------------------------------------------------------------|
5th:--------------------------------------------------------------|
6th:--------------------------------------------------------------|

Guitar 1
1st:-------------------------|
2nd:-------------------------|
3rd:------------------7-8-9--|
4th:-2-2--2-2--2--2-2--------|
5th:-2-2--2-2--2--2-2-5-6-7--|
6th:-0-0--0-0--0--0-0--------| x2

1st:-------------------------------------------|
2nd:-------------------------------------------|
3rd:------------------7-8-9-----5-----7--------|
4th:-5-5--5-5--5--5-5--------5--5--7--7--7-6-5-|
5th:-3-3--3-3--3--3-3-5-6-7--5--3--7--5--5-4-3-|
6th:-3-3--3-3--3--3-3--------3--3--5-----------|

---

Guitar 2
1st:---------------------------------------------------------|
2nd:-8~------8-8-----8-8-----7~------7-7-----7-7h8p7-5-------|
3rd:-----4-4-----4-4-----4-4-----4-4-----4-4------------7-5~-|
4th:---------------------------------------------------------|
5th:---------------------------------------------------------|
6th:---------------------------------------------------------|

Guitar 3
1st:-7~-------7~---------------|
2nd:-----------------------8~--|
3rd:---------------------------|
4th:---------------------------|
5th:---------------------------|
6th:---------------------------|

Guitar 1
1st:-------------------------|
2nd:-------------------------|
3rd:-------------------------|
4th:-2-2--2-2--2--2-2--------|
5th:-2-2--2-2--2--2-2-5-6-7--|
6th:-0-0--0-0--0--0-0--------| x2

1st:------------------------|
2nd:------------------------|
3rd:------------------7-8-9-|
4th:-5-5--5-5--5--5-5-------|
5th:-3-3--3-3--3--3-3-5-6-7-|
6th:-3-3--3-3--3--3-3-------|

---

Guitar 2/Guitar 3
1st:-------------------------------------|
2nd:-----5-------5---5-------5---7-5---5-|
3rd:-5-7---7-5-7---7---7-5-7---7-----7---|
4th:-------------------------------------|
5th:-------------------------------------|
6th:-------------------------------------|

Guitar 1
1st:-------------------|
2nd:-------------------|
3rd:----5-----7--------|
4th:-5--5--7--7--7-6-5-|
5th:-5--3--7--5--5-4-3-|
6th:-3-----5-----------|

---

Guitar 2
1st:---------------------------------------|
2nd:-7~------7-----7---------7-------------|
3rd:-----7/9---9-7---9---7/9---9/6-9-7/6---|
4th:-------------------------------------9-|
5th:---------------------------------------|
6th:---------------------------------------|

Guitar 1
1st:------------------------------------------------------|
2nd:------------------------------------------------------|
3rd:------------------------------------------------------|
4th:-7---7---7---7----------------------------------------|
5th:-5555555555555-7---7---7---7-9---9--------------------|
6th:---------------5555555555555-77777777-2-0-2-3-2-0-2-3-|

---

Guitar 2
1st:---------------------------------------|
2nd:---------7-----7---------7-------------|
3rd:-7~--7/9---9-7---9---7/9---9/6-9-7/6---|
4th:-------------------------------------9-|
5th:---------------------------------------|
6th:---------------------------------------|

Guitar 1
1st:------------------------------------------------------|
2nd:------------------------------------------------------|
3rd:------------------------------------------------------|
4th:-7---7---7---7----------------------------------------|
5th:-5555555555555-7---7---7---7-9---9--------------------|
6th:---------------5555555555555-77777777-2-0-2-3-2-0-2-3-|

---

Guitar 2
1st:------------------------------------|
2nd:-7~------7-----7/10~------7---------|
3rd:-----7/9---9-7--------7/9---9-7/6---|
4th:----------------------------------9-|
5th:------------------------------------|
6th:------------------------------------|

Guitar 1
1st:-----------------------------------------------------------------|
2nd:-----------------------------------------------------------------|
3rd:-----------------------------------------------------------------|
4th:-4---4---4---4-2---2---------------------------------------------|
5th:-2222222222222-00000000-----------------2---2--------------------|
6th:------------------------2-0-2-3-2-0-2-3-00000000-2-0-2-3-2-0-2-3-|

---

Guitar 2
1st:---------------------------------|
2nd:-----------------7-5-7-8-7-5-7-8-|
3rd:-7-6-7-9-7-6-7-9-----------------|
4th:---------------------------------|
5th:---------------------------------|
6th:---------------------------------|

Guitar 1
1st:---------------------------------|
2nd:---------------------------------|
3rd:---------------------------------|
4th:---------------------------------|
5th:---------------------------------|
6th:-2-0-2-3-2-0-2-3-2-0-2-3-2-0-2-3-|

---

Guitar 1
1st:-----------------------------------|
2nd:-----------------------------------|
3rd:-----------------------------------|
4th:---------------------------------4-|
5th:---------------------------------2-|
6th:-2-0-2-3-2-0-2-3-2-0-2-3-2-0-2-3-2-|
     [palm mute----]

(bass + drum break)

1st:-----------------|
2nd:-----------------|
3rd:-----------------|
4th:-5-5--4-------4--|
5th:-3-3--2~------2--|
6th:-3-3--2-------2--|

1st:----------------------------------|
2nd:----------------------------------|
3rd:----------------------------------|
4th:-------------4-4-------------4-4--|
5th:-2-2-0-2-2-0-2p0-2-2-0-2-2-0-3p0--|
6th:----------------------------------| x4
     [palm mute]     [palm mute]

---

Guitar 2
1st:------------------------------------------|
2nd:------------------------------------------|
3rd:------------------------------------------|
4th:------------------------------------------|
5th:------------------------------------------|
6th:-7~---5-8-5-7~---5-8-5-7~---5-8-5h7p5/2~--| x2

Guitar 1
1st:----------------------------------|
2nd:----------------------------------|
3rd:----------------------------------|
4th:-------------4-4-------------4-4--|
5th:-2-2-0-2-2-0-2p0-2-2-0-2-2-0-3p0--|
6th:----------------------------------| x4
     [palm mute]     [palm mute]

---

1st:----------------------|
2nd:----------------------|
3rd:----------------------|
4th:-4---4---4---4-4-4-4--|
5th:-2-x-2-x-2-x-3-3-3-3--|
6th:----------------------| x4

--- Solo

1st:-------------8---------8-------------------------8---------8-------------|
2nd:---------------12-10-8---12-10-8-12~---------------12-10-8---12-10-8-12~-|
3rd:-------------------------------------------------------------------------|
4th:-9^(9)--7-9~--------------------------9^(9)-7-9~-------------------------|
5th:-------------------------------------------------------------------------|
6th:-------------------------------------------------------------------------|

1st:------------------------------------------------|
2nd:------------------------------------------------|
3rd:------------------------------------------------|
4th:-----------9-9-9-9-9-----------9-9-9-9-9-10-10^-|
5th:------------------------------------------------|
6th:-7-7-7-7-7-----------7-7-7-7-7------------------|

1st:---------------------------------------------------------------------------------|
2nd:-------------------------------------------------8-8-8-8-10-10-10-10-11-11-11-11-|
3rd:---------------------7-7-7-7-9-9-9-9-11-11-11-11---------------------------------|
4th:-9-9-9-9-10-10-10-10-------------------------------------------------------------|
5th:---------------------------------------------------------------------------------|
6th:---------------------------------------------------------------------------------|

1st:-----------------------------------------------------------------------|
2nd:-12-12-12-12///--------------------12-12-12-12///----------------------|
3rd:-----------------11-9-12-11--9-11-----------------11-9-12--11-9-12-11~-|
4th:-----------------------------------------------------------------------|
5th:-----------------------------------------------------------------------|
6th:-----------------------------------------------------------------------|
     [tremolo pick]                    [tremolo pick]

1st:--------------------------------------------------------------------------|
2nd:-12v--15v--------------------8-7h8p7-----7--------------------------------|
3rd:-----------9^(11)----7h9p7-----------9-7---9-7-6-9-7-6-9-7-6-7-6-4-7-6-4--|
4th:--------------------------------------------------------------------------|
5th:--------------------------------------------------------------------------|
6th:--------------------------------------------------------------------------|
     [whammy]

1st:------------------------------------------|
2nd:------------------------------------------|
3rd:------4-4-7-7-4-4--4-7-4-7p4-6~---6-6-7-7-|
4th:-7~---------------------------------------|
5th:------------------------------------------|
6th:------------------------------------------|

1st:-22-19-17-19-22-19-17-19-22-19-17-19-22-19-17-19-22-|
2nd:----------------------------------------------------|
3rd:----------------------------------------------------|
4th:----------------------------------------------------|
5th:----------------------------------------------------|
6th:----------------------------------------------------|

--- Wah

1st:-------------------------------------------------|
2nd:-4---2--------------4--4--4-------------------2--|
3rd:-4^----4p2--------2-4^-4^-4^-2---2---2-4^---2----|
4th:-----------4--2h4--------------4---4------4------|
5th:-------------------------------------------------|
6th:-------------------------------------------------| x2

1st:-2~-----------------------------|
2nd:----5--2---------2--------------|
3rd:---------4-2---2---4-2~----2-4--|
4th:-------------4-----------4------|
5th:--------------------------------|
6th:--------------------------------| x3

1st:---------------------------------------------|
2nd:-2-------2--------2--------2--------2--------|
3rd:---4p2-----4p2------4p2------4p2------4p2----|
4th:-------4-------4--------4--------4--------4--|
5th:---------------------------------------------|
6th:---------------------------------------------|

1st:------------------------------------------------------------------|
2nd:------------------------------------------------------------------|
3rd:---2h4p2---2h4p2---2h4p2---2h4p2---2h4p2----2h4p2---2h4p2---2h4p2-|
4th:-4-------4-------4-------4-------4--------4-------4-------4-------|
5th:------------------------------------------------------------------|
6th:------------------------------------------------------------------|

1st:-----------------------------------------------------------------------------------|
2nd:-----------------------------------------------------------------------------------|
3rd:---4h5p4---5h7p5---7h9p7----9h11p9----11h12p11----12h14p12----14h16p14----16h17p16-|
4th:-5-------7-------9-------10--------12----------14----------16----------17----------|
5th:-----------------------------------------------------------------------------------|
6th:-----------------------------------------------------------------------------------|

---

Guitar 2 (wah end)
1st:---------------------------------|
2nd:-10^-----------------------------|
3rd:-10^-----------------------------|
4th:---------------------------------|
5th:---------------------------------|
6th:---------------------------------|

Guitar 1
1st:---------------------------------|
2nd:---------------------------------|
3rd:---------------------------------|
4th:-----------------5---------------|
5th:-2-0-2-3-2-0-2-3---3-2-0-2-3-2-0-|
6th:---------------------------------|

---

1st:---------------------------------|
2nd:---------------------------------|
3rd:---------------------------------|
4th:-----------------5---------------|
5th:-2-0-2-3-2-0-2-3---3-2-0-2-3-2~--|
6th:---------------------------------|

1st:---------------------------------|
2nd:---------------------------------|
3rd:---------------------------------|
4th:---------------------------------|
5th:-----------------5---------------|
6th:-2-0-2-3-2-0-2-3---3-2-0-2-3-2-0-|

1st:---------------------------------|
2nd:---------------------------------|
3rd:---------------------------------|
4th:---------------------------------|
5th:-----------------5---------------|
6th:-2-0-2-3-2-0-2-3---3-2-0-2-3-2~--|

1st:---------------------------------|
2nd:---------------------------------|
3rd:---------------------------------|
4th:-----------------5---------------|
5th:-2-0-2-3-2-0-2-3---3-2-0-2-3-2-0-|
6th:---------------------------------|

1st:---------------------------------|
2nd:---------------------------------|
3rd:---------------------------------|
4th:-----------------5---------------|
5th:-2-0-2-3-2-0-2-3---3-2-0-2-3-2~--|
6th:---------------------------------|

1st:---------------------------------|
2nd:---------------------------------|
3rd:-----------------2---------------|
4th:---------------------------------|
5th:-4-2-4-5-4-2-4-5---5-4-2-4-5-4-2-|
6th:---------------------------------|

1st:---------------------------------|
2nd:---------------------------------|
3rd:-----------------2---------------|
4th:---------------------------------|
5th:-4-2-4-5-4-2-4-5---5-4-2-4-5-4~--|
6th:---------------------------------|

---

Guitar 1
1st:----------------------------------------------------------------------------|
2nd:----------------------------------------------------------------------------|
3rd:----------------------------------------------------------------------------|
4th:----------------------------------------------------------------------------|
5th:-6-4-6-7-6-4-6~--7-5-7-8--7-5-7~--8--7-8~---9--8--9~---10-9--10~--11-10-11~-|
6th:----------------------------------------------------------------------------|

Guitar 2
1st:----------------------------------------------------------------------------|
2nd:----------------------------------------------------------------------------|
3rd:----------------------------------------------------------------------------|
4th:-8-6-8-9-8-6-8~--9-7-9-10-9-7-9~--10-9-10~--11-10-11~--12-11-12~--13-12-13~-|
5th:----------------------------------------------------------------------------|
6th:----------------------------------------------------------------------------|

---

1st:--------------------------------------------|
2nd:--------------------------------------------|
3rd:-----------------------------------------8--|
4th:-------------------------------------7-8----|
5th:-7-7-7-7-7-7-8-8-8-8-8-8-9-9-9-9-9-9--------|
6th:--------------------------------------------|
     [palm muted, gradually release-------------|

(B feedback in background)
1st:-----------------------------|
2nd:-----------------------------|
3rd:-7b^8r7-4--------------------|
4th:--------4-4-4-4-4-4-4-4-4-4--|
5th:----------0-2-2-0-2-2-0-2-0--|
6th:-----------------------------|
              [palm muted-----|

1st:-----------------------------|
2nd:-----------------------------|
3rd:-7b^8r7-4--------------------|
4th:-7--8-7-4-4-4-4-4-4-4-4-4-4--|
5th:----------0-2-2-0-2-2-0-2-0--|
6th:-----------------------------| x3
              [palm muted-----|

---

Guitar 1
1st:-------------------------------------------------------------|
2nd:-------------------------------------------------------------|
3rd:-7-7-7-7-7-7-7-7-7-7-7-7-14-14-14-14-14-14-14-14-14-14-14-14-|
4th:-------------------------------------------------------------|
5th:-5-5-5-5-5-5-5-5-5-5-5-5-12-12-12-12-12-12-12-12-12-12-12-12-|
6th:-------------------------------------------------------------|

Guitar 2
1st:-------------------------------------------------------------|
2nd:-------------------------------------------------------------|
3rd:-7-7-7-7-7-7-7-7-7-7-7-7-14-14-14-14-14-14-14-14-14-14-14-14-|
4th:-------------------------------------------------------------|
5th:-5-5-5-5-5-5-5-5-5-5-5-5-12-12-12-12-12-12-12-12-12-12-12-12-|
6th:-------------------------------------------------------------|

---

1st:------------------|
2nd:------------------|
3rd:------------------|
4th:------------------|
5th:-8-7---5-----5----|
6th:-----7---7-6---5--| x2

---

Guitar 1
1st:-------------------|
2nd:-------------------|
3rd:-------------------|
4th:-------------------|
5th:--8-7---5-----5----|
6th:------7---7-6---5--| x2

Guitar 2
1st:-------------------|
2nd:-------------------|
3rd:-10-9---7-----7----|
4th:------9---9-8---7--|
5th:-------------------|
6th:-------------------| x2

---

1st:-------|
2nd:-------|
3rd:-10-9--|
4th:-10-9--|
5th:-8--7--|
6th:-8--7--| x4 (drum fills, hold second time)

---

Guitar 1
1st:------------------|
2nd:------------------|
3rd:------------------|
4th:------------------|
5th:-8-7---5-----5----|
6th:-----7---7-6---5--| x3

Guitar 2
1st:-------------------|
2nd:-------------------|
3rd:-10-9---7-----7----|
4th:------9---9-8---7--|
5th:-------------------|
6th:-------------------| x3

---

1st:----------------------------|
2nd:----------------------------|
3rd:-10-9---7-------------------|
4th:-10-9-9-7-8-7-5-3~------2-2-|
5th:-8--7-9-5-8-7-5-3~------2-2-|
6th:------7---6-5-3-1~------0-0-|

1st:--------------------------------------|
2nd:--------------------------------------|
3rd:-6-6-4-6-4-6-------------6-6-4-6-4-6--|
4th:-6-6-4-6-4-6-x-5-4-x-5-4-6-6-4-6-4-6--|
5th:-4-4-2-4-2-4-x-5-4-x-5-4-4-4-2-4-2-4--|
6th:-4-4-2-4-2-4-x-3-2-x-3-2-4-4-2-4-2-4--| x2

1st:--------------------------------|
2nd:--------------------------------|
3rd:-6-6-4-6-4-6--------------------|
4th:-6-6-4-6-4-6-x-5-4---4-3---3-2--|
5th:-4-4-2-4-2-4-x-5-4-x-4-3-x-3-2--|
6th:-4-4-2-4-2-4-x-3-2-x-2-1-x-1-0--| repeat until end, fade out



===================================================================================
                                  MY APOCALYPSE
===================================================================================


Metallica – My Apocalypse
Standard Tuning (eGBDAE)
Another wicked song from Death Magnetic!
			
		                                  
-------------------------------------------------|-----------------|
-------------------------------------------------|-----------------|
-------------------------------------------------|-7\6---7\6---7\6-|
-------------------------------------------------|-----------------|
-5h7-------------5h7-------------5h7-------------|-5\4---5\4---5\4-|
-0---0-0-0-0-0-0-0---0-0-0-0-0-0-0---0-0-0-0-0-0-|-----0-----0-----|

-----------------------------------------------------------------| x2
-----------------------------------------------------------------|
-------------------------------------------------7\6---7\6---7\6-|
-----------------------------------------------------------------|
-5h7-------------5h7-------------5h7-------------5\4---5\4---5\4-|
-0---0-000—0-0-0-0---0-000-0-0-0-0---0-000—0-0-0-----0-----0-----|

----------------------------------------------------------------| x2
----------------------------------------------------------------|
------------------------------------------------7\6---7\6---7\6-|
-3/5------------3/5------------3/5------------------------------|
-5/7------------5/7------------5/7--------------5\4---5\4---5\4-|
-----0-0----0-0-----0-0----0-0-----0-0------0-0-----0-----0-----|

Claustrophobic…
-----------------------------------------------------------|
-----------------------------------------------------------|
-------------------------------------------7\6---7\6---7\6-|
-5-------------5-------------5-----------------------------|
-7-------------7-------------7-------------5\4---5\4---5\4-|
---0-000—0-0-0---0-000-0-0-0---0-000—0-0-0-----0-----0-----|

Fear thy name…
------------------------| 
------------------------|
--------------------4-7-|
-4--------------5-5-4-7-|
-4--------------5-5-2-5-|
-2--2-222-2-2-2-3-3-----|

-----------------------------|
-----------------------------|
-----------------------------|
-4---------------------------|
-4---------------------------|
-2-2-222-222-222-222-222-222-|

So we cross…
---------------------------------------------------------------|
---------------------------------------------------------------|
-------------------------------7\6---7\6---7\6-9\8---9\8---9\8-|
-5\--------5\--------5\----------------------------------------|
-7\--------7\--------7\--------5\4---5\4---5\4-7\6---7\6---7\6-|
-----0---0-----0---0-----0---0-----0-----0---------0-----0-----|

Suffer onto my apocalypse!
--------------------------|
--------------------------|
------------------8-8-8-8-|
-7\6-7\6-7\6-7\6--8-8-8-8-|
-5\4-5\4-5\4-5\4--6-6-6-6-|
--------------------------|

Deadly vision…
-----------------------------------------------------------|
-----------------------------------------------------------|
-------------------------------------------7\6---7\6---7\6-|
-5-------------5-------------5-----------------------------|
-7-------------7-------------7-------------5\4---5\4---5\4-|
---0-000—0-0-0---0-000-0-0-0---0-000—0-0-0-----0-----0-----|

Fear thy name…
------------------------| 
------------------------|
--------------------4-7-|
-4--------------5-5-4-7-|
-4--------------5-5-2-5-|
-2--2-222-2-2-2-3-3-----|

-----------------------------|
-----------------------------|
-----------------------------|
-4---------------------------|
-4---------------------------|
-2-2-222-222-222-222-222-222-|

So we cross…
---------------------------------------------------------------|
---------------------------------------------------------------|
-------------------------------7\6---7\6---7\6-9\8---9\8---9\8-|
-5\--------5\--------5\----------------------------------------|
-7\--------7\--------7\--------5\4---5\4---5\4-7\6---7\6---7\6-|
-----0---0-----0---0-----0---0-----0-----0---------0-----0-----|

Suffer onto my apocalypse!
--------------------------|
--------------------------|
------------------8-8-8-8-|
-7\6-7\6-7\6-7\6--8-8-8-8-|
-5\4-5\4-5\4-5\4--6-6-6-6-|
--------------------------|

-----------------------------------------------------------|
-----------------------------------------------------------|
-------------------------------------------7\6---7\6---7\6-|
-5-------------5-------------5-----------------------------|
-7-------------7-------------7-------------5\4---5\4---5\4-|
---0-000—0-0-0---0-000-0-0-0---0-000—0-0-0-----0-----0-----|

-----------------| x8
-----------------|
---5-4-----4-----|
-2-----3-4---4-3-|
-----------------|
-----------------|

Crushing metal…
--------------------------------------------------------------------|
--------------------------------------------------------------------|
-9------------9\7--------------7/9--------------------5-4-----4-----|
-9------------9\7--------------7/9------------------2-----3-4---4-3-|
-7------------7\5--------------5/7----------------------------------|
---000000-0-0-----0-000000-0-0-----0-000000-0-0-0-0-----------------|

-----------------| x3
-----------------|
---5-4-----4-----|
-2-----3-4---4-3-|
-----------------|
-----------------|

Spit it out!
-----|
-----|
--9--|
--9--|
--7--|
-----|

Rhythm under solo…
-------------------------------------------------------------------| x3
-------------------------------------------------------------------|
-9------------9\7------------------------------------5-4-----4-----|
-9------------9\7-----5/7-----5/7-2----------------2-----3-4---4-3-|
-7------------7\5-----5/7-----5/7-2--------------------------------|
---000000-0-0-----0-0-3/5-0-0-3/5-0-000000-0-0-0-0-----------------|

--------------------------------------------------------------------|
--------------------------------------------------------------------|
-9------------9\7---------------------------------------------------|
-9------------9\7-----5/7-----9-8-7------------7-6-5------------5-4-|
-7------------7\5-----5/7-----9-8-7------------7-6-5------------5-4-|
---000000-0-0-----0-0-3/5-0-0-7-6-5-555555-5-5-5-4-3-333333-3-3-3-2-|

------------| x 6
------------|
------------|
------------|
------------|
-0-0000-0-0-|

---------------------|
---------------------|
---------------------|
---------3-------3-3-|
---------3-------3-3-|
-1-111-1-1-1-111-1-1-|

Guitar 1
---------------------------------------------| x2
---------------------------------------------|
---------------------------------------------|
---------------------------------------------|
---2---2-3-5-3-2-----2-----2---2-3-5-3-------|
-0---0-------------0-----0---0---------1-----|
Guitar 2
---------------------------------------------| x2
---------------------------------------------|
------------7-------------------------7------|
---9---9-10---10-9-----9-----9---9-10---10---|
-7---7---------------7-----7---7-----------8-|
---------------------------------------------|

What makes me drift…
------------------------------------|
------------------------------------|
-9------------9\7-------------------|
-9------------9\7-----5/7-----5/7-2-|
-7------------7\5-----5/7-----5/7-2-|
---000000-0-0-----0-0-3/5-0-0-3/5-0-|

------------------------------------| x2
------------------------------------|
--------------9\7-------------------|
-2------------9\7-----5/7-----5/7-2-|
-2------------7\5-----5/7-----5/7-2-|
-0-000000-0-0-----0-0-3/5-0-0-3/5-0-|

----------------------------------|
----------------------------------|
--------------9\7-----------------|
-2------------9\7-----5/7-----5/7-|
-2------------7\5-----5/7-----5/7-|
-0-000000-0-0-----0-0-3/5-0-0-3/5-|

Meeee…
-----------------| x4
-----------------|
---5-4-----4-----|
-2-----3-4---4-3-|
-----------------|
-----------------|

---------------------------------------------------------------------|
---------------------------------------------------------------------|
---8-7-----7-------8-7-----7-------7-------7-------8--------8--------|
-5-----6-7---7-6-5-----6-7---7-6-5---9-8-7---9-8-7---10-9-8---10-9-8-|
---------------------------------------------------------------------|
---------------------------------------------------------------------|

-------------------|
-------------------|
-------------------|
-5-4-3-2-3-4-5-4-3-|
-5-4-3-2-3-4-5-4-3-|
-3-2-1-0-1-2-3-2-1-|

Claustrophobic…
-----------------------------------------------------------|
-----------------------------------------------------------|
-------------------------------------------7\6---7\6---7\6-|
-5-------------5-------------5-----------------------------|
-7-------------7-------------7-------------5\4---5\4---5\4-|
---0-000—0-0-0---0-000-0-0-0---0-000—0-0-0-----0-----0-----|

Fear thy name…
------------------------| 
------------------------|
--------------------4-7-|
-4--------------5-5-4-7-|
-4--------------5-5-2-5-|
-2--2-222-2-2-2-3-3-----|

-----------------------------|
-----------------------------|
-----------------------------|
-4---------------------------|
-4---------------------------|
-2-2-222-222-222-222-222-222-|

So we cross…
---------------------------------------------------------------|
---------------------------------------------------------------|
-------------------------------7\6---7\6---7\6-9\8---9\8---9\8-|
-5\--------5\--------5\----------------------------------------|
-7\--------7\--------7\--------5\4---5\4---5\4-7\6---7\6---7\6-|
-----0---0-----0---0-----0---0-----0-----0---------0-----0-----|

Suffer onto my apocalypse!
--------------------------|
--------------------------|
------------------8-8-8-8-|
-7\6-7\6-7\6-7\6--8-8-8-8-|
-5\4-5\4-5\4-5\4--6-6-6-6-|
--------------------------|

Tyrant awaken…
-----------------------------------------------------|
-----------------------------------------------------|
-----------------------------------------------------|
---------------------------------5-4-3-2-3-4-5-4-3-2-|
---------------------------------5-4-3-2-3-4-5-4-3-2-|
00000000000000000000000000000000-3-2-1-0-1-2-3-2-1-0-|

Strum wildly for ending, then play it sliding out
-----|
-----|
--9--|
--9--|
--7--|
--0--|


comments
print report bad tab
9 comments total. Showing first comments.
+2 reply
metalfreak_6666 wrote on March 3 2009, 04:41 pm

there's a better of end of the line with the solo and outro and shit

+3 reply
westvipor wrote on March 14 2009, 07:10 pm

for TWJYL the main riff you can do this at the end. its alot easier
|------------------------------------|
|------------------------------------|
|------------------------------------|
|------------------------------------|
|-0---0-1-0--------------------------|
|---3-------3-2-1--------------------|

+1 reply
westvipor wrote on March 14 2009, 07:10 pm

I meant at the end of the riff

I want to post or [tab]
guest
You may want to rate the tab now too:
select rating
Please do not post tabs as comments. Select "correction" instead!