Oops, an error
Loading. Please wait.

Death Magnetic Tab

ver3
ver3

Album

Interactive

More versions @911Tabs.com
8,059 views 1 this week
3 commentsread comments
1 2 3 4 5
excellent!
x 5
Autoscroll
+/-
esc
set tempo
stop
Contributor
Difficulty
intermediate
Hey! There's an official Ultimate Guitar app which is ideal
for learning songs when you're away from computer. Get the app
WARNING: You are trying to view
                                    content from Ultimate-Guitar.com
                                    in an unauthorized application,
                                    which is prohibited.

                                    Please use an official Ultimate
                                    Guitar Tabs application for iPhone,
                                    iPad or Android to access legitimate
                                    chords, guitar, bass, and drum tabs
                                    from Ultimate-Guitar.com database.

                                    Type "ultimate guitar tabs" in Apple
                                    App Store's or Android Market's
                                    search to find the application.
 __  __      _        _ _ _           
 |  \/  | ___| |_ __ _| | (_) ___ __ _ 
 | |\/| |/ _ \ __/ _` | | | |/ __/ _` |
 | |  | |  __/ |_ (_| | | | | (__ (_| |
 |_|  |_|\___|\__\__,_|_|_|_|\___\__,_|

  ____             _   _       __  __                        _   _      
 |  _ \  ___  __ _| |_| |__   |  \/  | __ _  __ _ _ __   ___| |_(_) ___ 
 | | | |/ _ \/ _` | __| '_ \  | |\/| |/ _` |/ _` | '_ \ / _ \ __| |/ __|
 | |_| |  __/ (_| | |_| | | | | |  | | (_| | (_| | | | |  __/ |_| | (__ 
 |____/ \___|\__,_|\__|_| |_| |_|  |_|\__,_|\__, |_| |_|\___|\__|_|\___|


That was just your life
I---------------------------|I
I---------------------------|I
I---------0-----------------|I
I------2-----2---------3~---|I
I----1--------------1-------|I
I-0--------------0----------|I
Figure 2 (Distortion)
I-------------------------------------|I
I-------------------------------------|I
I-------------------------------------|I
I-2-----2-2-2---2--------2--2--3------|I
I-2-----2-2-2---2--------2--1--3------|I
I-0-----0-0-0---0--------0--0--1--I---|  x4
        PM_______
Figure 3
I-----------------------------------------|I
I-----------------------------------------|I
I-----------------------------------------|I
I--------2--------------------------------|I
I----1-------1---8-8-8-8--3--3--3--5------|I
I-0--------------6-6-6-6--1--1--1--3--I---|  x2
Figure 4
I----------------------------------|I
I----------------------------------|I
I----------------------------------|I
I-------2~---------2---------------|I
I----1----------1-----8\----3------|I
I-0----------0--------6\----1--I---|  x2
Figure 5
I------------------I     I-------------------|I
I------------------I     I-------------------|I
I------------------I     I-------------------|I
I---------2--------I     I-------------------|I
I-----0-1---1-0-1--I     I-0---0-1-0---------|I
I-000--------------I x3  I---3-------3-2-1---|I x4
  PM_
Figure 5.1
I-----------------------|I
I-----------------------|I
I-----------------------|I
I-----------------------|I
I-10-10-10-10-3-3-3-3---|I
I-8--8--8--8--1-1-1-1---|I
     PM_____    PM___
Figure 6
I-----------------------------------------------|I
I-----------------------------------------------|I
I-----------------------------------------------|I
I-----------------------------------------------|I
I-------7~--------7~--------7~--8\---3----------|I
I-0-5-6-----0-5-6-----0-5-6-----6\---1------I---|  x2





Figure 7
I------------------------------------------------------------|I
I------------------------------------------------------------|I
I------------------------------------------------------------|I
I------------------------------------------------------------|I
I----------------------------------------0---0-1-0-----------|I
I-0-0--0--0--0-0-0--0--0--0-0-0--0--0--0---3-------3-2-1--I--| x3
  PM____________________________________
Figure 8
I-------------I     I----------|I
I-------------I     I----------|I
I-------------I     I----------|I
I-------------I     I----------|I
I-------3--3--I     I-10---3---|I
I-0--0--1--1--I x3  I-8----1---|I
  PM__
Figure 9
I----------------------------------------------------------------|I
I----------------------------------------------------------------|I
I----------------------------------------------------------------|I
I-9-9-9-9-9-9----------------------------------------------------|I
I-7-7-7-7-7-7-8-8-7-7-7-7-7-7-5-5-3-3-3-3-3-3-3-3-2-2--2--2--2---|I
I-------------6-6-5-5-5-5-5-5-3-3-1-1-1-1-1-1-1-1-0-0--0--0--0---|I

I----------------------------------------------------------------|I
I----------------------------------------------------------------|I
I----------------------------------------------------------------|I
I-9-9-9-9-9-9-------------------------------------5-5--5--5--5---|I
I-7-7-7-7-7-7-8-8-7-7-7-7-7-7-5-5-3-3-3-3-3-3-3-3-3-3--3--3--3---|I
I-------------6-6-5-5-5-5-5-5-3-3-1-1-1-1-1-1-1-1-3-3--3--3--3---|I

I----------------------------------------------------------------|I
I----------------------------------------------------------------|I
I----------------------------------------------------------------|I
I-9-9-9-9-9-9-------------------------------------7-7--7--7--7---|I
I-7-7-7-7-7-7-8-8-7-7-7-7-7-7-5-5-3-3-3-3-3-3-3-3-5-5--5--5--5---|I
I-------------6-6-5-5-5-5-5-5-3-3-1-1-1-1-1-1-1-1-5-5--5--5--5---|I

I---------------------------------------------------|I
I---------------------------------------------------|I
I---------------------------------------------------|I
I-9-9-9-9-9-9---------------------------------------|I
I-7-7-7-7-7-7-8-8-7-7-7-7-7-7-5-5-3-3-3-3-3-3-3-3---|I
I-------------6-6-5-5-5-5-5-5-3-3-1-1-1-1-1-1-1-1---|I
Figure 10
I------------------------------------------------------------|I
I------------------------------------------------------------|I
I------------------------------------------------------------|I
I----------3-3--2----3-2---------------3-3--2----3-2---------|I
I------------------1------1~-------------------1------2~-----|I
I-000-0-0---------------------000-0-0---------------------I--| x2
  PM_____                     PM_____





Figure 11
I------------------I    I-------------------|I
I------------------I    I-------------------|I
I------------------I    I-------------------|I
I------------------I    I-------------------|I
I------------------I    I-------------------|I
I-000-0-0-0-0-0-0--I x3 I-000-000-000-000---|I
  PM_____________          PM_____________
I----------------------------------------------------|I
I----------------------------------------------------|I
I----------------------------------------------------|I
I-----------12-14~----12-----------------------------|I
I-12--12-14--------------14-10~---14~---12-10--------|I
I---------------------------------------------10~----|Ix2
The End Of The Line

E||--------------------------|-----------------------------------------|
B||--------------------------|-----------------------------------------|
G||--------------------------|-----------------------------------------|
D||--------------------------|-----------------------------------------|
A||--3---2----5---5---2------|--8-8-8-7~-L-7-10-10-10-7~-L-7-5-7-------|
E||--1---0--0-3---3---0------|-----------------------------------0--0--|

--------------------------|-----------------------------------------|
--------------------------|-----------------------------------------|
--------------------------|-----------------------------------------|
--------------------------|-----------------------------------------|
--3---2----5---5---2------|--8-8-8-7~-L-7-10-10-10-7~-L-7-5-7-------|
--1---0--0-3---3---0------|-----------------------------------0--0--|

--------------------------|-----------------------------------------|
--------------------------|-----------------------------------------|
--------------------------|-----------------------------------------|
--------------------------|-----------------------------------------|
--3---2----5---5---2------|--8-8-8-7~-L-7-10-10-10-7~-L-7-5-7-------|
--1---0--0-3---3---0------|-----------------------------------0--0--|

--------------------------|---------------------------------------|
--------------------------|---------------------------------------|
--------------------------|---------------------------------------|
--------------------------|---------------------------------------|
--3---2----5---5---2------|--8-8-8-7~-L-7-10-10-10-7~-L-7-5-7-----|
--1---0--0-3---3---0------|---------------------------------------|

-----------------------------------------|
-----------------------------------------|
-----------------------------------------|
-----------------------------------------|
--3-3-3-2---2-2h-5-5---------------------|
--1-1-1-0---0-0h-3-3---0--0--0--0--0--0--|

-----------------------------------------|
-----------------------------------------|
-----------------------------------------|
-----------------------------------------|
--3-3-3-2---2-2h-5-5---------------------|
--1-1-1-0---0-0h-3-3---0--0--0--0--0--0--|

-----------------------------------------|
-----------------------------------------|
-----------------------------------------|
-----------------------------------------|
--3-3-3-2---2-2h-5-5---------------------|
--1-1-1-0---0-0h-3-3---0--0--0--0--0--0--|

-----------------------------------------|----------------------------|
-----------------------------------------|----------------------------|
-----------------------------------------|----------------------------|
-----------------------------------------|----------------------------|
--3-3-3-2---2-2h-5-5---------------------|--8---7----10---10---7------|
--1-1-1-0---0-0h-3-3---0--0--0--0--0--0--|--6---5--5--8----8---5------|

-------------------------------|-------------------|-------------------|
-------------------------------|-------------------|-------------------|
-------------------------------|-------------------|-------------------|
-------------------------------|-------------------|-------------------|
--10---9----12---12---9-----2--|--L----------------|--L----------------|
---8---7--7-10---10---7-----0--|--L----------------|--L----------------|

 Riff 1

-------------------------------|-------------------------------|
-------------------------------|-------------------------------|
-------------------------------|-------------------------------|
-------------------------------|-------------------------------|
-----------------------5---7~--|-----------------------5---7~--|
--0---0-5h-6-0---0-5-6---6-----|--0---0-5h-6-0---0-5-6---6-----|

-------------------------------|-------------------------------|
-------------------------------|-------------------------------|
-------------------------------|-------------------------------|
-------------------------------|-----------------------5-------|
-----------------------5---7~--|-------------------------5-7~--|
--0---0-5h-6-0---0-5-6---6-----|--0---0-5h-6-0---0-5-6---------|

-------------------------------|-------------------------------|
-------------------------------|-------------------------------|
-------------------------------|-------------------------------|
-------------------------------|-------------------------------|
-----------------------5---7~--|-----------------------5---7~--|
--0---0-5h-6-0---0-5-6---6-----|--0---0-5h-6-0---0-5-6---6-----|

-------------------------------|--------------------------------------|
-------------------------------|--------------------------------------|
-------------------------------|--------------------------------------|
-------------------------------|--------------------------------------|
-----------------------5---7~--|--------------------------------------|
--0---0-5h-6-0---0-5-6---6-----|--0---0-5h-6-0---0--0--0--0--0--0--0--|

 Riff 2

----------------------------------------------|
----------------------------------------------|
----------------------------------------------|
----------------------------------------------|
--2----------7S-8-------------7S-8-------7S-9-|
--0-0--0--0--5S-6-0--0--0--0--5S-6-0--0--5S-7-|

----------------------------------------------|
----------------------------------------------|
----------------------------------------------|
----------------------------------------------|
--2----------7S-8-------------7S-8-------7S-9-|
--0-0--0--0--5S-6-0--0--0--0--5S-6-0--0--5S-7-|

----------------------------------------------|
----------------------------------------------|
----------------------------------------------|
----------------------------------------------|
--2----------7S-8-------------7S-8-------7S-9-|
--0-0--0--0--5S-6-0--0--0--0--5S-6-0--0--5S-7-|

----------------------------------------------|
----------------------------------------------|
----------------------------------------------|
----------------------------------------------|
--2----------7S-8-------------7S-8-------7S-9-|
--0-0--0--0--5S-6-0--0--0--0--5S-6-0--0--5S-7-|

----------------------------------------------|
----------------------------------------------|
----------------------------------------------|
----------------------------------------------|
--2----------3----------5----------8----------|
--0-0--0--0--1-0--0--0--3-0--0--0--6-0--0--0--|

-----------------------------------------|
-----------------------------------------|
-----------------9-9S-7S-9-9-------------|
-----------------------------------------|
--2--------------7-7S-5S-7-7----------3--|
--0--0--0--0--0--------------0--0--0--1--|

---------------------------------------|
---------------------------------------|
-----------------9-9S-7S-9---9---------|
---------------------------------------|
--2--------------7-7S-5S-7---7------3--|
--0--0--0--0--0------------------0--1--|

-----------------------------------------|
-----------------------------------------|
-----------------9-9S-7S-9-9-------------|
-----------------------------------------|
--2--------------7-7S-5S-7-7----------3--|
--0--0--0--0--0--------------0--0--0--1--|

----------------------------------------------|
----------------------------------------------|
----------------------------------------------|
----------------------------------------------|
--2----------3----------5----------8----------|
--0-0--0--0--1-0--0--0--3-0--0--0--6-0--0--0--|

-----------------------------------------|
-----------------------------------------|
-----------------9-9S-7S-9-9-------------|
-----------------------------------------|
--2--------------7-7S-5S-7-7----------3--|
--0--0--0--0--0--------------0--0--0--1--|

-----------------------------------------|
-----------------------------------------|
-----------------9-9S-7S-9-9-------------|
-----------------------------------------|
--2--------------7-7S-5S-7-7----------3--|
--0--0--0--0--0--------------0--0--0--1--|

-----------------------------------------|
-----------------------------------------|
-----------------------------------------|
-----------------5-5S-4S-5-5-------------|
--2--------------7-7S-5S-7-7----------3--|
--0--0--0--0--0--------------0--0--0--1--|

----------------------------------------------|
----------------------------------------------|
----------------------------------------------|
----------------------------------------------|
--2----------3----------5----------8----------|
--0-0--0--0--1-0--0--0--3-0--0--0--6-0--0--0--|

--------------------------------------------|-------------------------------|
--------------------------------------------|-------------------------------|
--------------------------------------------|-------------------------------|
--------------------------------------------|-------------------------------|
--2--------7S-8-------------7S-8-------7S-9-|-----------------------5---7~--|
--0--0--0--5S-6-0--0--0--0--5S-6-0--0--5S-7-|--0---0-5h-6-0---0-5-6---6-----|

-------------------------------|-------------------------------|
-------------------------------|-------------------------------|
-------------------------------|-------------------------------|
-------------------------------|-------------------------------|
-----------------------5---7~--|-----------------------5---7~--|
--0---0-5h-6-0---0-5-6---6-----|--0---0-5h-6-0---0-5-6---6-----|

--------------------------------------|
--------------------------------------|
--------------------------------------|
--------------------------------------|
--------------------------------------|
--0---0-5h-6-0---0--0--0--0--0--0--0--|

----------------------------------------------|
----------------------------------------------|
----------------------------------------------|
----------------------------------------------|
--2----------7S-8-------------7S-8-------7S-9-|
--0-0--0--0--5S-6-0--0--0--0--5S-6-0--0--5S-7-|

----------------------------------------------|
----------------------------------------------|
----------------------------------------------|
----------------------------------------------|
--2----------7S-8-------------7S-8-------7S-9-|
--0-0--0--0--5S-6-0--0--0--0--5S-6-0--0--5S-7-|

----------------------------------------------|
----------------------------------------------|
----------------------------------------------|
----------------------------------------------|
--2----------7S-8-------------7S-8-------7S-9-|
--0-0--0--0--5S-6-0--0--0--0--5S-6-0--0--5S-7-|

----------------------------------------------|
----------------------------------------------|
----------------------------------------------|
----------------------------------------------|
--2----------7S-8-------------7S-8-------7S-9-|
--0-0--0--0--5S-6-0--0--0--0--5S-6-0--0--5S-7-|

----------------------------------------------|
----------------------------------------------|
----------------------------------------------|
----------------------------------------------|
--2----------3----------5----------8----------|
--0-0--0--0--1-0--0--0--3-0--0--0--6-0--0--0--|

-----------------------------------------|
-----------------------------------------|
-----------------9-9S-7S-9-9-------------|
-----------------------------------------|
--2--------------7-7S-5S-7-7----------3--|
--0--0--0--0--0--------------0--0--0--1--|

---------------------------------------|
---------------------------------------|
-----------------9-9S-7S-9---9---------|
---------------------------------------|
--2--------------7-7S-5S-7---7------3--|
--0--0--0--0--0------------------0--1--|

-----------------------------------------|
-----------------------------------------|
-----------------9-9S-7S-9-9-------------|
-----------------------------------------|
--2--------------7-7S-5S-7-7----------3--|
--0--0--0--0--0--------------0--0--0--1--|

----------------------------------------------|
----------------------------------------------|
----------------------------------------------|
----------------------------------------------|
--2----------3----------5----------8----------|
--0-0--0--0--1-0--0--0--3-0--0--0--6-0--0--0--|

-----------------------------------------|
-----------------------------------------|
-----------------9-9S-7S-9-9-------------|
-----------------------------------------|
--2--------------7-7S-5S-7-7----------3--|
--0--0--0--0--0--------------0--0--0--1--|

-----------------------------------------|
-----------------------------------------|
-----------------9-9S-7S-9-9-------------|
-----------------------------------------|
--2--------------7-7S-5S-7-7----------3--|
--0--0--0--0--0--------------0--0--0--1--|

-----------------------------------------|
-----------------------------------------|
-----------------------------------------|
-----------------5-5S-4S-5-5-------------|
--2--------------7-7S-5S-7-7----------3--|
--0--0--0--0--0--------------0--0--0--1--|

----------------------------------------------|
----------------------------------------------|
----------------------------------------------|
----------------------------------------------|
--2----------3----------5----------8----------|
--0-0--0--0--1-0--0--0--3-0--0--0--6-0--0--0--|

--------------------------------------------|
--------------------------------------------|
--------------------------------------------|
--------------------------------------------|
--2--------7S-8-------------7S-8-------7S-9-|
--0--0--0--5S-6-0--0--0--0--5S-6-0--0--5S-7-|

---------------------------------------|--------------------------------------|
---------------------------------------|--------------------------------------|
---------------------------------------|--------------------------------------|
---------------------------------------|--------------------------------------|
---------------------------------------|--------------------------------------|
-0-5h-6-0-5h-6-0-5h-6-0-5h-6-0-5h-6-6-|--0-5h-6-0-5h-6-0-5h-6-0-5h-6-0-5h66---|
Chorus
-------------------------------------------|
-------------------------------------------|
-------------------------------------------|
-------------------------------------------|
-------------------------------------------|
--0--15-0-15-15-0-15-0-15-15-0-15-15-15-15-|

-------------------------------------------|
-------------------------------------------|
-------------------------------------------|
-------------------------------------------|
-------------------------------------------|
--0--15-0-15-15-0-15-0-15-15-0-15-15-15-15-|

-------------------------------------------|
-------------------------------------------|
-------------------------------------------|
-------------------------------------------|
-------------------------------------------|
--0--15-0-15-15-0-15-0-15-15-0-15-15-15-15-|

-------------------------------------------|
-------------------------------------------|
-------------------------------------------|
-------------------------------------------|
-------------------------------------------|
--0--15-0-15-15-0-15-0-15-15-0-15-15-15-15-|

-------------------------------------------|
-------------------------------------------|
-------------------------------------------|
-------------------------------------------|
-------------------------------------------|
--0--15-0-15-15-0-15-0-15-15-0-15-15-15-15-|

-------------------------------------------|
-------------------------------------------|
-------------------------------------------|
-------------------------------------------|
-------------------------------------------|
--0--15-0-15-15-0-15-0-15-15-0-15-15-15-15-|

-------------------------------------------|
-------------------------------------------|
-------------------------------------------|
-------------------------------------------|
-------------------------------------------|
--0--15-0-15-15-0-15-0-15-15-0-15-15-15-15-|

-------------------------------------------|
-------------------------------------------|
-------------------------------------------|
-------------------------------------------|
-------------------------------------------|
--0--15-0-15-15-0-15-0-15-15-0-15-15-15-15-|

--------------------------------------|-------------------------------|
--------------------------------------|-------------------------------|
--------------------------------------|-------------------------------|
--------------------------------------|-------------------------------|
--8-----8-----8-----8-----8-----8-----|-----------------------5---7~--|
--6-----6-----6-----6-----6-----6-----|--0---0-5h-6-0---0-5-6---6-----|

-------------------------------|-------------------------------|
-------------------------------|-------------------------------|
-------------------------------|-------------------------------|
-------------------------------|-------------------------------|
-----------------------5---7~--|-----------------------5---7~--|
--0---0-5h-6-0---0-5-6---6-----|--0---0-5h-6-0---0-5-6---6-----|

-------------------------------|-------------------------------|
-------------------------------|-------------------------------|
-------------------------------|-------------------------------|
-----------------------5-------|-------------------------------|
-------------------------5-7~--|-----------------------5---7~--|
--0---0-5h-6-0---0-5-6---------|--0---0-5h-6-0---0-5-6---6-----|

-------------------------------|-------------------------------|
-------------------------------|-------------------------------|
-------------------------------|-------------------------------|
-------------------------------|-------------------------------|
-----------------------5---7~--|-----------------------5---7~--|
--0---0-5h-6-0---0-5-6---6-----|--0---0-5h-6-0---0-5-6---6-----|

--------------------------------------|
--------------------------------------|
--------------------------------------|
--------------------------------------|
--------------------------------------|
--0---0-5h-6-0---0--0--0--0--0--0--0--|

----------------------------------------------|
----------------------------------------------|
----------------------------------------------|
----------------------------------------------|
--2----------7S-8-------------7S-8-------7S-9-|
--0-0--0--0--5S-6-0--0--0--0--5S-6-0--0--5S-7-|

----------------------------------------------|
----------------------------------------------|
----------------------------------------------|
----------------------------------------------|
--2----------7S-8-------------7S-8-------7S-9-|
--0-0--0--0--5S-6-0--0--0--0--5S-6-0--0--5S-7-|

----------------------------------------------|
----------------------------------------------|
----------------------------------------------|
----------------------------------------------|
--2----------7S-8-------------7S-8-------7S-9-|
--0-0--0--0--5S-6-0--0--0--0--5S-6-0--0--5S-7-|

----------------------------------------------|
----------------------------------------------|
----------------------------------------------|
----------------------------------------------|
--2----------7S-8-------------7S-8-------7S-9-|
--0-0--0--0--5S-6-0--0--0--0--5S-6-0--0--5S-7-|

----------------------------------------------|
----------------------------------------------|
----------------------------------------------|
----------------------------------------------|
--2----------3----------5----------8----------|
--0-0--0--0--1-0--0--0--3-0--0--0--6-0--0--0--|

-----------------------------------------|
-----------------------------------------|
-----------------9-9S-7S-9-9-------------|
-----------------------------------------|
--2--------------7-7S-5S-7-7----------3--|
--0--0--0--0--0--------------0--0--0--1--|

---------------------------------------|
---------------------------------------|
-----------------9-9S-7S-9---9---------|
---------------------------------------|
--2--------------7-7S-5S-7---7------3--|
--0--0--0--0--0------------------0--1--|

-----------------------------------------|
-----------------------------------------|
-----------------9-9S-7S-9-9-------------|
-----------------------------------------|
--2--------------7-7S-5S-7-7----------3--|
--0--0--0--0--0--------------0--0--0--1--|

----------------------------------------------|
----------------------------------------------|
----------------------------------------------|
----------------------------------------------|
--2----------3----------5----------8----------|
--0-0--0--0--1-0--0--0--3-0--0--0--6-0--0--0--|

-----------------------------------------|
-----------------------------------------|
-----------------9-9S-7S-9-9-------------|
-----------------------------------------|
--2--------------7-7S-5S-7-7----------3--|
--0--0--0--0--0--------------0--0--0--1--|

-----------------------------------------|
-----------------------------------------|
-----------------9-9S-7S-9-9-------------|
-----------------------------------------|
--2--------------7-7S-5S-7-7----------3--|
--0--0--0--0--0--------------0--0--0--1--|

-----------------------------------------|
-----------------------------------------|
-----------------------------------------|
-----------------5-5S-4S-5-5-------------|
--2--------------7-7S-5S-7-7----------3--|
--0--0--0--0--0--------------0--0--0--1--|

----------------------------------------------|
----------------------------------------------|
----------------------------------------------|
----------------------------------------------|
--2----------3----------5----------8----------|
--0-0--0--0--1-0--0--0--3-0--0--0--6-0--0--0--|

--------------------------------------------|
--------------------------------------------|
--------------------------------------------|
--------------------------------------------|
--2--------7S-8-------------7S-8-------7S-9-|
--0--0--0--5S-6-0--0--0--0--5S-6-0--0--5S-7-|

---------------------------------------|--------------------------------------|
---------------------------------------|--------------------------------------|
---------------------------------------|--------------------------------------|
---------------------------------------|--------------------------------------|
---------------------------------------|--------------------------------------|
0-5h-6-0-5h-6-0-5h-6-0-5h-6-0-5h-6-6-|--0-5h-6-0-5h-6-0-5h-6-0-5h-6-0-5h-66---|

-------------------------------------------|
-------------------------------------------|
-------------------------------------------|
-------------------------------------------|
-------------------------------------------|
--0--15-0-15-15-0-15-0-15-15-0-15-15-15-15-|

-------------------------------------------|
-------------------------------------------|
-------------------------------------------|
-------------------------------------------|
-------------------------------------------|
--0--15-0-15-15-0-15-0-15-15-0-15-15-15-15-|

-------------------------------------------|
-------------------------------------------|
-------------------------------------------|
-------------------------------------------|
-------------------------------------------|
--0--15-0-15-15-0-15-0-15-15-0-15-15-15-15-|

-------------------------------------------|
-------------------------------------------|
-------------------------------------------|
-------------------------------------------|
-------------------------------------------|
--0--15-0-15-15-0-15-0-15-15-0-15-15-15-15-|

-------------------------------------------|
-------------------------------------------|
-------------------------------------------|
-------------------------------------------|
-------------------------------------------|
--0--15-0-15-15-0-15-0-15-15-0-15-15-15-15-|

-------------------------------------------|
-------------------------------------------|
-------------------------------------------|
-------------------------------------------|
-------------------------------------------|
--0--15-0-15-15-0-15-0-15-15-0-15-15-15-15-|

-------------------------------------------|
-------------------------------------------|
-------------------------------------------|
-------------------------------------------|
-------------------------------------------|
--0--15-0-15-15-0-15-0-15-15-0-15-15-15-15-|

-------------------------------------------|
-------------------------------------------|
-------------------------------------------|
-------------------------------------------|
-------------------------------------------|
--0--15-0-15-15-0-15-0-15-15-0-15-15-15-15-|

--------------------------------------||
--------------------------------------||
--------------------------------------||
--------------------------------------||
--8-----8-----8-----8-----8-----8-----||
--6-----6-----6-----6-----6-----6-----||
Broken beat and scarred
|------------------------|
|------------------------|
|------------------------|
|------------------------|
|------------2-2--2------|
|--/6\--/6\--0-0--0------|
             . .         
|------------------------|
|------------------------|
|------------------------|
|------------------------|
|------------2-2--2-2-2--|
|--/6\--/6\--0-0--0-0-0--|
             . .    . .
|------------|---------------------------|
|------------|---------------------------|
|------------|---------------------------|
|------------|----------7----------------|
|------------|-------/7----8-7\5-7h8p7~--|
|--/6\--/6\--|--0-0----------------------|
                                        
|------------|----------|----------------|
|------------|----------|----------------|
|------------|----------|----------------| 
|------------|----------|----------------| 
|------------|--2-2-2-2-|-2-2-2-2-2-2-2--| 
|--/6\--/6\--|--0-0-0-0-|-0-0-0-0-0-0-0--|
                . . . .   . . . . . . .

|------------------------------------------------------------------|
|------------------------------------------------------------------|
|-----(7)--------(7)---(9)---(10)----------(9)---------5-----------| 
|----------------------------------------------------7-------------|
|------5----------5-----7-----8-------------7------5---------------|
|------------------------------------------------------------------|

|------------------------------------------------------------------|
|------------------------------------------------------------------|
|---------------------------------------------------------------5--|
|------5-----5-------------5-----7-----8-------------7--------7----|
|------5-----5-------------5-----7-----8-------------7------5------|
|--0-0-3-0-0-3-0-0-0-0-0-0-3-0-0-5-0-0-6-6-6-6-6-6-6-5-5-5---------|
   . .   . .        . .   . .   . . . . . .   . .
|-------------------|-------------------|
|-------------------|-------------------| 
|-------------------|-------------------| 
|------3-----3------|--2-2-----7--------| 
|------3-----3------|--2-2--/7---8-7\5--| 
|--0-0-1-0-0-1-0-0--|--0-0--------------|
   . .   . .   . .
|-------------------------------------------------------|---------------|
|-------------------------------------------------------|---------------|
|-------------------------------------------------------|---------------|
|-------------------------------------------------------|---------------|
|-------------------------------------------------------|---------------|
|--15h17p15\14\12-000-12-12-000-12-000-12-12-000-12-12--|--15-15-15-15--|
                  ...       ...    ...       ...          
|-------------------------------------------|
|-------------------------------------------|
|-------------------------------------------|
|-------------------------------------.-----|
|---------------2-----2-2-----2-----2-2--2--|
|--3333-3h5p3/2-0-000-0-0-0-0-0-0-0-0-0--0--|
   ....           ...     . .   . .   
|--------|----------------------------|
|--------|----------------------------| 
|--------|----------------------------|
|--------|--2---/---10---\---5--/7\5--|
|--------|--2---/---10---\---5--/7\5--| 
|--3333--|--0---/---8----\---3--/5\3--|
   ....
|-----------------------------------------------------------------------|
|-----------------------------------------------------------------------|
|-----------------------------------------------------------------------|
|------5-----5-------------5-----7-----8-------------7-----3-----3------|
|------5-----5-------------5-----7-----8-------------7-----3-----3------|
|--0-0-3-0-0-3-0-0-0-0-0-0-3-0-0-5-0-0-6-6-6-6-6-6-6-5-0-0-1-0-0-1-0-0--|
   . .   . .   . . . . . .   . .   . .   . . . . . .   . .   . .   . .

|---------------------------------------------------|
|---------------------------------------------5-----|
|---------------------------------------------------|
|----------7-----------------8-7h8p7--------7-----x-|
|--2-2--/7---8-7\5---2-2--/7---------8p7--5-------x-|
|--0-0---------------0-0--------------------------x-|
|------|----------------------------------------------------------------|
|------|----------------------------------------------------------------|
|------|----------------------------------------------------------------|
|--9\--|----------------------------------------------------------------|
|--7\--|-------------5h7-77-5------------5h7-77-9------------5h7-77-10--|
|--0---|--0000000000-0-0-00-3-0000000000-0-0-00-7-0000000000-0-0-00-8---|
          ..........          ..........          ..........
|----------|----------------------|---------|
|----------|----------------------|------5--|
|----------|----------------------|---------|
|----------|----------------------|----7----|
|--5h7-77--|--------7--------8----|--5------|
|--0-0-00--|--0-5-6----0-5-6------|---------|

|-------------------|-------------------|
|-------------------|-------------------| 
|-------------------|-------------------| 
|------3-----3------|--2-2-----7--------| 
|------3-----3------|--2-2--/7---8-7\5--| 
|--0-0-1-0-0-1-0-0--|--0-0--------------|
   . .   . .   . .
|-------------------------------------------------------|---------------|
|-------------------------------------------------------|---------------|
|-------------------------------------------------------|---------------|
|-------------------------------------------------------|---------------|
|-------------------------------------------------------|---------------|
|--15h17p15\14\12-000-12-12-000-12-000-12-12-000-12-12--|--15-15-15-15--|
                  ...       ...    ...       ...          
|-------------------------------------------|
|-------------------------------------------|
|-------------------------------------------|
|-------------------------------------.-----|
|---------------2-----2-2-----2-----2-2--2--|
|--3333-3h5p3/2-0-000-0-0-0-0-0-0-0-0-0--0--|
   ....           ...     . .   . .   
|--------|----------------------------|
|--------|----------------------------| 
|--------|----------------------------| 
|--------|--2---/---10---\---5--/7\5--|
|--------|--2---/---10---\---5--/7\5--| 
|--3333--|--0---/---8----\---3--/5\3--|
   ....
|-----------------------------------------------------------------------|
|-----------------------------------------------------------------------|
|-----------------------------------------------------------------------|
|------5-----5-------------5-----7-----8-------------7-----3-----3------|
|------5-----5-------------5-----7-----8-------------7-----3-----3------|
|--0-0-3-0-0-3-0-0-0-0-0-0-3-0-0-5-0-0-6-6-6-6-6-6-6-5-0-0-1-0-0-1-0-0--|
   . .   . .   . . . . . .   . .   . .   . . . . . .   . .   . .   . .
|---------------------------------------------------|
|---------------------------------------------5-----|
|---------------------------------------------------|
|----------7-----------------8-7h8p7--------7-----x-|
|--2-2--/7---8-7\5---2-2--/7---------8p7--5-------x-|
|--0-0---------------0-0--------------------------x-|

|------|----------------------------------------------------------------|
|------|----------------------------------------------------------------|
|------|----------------------------------------------------------------|
|--9\--|----------------------------------------------------------------|
|--7\--|-------------5h7-77-5------------5h7-77-9------------5h7-77-10--|
|--0---|--0000000000-0-0-00-3-0000000000-0-0-00-7-0000000000-0-0-00-8---|
          ..........          ..........          ..........
|----------|----------------------|---------|---------------------|
|----------|----------------------|------5--|---------------------|
|----------|----------------------|---------|---------------------|
|----------|----------------------|----7----|------3-----3-----2--|
|--5h7-77--|--------7----------8--|--5------|------3-----3-----2--|
|--0-0-00--|--0-5-6------0-5-6----|---------|--0-0-1-0-0-1-0-0-0--|
                                               . .   . .   . .
 Rhythm for the solo:
|-------------------------|-------------------------|
|-------------------------|-------------------------|
|-------------------------|-------------------------|
|-------------------------|-------------------------|
|-------------------------|-------------------------|
|--0-0-0-6-0-0-0-6-6-6-5--|--0-0-0-6-0-0-0-6-6~--5--|
   . . .     . .             . . .   . . .  
|-----------|---------------------|
|-----------|---------------------|
|-----------|---------------------|
|-----------|--------3-----3------|
|--------6--|--------3-----3------|
|--0-0-0----|--0-0-0-1-0-0-1-0-0--|
   . . .       . . .   . .   . .
|----------------------------------|
|----------------------------------|
|----------------------------------|
|----------------------------------|
|----5~-4----5~-4----4~-3----3~-2--|
|--4-------4-------4-------4-------|

|----------------------------------|
|----------------------------------|
|----------------------------------|
|----------------------------------|
|----7~-6----7~-6----6~-5----5~-4--|
|--6-------6-------6-------6-------|

|-----------------|---------------------------------|---------------------|
|-----------------|---------------------------------|---------------------|
|-----------------|---------------------------------|---------------------|
|-----------------|--------8-7-------7-6-------6-5--|---------------------|
|-----------------|--------8-7-------7-6-------6-5--|--x\---(Pick-Slide)--|
|--0-0-0-0-0-0-0--|--0-0-0-6-5-0-0-0-5-4-0-0-0-4-3--|--x\-----------------|
   . . . . . . .     . . .     . . .     . . . 

|-------------------------|-------------------------|-----------|
|-------------------------|-------------------------|-----------|
|-------------------------|-------------------------|-----------|
|-------------------------|-------------------------|-----------|
|--------3-------3-3-3-2--|--------3-------3-3~--2--|--------3--|
|--2-2-2---2-2-2----------|--2-2-2---2-2-2----------|--2-2-2----|
   . . .     . .             . . .   . . .             . . .

|-------------------------------------------------------------------------------------|
|-------------------------------------------------------------------------------------|
|-------------------------------------------------------------------------------------|
|--------5-----5-----5-----5-------------5-----7-----8-------------7-----3-----3------|
|--------5-----5-----5-----5-------------5-----7-----8-------------7-----3-----3------|
|--2-2-2-3-2-2-3-2-2-3-2-2-3-2-2-2-2-2-2-3-3-3-5-5-5-6-6-6-6-6-6-6-5-1-1-1-1-1-1-0-0--|
   . . .   . .   . .   . .   . . . . . .   . .   . .   . . . . . .   . .   . .   . .

|---------------------------------------------|
|---------------------------------------------|
|---------------------------------------------|
|--2-2----------------2-2---------------------|
|--2-2-------------7--2-2--------------7-8----|
|--0-0--0-0-0-0-/5----0-0--0-0-0-0-/5------6--|
        . . . .            . . . .
|------|----------------------------------------------------------------|
|------|----------------------------------------------------------------|
|------|----------------------------------------------------------------|
|--9\--|----------------------------------------------------------------|
|--7\--|-------------5h7-77-5------------5h7-77-9------------5h7-77-10--|
|--0---|--0000000000-0-0-00-3-0000000000-0-0-00-7-0000000000-0-0-00-8---|
          ..........          ..........          ..........

|----------|----------------------|
|----------|----------------------|
|----------|----------------------|
|----------|----------------------|
|--5h7-77--|--------7----------8--|
|--0-0-00--|--0-5-6------0-5-6----|
        
 
|-----------------------------------------------------------------------|
|-----------------------------------------------------------------------|
|-----------------------------------------------------------------------|
|------5-----5-------------5-----7-----8-------------7-----3-----3------|
|------5-----5-------------5-----7-----8-------------7-----3-----3------|
|--0-0-3-0-0-3-0-0-0-0-0-0-3-0-0-5-0-0-6-6-6-6-6-6-6-5-0-0-1-0-0-1-0-0--|
   . .   . .   . . . . . .   . .   . .   . . . . . .   . .   . .   . .
|---------------------------------------------|
|---------------------------------------------|
|---------------------------------------------|
|--2-2----------------2-2---------------------|
|--2-2-------------7--2-2--------------7-8----|
|--0-0--0-0-0-0-/5----0-0--0-0-0-0-/5------6--|
        . . . .            . . . .
|-----------------------------------------------------------------------|
|-----------------------------------------------------------------------|
|-----------------------------------------------------------------------|
|------5-----5-------------5-----7-----8-------------7-----3-----3------|
|------5-----5-------------5-----7-----8-------------7-----3-----3------|
|--0-0-3-0-0-3-0-0-0-0-0-0-3-0-0-5-0-0-6-6-6-6-6-6-6-5-0-0-1-0-0-1-0-0--|
   . .   . .   . . . . . .   . .   . .   . . . . . .   . .   . .   . .
|---------------------------------------------|--------------------------|
|---------------------------------------------|--------------------------|
|---------------------------------------------|--------------------------|
|--2-2----------------2-2---------------------|--2-2----------------2-2--|
|--2-2-------------7--2-2--------------7-8----|--2-2-------------7--2-2--|
|--0-0--0-0-0-0-/5----0-0--0-0-0-0-/5------6--|--0-0--0-0-0-0-/5----0-0--|
the day that never comes
Lead 2 - Distorted Electric - Guitar 2
e|----------------------------------------------------------------|
B|----------------------------------------------------------------|
G|5~------5h7-5\4-5~------4h5-4\2-0---------------5-5~----5-5~----|
D|----------------------------------------------------------------|
A|----------------------------------------------------------------|
E|----------------------------------------------------------------|

e|----------------------------------------------------------------|
B|----------------------------------------------------------------|
G|5~------5h7-5\4-5~------4h5-4h5-4~--------------5-5~----5-5~----|
D|----------------------------------------------------------------|
A|----------------------------------------------------------------|
E|----------------------------------------------------------------|
Part 4 - Distorted Electric - Guitar 1
  * * * * * * * * * *
e|------------------------------------------------|
B|------------------------------------------------|
G|------------------------------------------------|
D|--------------------5-6-------------------------|
A|------0-2-3-5-7-8-8-----7~----------------------|
E|0-1-4-------------------------------------------|
Part 5 - Distorted Electric - Guitar 1
e|------0-----------0-----------0-----------0-----|
B|---1-----1-----1-----1-----0-----0-----0-----0--|
G|2-----------2-----------0-----------0-----------|
D|------------------------------------------------|
A|------------------------------------------------|
E|------------------------------------------------|

e|------2-----------2-----------0-----------0-----|
B|---3-----3-----3-----3-----1-----1-----1-----1--|
G|0-----------0-----------2-----------2-----------|
D|------------------------------------------------|
A|------------------------------------------------|
E|------------------------------------------------|
Lead 3 - Distorted Electric - Guitar 2
e|------------------------------------------------|
B|------------------------------------------------|
G|7----/9-----------------------------------------|
D|--------7-----7--/9-----5-----------------------|
A|5----/7-----------------------------------------|
E|--------5-----5--/7-----3-----------------------|

e|------------------------------------------------|
B|------------------------------------------------|
G|7----/9-----------------------------------------|
D|--------7-----7--/9-----7-----------------------|
A|5----/7-----------------------------------------|
E|--------5-----5--/7-----5-----------------------|

e|------------------------------------------------|
B|------------------------------------------------|
G|7----/9-----------------------------------------|
D|--------7-----7--/9-----5-----------------------|
A|5----/7-----------------------------------------|
E|--------5-----5--/7-----3-----------------------|

e|------------------------------------------------|
B|------------------------------------------------|
G|7----/9-----------------------------------------|
D|--------7-----7--/9-----7-----------------------|
A|5----/7-----------------------------------------|
E|--------5-----5--/7-----5-----------------------|

e|------------------------------------------------|
B|------------------------------------------------|
G|------------------------------------------------|
D|7-----------------------------------------------|
A|------------------------------------------------|
E|5-----------------------------------------------|
Part 6 - Distorted Electric - Guitar 1
  * * * * * * * * * *                       * * * * * *
e|------------------------------------------------------------------|
B|------------------------------------------------------------------|
G|------------------------------------------------------------------|
D|--------------------5-6-------------------------------5-----------|
A|------0-2-3-5-7-8-8-----7~----------------------0-2-3-5-----------|
E|0-1-4-------------------------------------0-1-4-------3-----------|
  * * * * * *       * * *       * * *       * * * * * * * * * *
e|------------------------------------------------------------------|
B|------------------------------------------------------------------|
G|------------2-----------5-----------4-----------------------------|
D|------------2-----------5-----------4-------------------------5-7-|
A|------0-2-3-0-----------3-----------2-----------0-2-3-5-7-8-8-----|
E|0-1-4-------------0-1-4-------0-1-4-------0-1-4-------------------|
Part 7 - Distorted Electric - Guitar 1
e|----------------------------------------------------------------|
B|----------------------------------------------------------------|
G|----------------------------------------------------------------|
D|10------\-------2---------------9-------\-------2---------------|
A|10------\-------2---------------9-------\-------2---------------|
E|8-------\-------0---------------7-------\-------0---------------|

e|----------------------------------------------------------------|
B|----------------------------------------------------------------|
G|----------------------------------------------------------------|
D|10------\-------2---------------9-------\-------2---------------|
A|10------\-------2---------------9-------\-------2---------------|
E|8-------\-------0---------------7-------\-------0---------------|
Part 8 - Distorted Electric - Guitar 1
e|play-this-part|-------------------------------------------------|
B|on-the-first--|-------------------------------------------------|
G|time only-----|-------------------------------------------------|
D|--------------|-------------------------------------------------|
A|7----7--------|-10----7---10----7----7----------10----7---10----|
E|0----0--------|-0-----0---0-----0----0----------0-----0---0-----|
                                            *    *    *    *    *
e|----------------------------------------------------------------|
B|----------------------------------------------------------------|
G|----------------------------------------------------------------|
D|----------------------------------------------------------------|
A|7----7----------10----7---10----9----8--------------------------|
E|0----0----------0-----0---0-----7----6----0----0----0----0----0-|
  * * * * *   *
e|--------------|
B|--------------|
G|--------------|
D|--------------|
A|--------------|
E|3-3-3-2-0---0-|
Part 9 - Distorted Electric - Guitar 1
e|----------------------------------------------------------------|
B|----------------------------------------------------------------|
G|----------------------------------------------------------------|
D|----------------------------------------------------------------|
A|4----4----------7-----4---7-----4----4----------7-----4---7-----|
E|2----2----------5-----2---5-----2----2----------5-----2---5-----|

e|----------------------------------------------------------------|
B|----------------------------------------------------------------|
G|----------------------------------------------------------------|
D|----------------------------------------------------------------|
A|4----4----------7-----4---7-----7-------9-------6-------9-------|
E|2----2----------5-----2---5-----5-------7-------4-------7-------|

e|----------------------------------------------------------------|
B|----------------------------------------------------------------|
G|----------------------------------------------------------------|
D|----------------------------------------------------------------|
A|9-------11------7-------11------12------9-------12--12----12-\--|
E|7-------9-------5-------9-------10------7-------10--10----10-\--|
                                   * * * * * * * * *
e|----------------------------------------------------------------|
B|----------------------------------------------------------------|
G|----------------------------------------------------------------|
D|-----------------------------------------------5-6--------------|
A|12--12----12-\-------------------0-2-3-5-7-8-8-----7~-----------|
E|10--10----10-\-------------0-1-4--------------------------------|
Part 10 - Distorted Electric - Guitar 1
  * * * * * * * * * * * *         * * * * * * * * * * * *
e|----------------------------------------------------------------|
B|----------------------------------------------------------------|
G|----------------------------------------------------------------|
D|----------------------------------------------------------------|
A|----------------------------------------------------------------|
E|0-0-0-0-0-0-0-0-0-0-0-0-0-0-----0-0-0-0-0-0-0-0-0-0-0-0-0-0-----|
  * * * * * *         * * * * * *         * * * * * *     * *
e|----------------------------------------------------------------|
B|----------------------------------------------------------------|
G|----------------------------------------------------------------|
D|----------------------------------------------------------------|
A|------------------------------------------------------------6~--|
E|0-0-0-0-0-0-1-0-----0-0-0-0-0-0-1-0-----0-0-0-0-0-0-1-0-0-0-----|
  * * * * * * * * * * * *         * * * * * * * * * * * *
e|----------------------------------------------------------------|
B|----------------------------------------------------------------|
G|----------------------------------------------------------------|
D|----------------------------------------------------------------|
A|----------------------------------------------------------------|
E|0-0-0-0-0-0-0-0-0-0-0-0-0-0-----0-0-0-0-0-0-0-0-0-0-0-0-0-0-----|
  * * * * * *         * * * * * *         * * * * * *     * *
e|----------------------------------------------------------------|
B|----------------------------------------------------------------|
G|----------------------------------------------------------------|
D|----------------------------------------------------------------|
A|------------------------------------------------------------6~--|
E|0-0-0-0-0-0-1-0-----0-0-0-0-0-0-1-0-----0-0-0-0-0-0-1-0-0-0-----|
  * * * * * * * * * * * *         * * * * * * * * * * * *
e|----------------------------------------------------------------|
B|----------------------------------------------------------------|
G|----------------------------------------------------------------|
D|----------------------------------------------------------------|
A|----------------------------------------------------------------|
E|0-0-0-0-0-0-0-0-0-0-0-0-0-0-----0-0-0-0-0-0-0-0-0-0-0-0-0-0-----|
Part 11 - Distorted Electric - Guitar 1
e|----------------------------------------------------------------|
B|----------------------------------------------------------------|
G|9---9-9-9p7-------7--7-7-7p4-----4---4-4-4p2-----2p0------------|
D|--------------9--------------7---------------5-------2---5p2----|
A|-------------------------------------------------------------5--|
E|----------------------------------------------------------------|

e|----------------------------------------------------------------|
B|----------------------------------------------------------------|
G|9---9-9-9p7-------7--7-7-7p4-----4---4-4-4p2-----7b9-7---4h7-7--|
D|--------------9--------------7---------------5------------------|
A|----------------------------------------------------------------|
E|----------------------------------------------------------------|

e|--------------------------------------------------------------------------|
B|12---12-12-12p10--------10---10-10-10p8--------8---8-8-8p7-----7p5----5p3-|
G|-------------------12---------------------11-----------------9-----7-5----|
D|--------------------------------------------------------------------------|
A|--------------------------------------------------------------------------|
E|--------------------------------------------------------------------------|

e|--------------------------------------------------------------------------|
B|12---12-12-12p10--------10---10-10-10p8-------8-8-8-8p7----5h7p5----3h5p3-|
G|-------------------12---------------------11-------------9------7--5------|
D|--------------------------------------------------------------------------|
A|--------------------------------------------------------------------------|
E|--------------------------------------------------------------------------|

e|--------------------------------7-7-0-|
B|1h3p1-----0h1p0-----0---5-5-0---------|
G|------4---------2---------------------|
D|--------------------------------------|
A|--------------------------------------|
E|--------------------------------------|
Lead 4 - Distorted Electric - Guitar 2
e|----------------------------------------------------------------|
B|----------------------------------------------------------------|
G|9---9-9-9p7-------7--7-7-7p4-----4---4-4-4p2-----2p0------------|
D|--------------9--------------7---------------5-------2---5p2----|
A|-------------------------------------------------------------5--|
E|----------------------------------------------------------------|

e|----------------------------------------------------------------|
B|----------------------------------------------------------------|
G|9---9-9-9p7-------7--7-7-7p4-----4---4-4-4p2-----7b9-7---4h7-7--|
D|--------------9--------------7---------------5------------------|
A|----------------------------------------------------------------|
E|----------------------------------------------------------------|

e|----------------------------------------------------------------|
B|----------------------------------------------------------------|
G|9---9-9-9p7-------7--7-7-7p4-----4---4-4-4p2-----2p0------------|
D|--------------9--------------7---------------5-------2---5p2----|
A|-------------------------------------------------------------5--|
E|----------------------------------------------------------------|

e|19---19-19-19p17--------17---17-17-17p15--------15---15-15p14----12h14p12-|
B|-------------------20----------------------19-----------------17----------|
G|--------------------------------------------------------------------------|
D|--------------------------------------------------------------------------|
A|--------------------------------------------------------------------------|
E|--------------------------------------------------------------------------|

e|-----10h12p10------8h10p8-------7h8p7--------------------7-7-0-|
B|15------------11-----------12-----------10---0---5-5-0---------|
G|---------------------------------------------------------------|
D|---------------------------------------------------------------|
A|---------------------------------------------------------------|
E|---------------------------------------------------------------|
Part 12 - Distorted Electric - Guitar 1
e|------------------------------------------------|
B|------------------------------------------------|
G|------------------------------------------------|
D|------------------------------------------------|
A|------------------------------------------------|
E|0h5h8-0h5h8-0h5h8-0h5h8-0h5h8-0h5h8-0h5h8-0h5h8-|

e|------------------------------------------------|
B|------------------------------------------------|
G|------------------------------------------------|
D|------------------------------------------------|
A|------------------------------------------------|
E|0h5h7-0h5h7-0h5h7-0h5h7-0h4h7-0h4h7-0-----------|
Lead 5 - Distorted Electric - Guitar 2
e|0h5h8-0h5h8-0h5h8-0h5h8-0h5h8-0h5h8-0h5h8-0h5h8-|
B|------------------------------------------------|
G|------------------------------------------------|
D|------------------------------------------------|
A|------------------------------------------------|
E|------------------------------------------------|

e|0h5h7-0h5h7-0h5h7-0h5h7-0h4h7-0h4h7-0-----------|
B|------------------------------------------------|
G|------------------------------------------------|
D|------------------------------------------------|
A|------------------------------------------------|
E|------------------------------------------------|
Part 13 - Distorted Electric - Guitar 1
e|--------------------------------------------------------7-7-0-0-|
B|----------------------------------------------0-5-5-0-0---------|
G|----------------------------------------------------------------|
D|10------\-------2---------------9-------------------------------|
A|10------\-------2---------------9-------------------------------|
E|8-------\-------0---------------7-------------------------------|

e|--------------------------------------------------------7-7-0-0-|
B|----------------------------------------------0-5-5-0-0---------|
G|----------------------------------------------------------------|
D|10------\-------2---------------9-------------------------------|
A|10------\-------2---------------9-------------------------------|
E|8-------\-------0---------------7-------------------------------|

e|----------------------------------------------------------------|
B|----------------------------------------------------------------|
G|----------------------------------------------------------------|
D|2---------------------------------------------------------------|
A|2---------------------------------------------------------------|
E|0---------------------------------------------------------------|
Lead 6 - Distorted Electric - Guitar 2
e|----------7-7-0-0|
B|0-5-5-0-0--------|
G|-----------------|
D|-----------------|
A|-----------------|
E|-----------------|
Part 14 - Distorted Electric - Guitar 1
e|---------------------------------------------------------------|
B|---------------------------------------------------------------|
G|---------------------------------------------------------------|
D|-------------------------------------------12------------------|
A|9---7---5---2---9---7---5---2---7---9--12--10-/14--12-/9---7---|
E|7---5---3---0---7---5---3---0---5---7--10-----/12--10-/7---5---|

e|---------------------------------------------------------------|
B|---------------------------------------------------------------|
G|---------------------------------------------------------------|
D|-------------------------------------------12------------------|
A|9---7---5---2---9---7---5---2---7---9--12--10--2---5---9---5---|
E|7---5---3---0---7---5---3---0---5---7--10------0---3---7---3---|
Lead 7 - Distorted Electric - Guitar 2
(Note: Lead 7 requires a 24 fret guitar.)


e|--------------------------------------------------------------------------|
B|--------------------------------------------------------------------------|
G|4b-4b-4b-4b-4b-4b-4b-4b-4b-4b-4b-4b-4b-4b-4b-4b-4b-4r--2---4r--2---4r--2--|
D|--------------------------------------------------------------------------|
A|--------------------------------------------------------------------------|
E|--------------------------------------------------------------------------|

e|--------------------------------------------------------------------------|
B|--------------------------------------------------------------------------|
G|----------------7-----------------7----------------7---7-9-9b11r9-7-9-7---|
D|4~----------7-9---9~----------7-9---9~---------7-9---9------------------9-|
A|--------------------------------------------------------------------------|
E|--------------------------------------------------------------------------|

e|--------------------------------14-17p15p14------------17p15p14------------|
B|-----7---8---10--12~------/17---------------17p15p14------------17p15p14---|
G|-7-9-----------------------------------------------------------------------|
D|---------------------------------------------------------------------------|
A|---------------------------------------------------------------------------|
E|---------------------------------------------------------------------------|

e|17p15p14------------17p15p14---------------------------------------------|
B|---------17p15p14------------17p15p14-----17p15p14------------17p15p14---|
G|---------------------------------------------------16p14p13--------------|
D|-------------------------------------------------------------------------|
A|-------------------------------------------------------------------------|
E|-------------------------------------------------------------------------|

e|------------------------------------------------------------------------|
B|-----------15-14-12-14-12-----------------------------------------------|
G|16p14p13------------------14p13p12---14---16r14---12~-------12~----12---|
D|---------------------------------------------------------14-------------|
A|------------------------------------------------------------------------|
E|------------------------------------------------------------------------|

e|---------------------------------------------------------------------|
B|---------------------------------------------------------------------|
G|------11--------10--------9---------8---------7---------6------------|
D|13---------12--------11--------10--------9---------8---------7\------|
A|---------------------------------------------------------------------|
E|---------------------------------------------------------------------|

e|-----------------------------------------------8-----8--10~----5----6----|
B|-------------------------8-----8--10~----10-10----10-----------8b10-9b11-|
G|----7-----7--9~----9--9-----9--------------------------------------------|
D|/9-----9-----------------------------------------------------------------|
A|-------------------------------------------------------------------------|
E|-------------------------------------------------------------------------|

e|14----------14----------14----------14----------|
B|---12-10-12----12-10-12----12-10-12----12-10-12-|
G|------------------------------------------------|
D|------------------------------------------------|
A|------------------------------------------------|
E|------------------------------------------------|

e|15----------15----------15----------15----------|
B|---13-12-13----13-12-13----13-12-13----13-12-13-|
G|------------------------------------------------|
D|------------------------------------------------|
A|------------------------------------------------|
E|------------------------------------------------|

e|17----------17----------17----------17----------|
B|---15-13-15----15-13-15----15-13-15----15-13-15-|
G|------------------------------------------------|
D|------------------------------------------------|
A|------------------------------------------------|
E|------------------------------------------------|

e|19----------17----------19----------17----------|
B|---17-15-17----17-15-17----17-15-17----17-15\---|
G|------------------------------------------------|
D|------------------------------------------------|
A|------------------------------------------------|
E|------------------------------------------------|

e|14----------14----------14----------14----------|
B|---12-10-12----12-10-12----12-10-12----12-10-12-|
G|------------------------------------------------|
D|------------------------------------------------|
A|------------------------------------------------|
E|------------------------------------------------|

e|15----------15----------15----------15----------|
B|---13-12-13----13-12-13----13-12-13----13-12-13-|
G|------------------------------------------------|
D|------------------------------------------------|
A|------------------------------------------------|
E|------------------------------------------------|

e|17----------17----------17----------17----------|
B|---15-13-15----15-13-15----15-13-15----15-13-15-|
G|------------------------------------------------|
D|------------------------------------------------|
A|------------------------------------------------|
E|------------------------------------------------|

e|19----------17----------19----------17----------|
B|---17-15-17----17-15-17----17-15-17----17-15-17-|
G|------------------------------------------------|
D|------------------------------------------------|
A|------------------------------------------------|
E|------------------------------------------------|

e|24p23p22-23p22p21-22p21p20-21p20p19-20p19p18-19p18p17-18p17p16-17p16p15-|
B|------------------------------------------------------------------------|
G|------------------------------------------------------------------------|
D|------------------------------------------------------------------------|
A|------------------------------------------------------------------------|
E|------------------------------------------------------------------------|

e|16p15p14-15p14p13-14p13p12-13p12p11-12p11p10-11p10p9-10p9p8-9p8p7-------|
B|------------------------------------------------------------------7-----|
G|---------------------------------------------------------------------9--|
D|------------------------------------------------------------------------|
A|------------------------------------------------------------------------|
E|------------------------------------------------------------------------|

e|------|
B|------|
G|7\----|
D|------|
A|------|
E|------|

e|----------------------------------------------------15---17---19---20---|
B|----------10b12----------12-15b17---------15---17-----------------------|
G|----7--7--------------12------------/16---------------------------------|
D|/9----------------/14---------------------------------------------------|
A|------------------------------------------------------------------------|
E|------------------------------------------------------------------------|

e|22b24\-|
B|-------|
G|-------|
D|-------|
A|-------|
E|-------|
Part 15 - Distorted Electric - Guitar 1
  * * * * * * * * * * * * * * * * * * * * * * * * * * * * * * * *
e|----------------------------------------------------------------|
B|----------------------------------------------------------------|
G|----------------------------------------------------------------|
D|----------------------------------------------------------------|
A|2-2-2-2-2-2-2-2-2-2-2-2-2-2-2-2-2-2-2-2-2-2-2-2-2-2-2-2-2-2-2-2-|
E|----------------------------------------------------------------|
  * * * * * * * * * * * * * * * * * * * * * * * * * * * * * * * *
e|----------------------------------------------------------------|
B|----------------------------------------------------------------|
G|----------------------------------------------------------------|
D|----------------------------------------------------------------|
A|2-2-2-2-2-2-2-2-2-2-2-2-2-2-2-2-2-2-2-2-2-2-2-2-2-2-2-2-2-2-2-2-|
E|----------------------------------------------------------------|
  * * * * * * * * * * * * * * * * * * * * * * * * * * * * * * * *
e|----------------------------------------------------------------|
B|----------------------------------------------------------------|
G|----------------------------------------------------------------|
D|----------------------------------------------------------------|
A|----------------------------------------------------------------|
E|0-0-0-0-0-0-0-0-0-0-0-0-0-0-0-0-0-0-0-0-0-0-0-0-0-0-0-0-0-0-0-0-|
  * * * * * * * * * * * * * * * * * * * * * * * * * * * * * * * *
e|----------------------------------------------------------------|
B|----------------------------------------------------------------|
G|----------------------------------------------------------------|
D|----------------------------------------------------------------|
A|----------------------------------------------------------------|
E|0-0-0-0-0-0-0-0-0-0-0-0-0-0-0-0-0-0-0-0-0-0-0-0-0-0-0-0-0-0-0-0-|
  * * * * * * * * * * * * * * * * * * * * * * * * * * * * * * * *
e|----------------------------------------------------------------|
B|----------------------------------------------------------------|
G|----------------------------------------------------------------|
D|----------------------------------------------------------------|
A|0-0-0-0-0-0-0-0-0-0-0-0-0-0-0-0-0-0-0-0-0-0-0-0-1-1-1-1-2-2-2-2-|
E|----------------------------------------------------------------|
  * * * * * * * * * * * * * * * * * * * * * * * * * * * * * * * *
e|----------------------------------------------------------------|
B|----------------------------------------------------------------|
G|----------------------------------------------------------------|
D|----------------------------------------------------------------|
A|2-2-2-2-2-2-2-2-2-2-2-2-2-2-2-2---------------------------------|
E|--------------------------------3-3-3-3-3-3-3-3-3-3-3-3-3-3-3-3-|
  * * * * * * * * * * * * * * * * * * * * * * * * * * * * * * * *
e|----------------------------------------------------------------|
B|----------------------------------------------------------------|
G|----------------------------------------------------------------|
D|----------------------------------------------------------------|
A|0-0-0-0-0-0-0-0-0-0-0-0-0-0-0-0---------------------------------|
E|--------------------------------2-2-2-2-2-2-2-2-2-2-2-2-2-2-2-2-|
  * * * * * * * * * * * * * * * * * * * * * * * * * * * * * * * *
e|----------------------------------------------------------------|
B|----------------------------------------------------------------|
G|----------------------------------------------------------------|
D|----------------------------------------------------------------|
A|2-2-2-2-2-2-2-2-2-2-2-2-2-2-2-2---------------------------------|
E|--------------------------------3-3-3-3-3-3-3-3-3-3-3-3-3-3-3-3-|
  * * * * * * * * * * * * * * * * * * * * * * * * * * * * * * * *
e|----------------------------------------------------------------|
B|----------------------------------------------------------------|
G|----------------------------------------------------------------|
D|----------------------------------------------------------------|
A|0-0-0-0-0-0-0-0-0-0-0-0-0-0-0-0---------------------------------|
E|--------------------------------2-2-2-2-2-2-2-2-2-2-2-2-2-2-2-2-|
  * * * * * * * * * * * * * * * * * * * * * * * * * * * * * * * *
e|----------------------------------------------------------------|
B|----------------------------------------------------------------|
G|----------------------------------------------------------------|
D|----------------------------------------------------------------|
A|----------------------------------------------------------------|
E|0-0-0-0-0-0-0-0-0-0-0-0-0-0-0-0-0-0-0-0-0-0-0-0-0-0-0-0-0-0-0-0-|
  * * * * * * * * * * * * * * * * * * * * * * * * * * * * * * * *
e|----------------------------------------------------------------|
B|----------------------------------------------------------------|
G|----------------------------------------------------------------|
D|----------------------------------------------------------------|
A|----------------------------------------------------------------|
E|0-0-0-0-0-0-0-0-0-0-0-0-0-0-0-0-0-0-0-0-0-0-0-0-0-0-0-0-0-0-0-0-|
Part 16 - Distorted Electric - Guitar 1
e|----------------------------------------------------------------|
B|----------------------------------------------------------------|
G|----------------------------------------------------------------|
D|10------\-------2---------------9-------\-------2---------------|
A|10------\-------2---------------9-------\-------2---------------|
E|8-------\-------0---------------7-------\-------0---------------|
                                                  * * * * * * * *
e|----------------------------------------------------------------|
B|----------------------------------------------------------------|
G|----------------------------------------------------------------|
D|10------\-------2---------------9-------\-----------------------|
A|10------\-------2---------------9-------\-----------------------|
E|8-------\-------0---------------7-------\-------3-2-1-0-3-2-1-0-|
* * * * * * *
e|----------------------------------------------------------------|
B|----------------------------------------------------------------|
G|----------------------------------------------------------------|
D|10------\-------2---------------9-------\-----------------------|
A|10------\-------2---------------9-------\-----------------------|
E|8-------\-------0---------------7-------\-------3-2-1-0-3-2-1-0-|
Part 17 - Distorted Electric - Guitar 1
e|----------------------------------------------------------------|
B|----------------------------------------------------------------|
G|----------------------------------------------------------------|
D|--------10--9---------------------------10--9-------------------|
A|10--9---8---7---5---4---2-------10--9---8---7---5---4---2-------|
E|8---7-----------3---2---0-------8---7-----------3---2---0-------|
                      * * * * * *                     * * * * * *
e|----------------------------------------------------------------|
B|----------------------------------------------------------------|
G|----------------------------------------------------------------|
D|7-------------------------------7-------------------------------|
A|5---------4---------5-4-3-5-4-3-5---------4---------5-4-3-5-4-3-|
E|----------2---------5-4-3-5-4-3-----------2---------5-4-3-5-4-3-|

e|--------------------------------|
B|--------------------------------|
G|--------------------------------|
D|--------10--9-------------------|
A|10--9---8---7---5---4---2-------|
E|8---7-----------3---2---0-------|
Part 18 - Distorted Electric - Guitar 1
e|------------------------------------------------|
B|------------------------------------------------|
G|------------------------------------------------|
D|------------------------------------------------|
A|------------------------------------------------|
E|0h5h8-0h5h8-0h5h8-0h5h8-0h5h8-0h5h8-0h5h8-0h5h8-|

e|------------------------------------------------|
B|------------------------------------------------|
G|------------------------------------------------|
D|------------------------------------------------|
A|---------------------------8--8--8--8--8--7-----|
E|0h4h7-0h4h7-0h4h7-0h4h7----8--8--8--8--8--7-----|
Lead 8 - Distorted Electric - Guitar 2
e|0h5h8-0h5h8-0h5h8-0h5h8-0h5h8-0h5h8-0h5h8-0h5h8-|
B|------------------------------------------------|
G|------------------------------------------------|
D|------------------------------------------------|
A|------------------------------------------------|
E|------------------------------------------------|

e|0h4h7-0h4h7-0h4h7-0h4h7-------------------------|
B|------------------------------------------------|
G|------------------------------------------------|
D|------------------------------------------------|
A|---------------------------8--8--8--8--8--7-----|
E|---------------------------8--8--8--8--8--7-----|
All nightmare long
Intro
clean
e|------------------------------|
b|------------------------------|
g|------------------------------|x4
d|----0--5-6-5-----0-5-------5--|
a|-----------------------------6|
D|-0------------0------3--0-----|
distorted
|--------------|
|--------------|
|--------------|x2 
|--------------|
|-0----6-5--0-0|
|-0----6-5--0-0|
            + +
|---------------------------------------------------------------|
|---------------------------------------------------------------|
|---------------------------------------------------------------|
|---------------------------------------------------------------|
|-0----6-5--0-0-0-------0----6-5--0-0--0---0-0--0---6-5--0---6-5|
|-0----6-5--0-0-0-------0----6-5--0-0--0---0-0--0---6-5--0---6-5|
            + + +                 + +  
|--------------------------------------|
|--------------------------------------|
|--------------------------------------|
|--------------------------------------|
|--------------------------------------|
|000000000000000000000000002^2^3^3^4^4^|
 ++++++++++++++++++++++++++            
|-------------------------------|
|-------------------------------|
|-------------------------------|
|-------------------------------|x4
|-------------------------------|
|-000-0-0-0-0-0-0-0-0-0-0-0-0-0-|
  +++ + + + + + + + + + + + + +
Post-Chorus
|----------------------------|    |--------------------|
|----------------------------|    |--------------------|
|----------------------------|x7  |--------------------|
|----------------------------|    |--------------------|
|-----------1-1---1-1--------|    |-----------1-1---1-1|
|-000-0-0-0-1-1-0-1-1-222-333|    |-000-0-0-0-1-1-0-1-1|
  +++ + + +     +     +++ +++       +++ + + +     + 
|--------------------|
|--------------------|
|--------------------|
|--------------------|
|--2h0--3h0--2h0--3h0|
|--2h0--3h0--2h0--3h0|

Pre-Chorus+Pre-verse part 1
|------------------------------------------------------------|
|------------------------------------------------------------|
|------------------------------------------------------------|x2 1st time
|---------------------------------------------7-7-7-5-5-/1010|x1 2nd time
|-0--0-3-000000--0--0-3-000000--0--0-3-000000-5-5-5-3-3-/8-8-|
|-0--0-3-000000--0--0-3-000000--0--0-3-000000----------------|
         ++++++         ++++++         ++++++
Pre-chorus+Pre-verse part 2     play only on 1st time 
|----------------------------|-------------------|
|----------------------------|-------------------|
|----------------------------|-------------------|
|-2---3---5--6--7-777-777-777|-771010101010101010|
|-0---1---3--4--5-555-555-555|-558-8-8-8-8-8-8-8-|
|----------------------------|-------------------|
                + +++ +++ +++  +++
Verse
|-----------------------------------------------------------|
|-----------------------------------------------------------|
|-----------------------------------------------------------|
|-----------------------------------------------------------|
|-10tr-8tr-7tr-5tr-2tr-----------------2--------------------|
|----------------------3333-2tr--2-3-5---5-3-3h5p3\2tr------|
                                 + + +   + + +     +
|-------------------------------------------------------------|
|-------------------------------------------------------------|
|-------------------------------------------------------------|
|---------------------4---------5---------4---------5---------|
|-------2-------------2let ring-3let ring-2let ring-3let ring-|
|-2-3-5---5-3-3h5p3\2-----------------------------------------|
  + + +   + + +
|-------------------------------------------------------------------------|
|-------------------------------------------------------------------------|
|-------------------------------------------------------------------------|
|-4--------4--------4--------4--------44-------444------444------444------|
|-2--2--3--2--2--3--2--2--3--2--2--3--222222333222222333222222333222222333|
|----2--3-----2--3-----2--3-----2--3-----222333---222333---222333---222333|
                                      ++++++++++++++++++++++++++++++++++++
Chorus
|----------------------------------------------------------------|
|----------------------------------------------------------------|
|----------------------------------------------------------------|x4
|------1010-9-9\7------1010-9-9\7------1010-9-9\7----------------|
|-0-0--8-8--7-7\5-0-0--8-8--7-7\5-0-0--8-8--7-7\5-5-5-5-3-3-3-3\2|
|-0-0-------------0-0-------------0-0-------------5-5-5-3-3-3-3\2|

|-------|
|-------|
|-------|
|-1-1-1-|
|-1-1-1-|
|-1-1-1-|
Interlude 1                                repeat section x8
|-------------------------------------|------------------------------|
|-------------------------------------|------------------------------|
|-------------------------------------|------------------------------|
|-------------------------------------|---0-8-7--0-7-3--0-3-2--0-2-0-|
|-2h0003h0002h0003h000-0----2h0003h000|------------------------------|
|-2h0003h0002h0003h000-0----2h0003h000|-0----------------------------|
  ++++++++++++++++++++      ++++++++++    
Solo 1-don't know it: any suggestions?
Interlude 2        Repeat x2
|------------------------------|                                 
|------------------------------|                                 
|------------------------------|
|-7-8-7-----7-8-7--------------|
|-------8---------8-5----------|
|-0-0-0-0-0-0-0-0-0-0-0-0-0-0-0|
          +           + + + + +
|----------------------------------------|
|----------------------------------------|
|----------------------------------------|repeat whole Interlude x2
|-7-8-7----7--7-8-7-7---7--7-7----7------|
|-------8----------------------8----8-8-5|
|-0-0-0-0--0--0-0-0-0---0--0-0-0--0-0-0-0|
Pre-solo
|---------------------------------------------------------------|
|---------------------------------------------------------------|
|---------------------------------------------------------------|
|---------------------------------------------------------------|
|---------------------------------------------------------------|
|-00000000000000000000000000000000222222222222222222222222222222| 
  ++++++++++++++++++++++++++++++++++++++++++++++++++++++++++++++    
Solo 2-don’t know it either; sorry
Bridge                          repeat this section x3
|---------------------|---------------------------------------|
|---------------------|---------------------------------------|
|---------------------|---------------------------------------|
|---------------------|-----------------------10-9--8--7--8--9|
|---------------------|-----------------------8--7--6--5--6--7|
|-00000000000000000000|0000000000000000000000-----------------|
  +++++++++++++++++++++++++++++++++++++++++++
                                  repeat this section x6 (don’t last note on 
|-----------------------------|------------------| sixth repeat
|-----------------------------|------------------|
|-----------------------------|------------------|
|-7--6--5--4--5---------------|-------------3-2-1|
|-5--4--3--2--3---------------|-------------3-2-1|
|---------------00000000000000|00000000000003-2-1| 
                ++++++++++++++++++++++++++++
Outro-first repeat clean part of intro with distortion and wah, then this
|----------------------------------------|
|----------------------------------------|
|----------------------------------------|x4
|----------------------------------------|
|-2h0-3h0-2h0-3h0-0-0-2h0-3h0-2h0-3h0-0-0|
|-2h0-3h0-2h0-3h0-0-0-2h0-3h0-2h0-3h0-0-0|

|--------------|
|--------------|
|--------------|
|-----------5--|x4
|-0--0-3------6|
|-0--0-3--0----|

|--------------------------|
|--------------------------|
|--------------------------|
|---0-5-6-5let-ring---0-5-0|
|-------------------------0|
|-0-----------------0-----0|
Cyanide
D#||------------------------------------------------------------------------|
A#||------------------------------------------------------------------------|
F#||*-----------------------------------------------------------------------|
C#||*------------------------------------------------------------3--------3-|
G#||---2---------------------------------------------2--2--------1--------1-|
D#||---0---------------------------------------------0--0--0--0-----0--0----|

-----------------------------------||----------------------------|
-----------------------------------||----------------------------|
----------------------------------*||----------------------------|
--3-------------------------------*||--3-------------------------|
--1----2--2--2---------------------||--1----2--2--2--------------|
-------0--0--0--0--0--0--0--0--0---||-------0--0--0--------------|

-------------------|-------------------|-------------------|----------------|
-------------------|-------------------|-------------------|----------------|
-------------------|-------------------|-------------------|----------------|
-------------------|-------------------|-------------------|----------------|
-------------------|-------------------|-------------------|----------------|
-------------------|-------------------|-------------------|----------------|
4x
|---------------------------|------------------------------||
|---------------------------|------------------------------||
|*--------------------------|-----------------------------*||
|*--9--9--9--8--8--8--7-----|-----------------------------*||
|---7--7--7--7--7--7--7--7--|--10--7-----5--7--------7-----||
|---0--0--0--0--0--0--0--0--|---0--0--0--0--0--0--0--0-----||
4x
------------------------------------------------------------------------------||
------------------------------------------------------------------------------||
*----------------------------------------------------------------------------*||
*----------------------------------------------------------------------------*||
----------------------------------------------------------7--5---------7--5---||
---0--------------------------------------------------L-0-------0--L-0--------||
4x
---------------------------|------------------------------||
---------------------------|------------------------------||
*--------------------------|-----------------------------*||
*--9--9--9--8--8--8--7-----|-----------------------------*||
---7--7--7--7--7--7--7--7--|--10--7-----5--7--------7-----||
---0--0--0--0--0--0--0--0--|---0--0--0--0--0--0--0--0-----||

------------------------------------||
------------------------------------||
*----------------------------------*||
*--5-5-5-5-5-5-5-5-5-5-5-5-5-5-5-5-*||
---7-7-7-7-7-7-7-7-7-7-7-7-7-7-7-7--||
------------------------------------||

---------------------------------------------------------------------------------|
---------------------------------------------------------------------------------|
--8--------------------------------------------------8-8-8-8-8-8-8-8-8-8-8-8-8-8-|
---------------------------------------------------------------------------------|
--9--------------------------------------------------9-9-9-9-9-9-9-9-9-9-9-9-9-9-|
---------------------------------------------------------------------------------|

--------------------------||------------------------------||
--------------------------||------------------------------||
--------------------------||*----------------------------*||
--------------7-----7-----||*----------------------------*||
--9-----9-----5-----5-----||----------7--5---------7--5---||
--7-----7-----------------||---0--L-0-------0--L-0--------||

------------------------------------||----------------------------------|
------------------------------------||----------------------------------|
*----------------------------------*||--8-8-8-8-8-8-8-8-8-8-8-8-8-8-8-8-|
*--5-5-5-5-5-5-5-5-5-5-5-5-5-5-5-5-*||----------------------------------|
---7-7-7-7-7-7-7-7-7-7-7-7-7-7-7-7--||--9-9-9-9-9-9-9-9-9-9-9-9-9-9-9-9-|
------------------------------------||----------------------------------|

-------------------------------|----------------------------|
-------------------------------|----------------------------|
--12-----12-----11-----11--L\--|----------------------------|
-------------------------------|----------------------------|
-------------------------------|---------7--5---------7--5--|
-------------------------------|--0--L-0-------0--L-0-------|

------------------------------------------------------------------|
------------------------------------------------------------------|
------------------------------------------------------------------|
--------------------------------------------------9-9-9-9-9-9-9-9-|
--------------------------------------------7--5--9-9-9-9-9-9-9-9-|
--0-------------------------------------L-0-----------------------|

------------------------------|--------------------------|
------------------------------|--------------------------|
------------------------------|--------------------------|
--8-8-8-8-8-8-8-8-------------|--------------------------|
--9-9-9-9-9-9-9-9-9--9--9--9--|--2-----------------------|
------------------0--0--0--0--|--0--0--0--0--0--0--0--0--|

--------------------------|----------------------------|
--------------------------|----------------------------|
--------------------------|----------------------------|
--------------------------|----------------------------|
--------------------1-----|--2-----------1--2--1br-----|
--0--0--0--0--0--0-----3--|--0--0--0--0-------------3--|

----------------------------|--------------|--------------------------------|
----------------------------|--------------|--------------------------------|
----------------------------|--------------|--------------------------------|
----------------------------|--------------|--------------------------------|
--2-----------1--2--4--4br--|--4--2--1-----|--2-----------------------1-----|
--0--0--0--0----------------|-----------3--|--0--0--0--0--0--0--0--0-----3--|

----------------------------|----------------------------|--------------|
----------------------------|----------------------------|--------------|
----------------------------|----------------------------|--------------|
----------------------------|----------------------------|--------------|
--2-----------1--2--1br-----|--2-----------1--2--4--4br--|--4--2--1-----|
--0--0--0--0-------------3--|--0--0--0--0----------------|-----------3--|

-----------------------------------|------------------------|
-----------------------------------|------------------------|
-----------------------------------|------------------------|
-----------------3--------3--------|--3---------------------|
--2--2--2--------1--------1--------|--1----2--2--2----------|
--0--0--0--0--0-----0--0-----0--0--|-------0--0--0----------|

-------------------||---------------------------|
-------------------||---------------------------|
-------------------||*--------------------------|
-------------------||*--9--9--9--8--8--8--7-----|
-------------------||---7--7--7--7--7--7--7--7--|
-------------------||---0--0--0--0--0--0--0--0--|
4x
------------------------------||------------------------------||
------------------------------||------------------------------||
-----------------------------*||*----------------------------*||
-----------------------------*||*----------------------------*||
--10--7-----5--7--------7-----||----------7--5---------7--5---||
---0--0--0--0--0--0--0--0-----||---0--L-0-------0--L-0--------||
4x
---------------------------|------------------------------||
---------------------------|------------------------------||
*--------------------------|-----------------------------*||
*--9--9--9--8--8--8--7-----|-----------------------------*||
---7--7--7--7--7--7--7--7--|--10--7-----5--7--------7-----||
---0--0--0--0--0--0--0--0--|---0--0--0--0--0--0--0--0-----||

------------------------------------||----------------------------------|
------------------------------------||----------------------------------|
*----------------------------------*||--8-8-8-8-8-8-8-8-8-8-8-8-8-8-8-8-|
*--5-5-5-5-5-5-5-5-5-5-5-5-5-5-5-5-*||----------------------------------|
---7-7-7-7-7-7-7-7-7-7-7-7-7-7-7-7--||--9-9-9-9-9-9-9-9-9-9-9-9-9-9-9-9-|
------------------------------------||----------------------------------|

--------------------------||------------------------------||
--------------------------||------------------------------||
--------------------------||*----------------------------*||
--------------7-----7-----||*----------------------------*||
--9-----9-----5-----5-----||----------7--5---------7--5---||
--7-----7-----------------||---0--L-0-------0--L-0--------||

------------------------------------||----------------------------------|
------------------------------------||----------------------------------|
*----------------------------------*||--8-8-8-8-8-8-8-8-8-8-8-8-8-8-8-8-|
*--5-5-5-5-5-5-5-5-5-5-5-5-5-5-5-5-*||----------------------------------|
---7-7-7-7-7-7-7-7-7-7-7-7-7-7-7-7--||--9-9-9-9-9-9-9-9-9-9-9-9-9-9-9-9-|
------------------------------------||----------------------------------|

-------------------------------|
-------------------------------|
--12-----12-----11-----11--L\--|
-------------------------------|
-------------------------------|
-------------------------------|

---------------------------------------------------------------------|
---------------------------------------------------------------------|
---------------------------------------------------------------------|
-----------------------------------------------------5---------------|
--------------------------------------------------7------------7--5--|
--0-------------------------------------------L-0-------0--L-0-------|

-------------------------------|----------------------------------|
-------------------------------|----------------------------------|
-------------------------------|----------------------------------|
---------------9-9-9-9-9-9-9-9-|--8-8-8-8-8-8-8-8-----------------|
---------7--5--9-9-9-9-9-9-9-9-|--9-9-9-9-9-9-9-9-10--10--10--10--|
--0--L-0-----------------------|-------------------0---0---0---0--|

--------------------------|--------------------------|
--------------------------|--------------------------|
--------------------------|--------------------------|
--------------------------|--------------------------|
--2-----------------------|--------------------1-----|
--0--0--0--0--0--0--0--0--|--0--0--0--0--0--0-----3--|

----------------------------|----------------------------|--------------|
----------------------------|----------------------------|--------------|
----------------------------|----------------------------|--------------|
----------------------------|----------------------------|--------------|
--2-----------1--2--1br-----|--2-----------1--2--4--4br--|--4--2--1-----|
--0--0--0--0-------------3--|--0--0--0--0----------------|-----------3--|

--------------------------------|----------------------------|
--------------------------------|----------------------------|
--------------------------------|----------------------------|
--------------------------------|----------------------------|
--2-----------------------1-----|--2-----------1--2--1br-----|
--0--0--0--0--0--0--0--0-----3--|--0--0--0--0-------------3--|

----------------------------|--------------|-----------------------------------|
----------------------------|--------------|-----------------------------------|
----------------------------|--------------|-----------------------------------|
----------------------------|--------------|-----------------3--------3--------|
--2-----------1--2--4--4br--|--4--2--1-----|--2--2--2--------1--------1--------|
--0--0--0--0----------------|-----------3--|--0--0--0--0--0-----0--0-----0--0--|

----------------------------------------------------------|
----------------------------------------------------------|
----------------------------------------------------------|
--3-------------------------------------------------------|
--1----2--2--2-----7------------------------------------7-|
-------0--0--0-----0------------------------------------0-|

------------------------------|-----------------------------|
------------------------------|-----------------------------|
------------------------------|-----------------------------|
------------------------------|-----------------------------|
--7br--L--5--7-----7-7-1-1-1--|-----5-5-5-5-5--5-----7----7-|
--0----0--0--0-----0-0-0-0-0--|-----0-0-0-0-0--0-----0----0-|

------------------------------|----------------|----------------------------|
------------------------------|----------------|----------------------------|
------------------------------|----------------|----------------------------|
------------------------------|----------------|----------------------------|
--7br--L--5--7-----7-7-1-1-1--|-----5-5-5-5-5--|--4--4--4--4--4-4-5--5-5-4--|
--0----0--0--0-----0-0-0-0-0--|-----0-0-0-0-0--|--2--2--2--2--2-2-3--3-3-2--|

-----------------|-------------------------------|------------------|
-----------------|-------------------------------|------------------|
-----------------|-------------------------------|--------6~--------|
-----------------|-------------------------4(5)--|--L--4------------|
--4~--------L----|--4--4--4--4--4-4-5--5-5-------|------------------|
-----------------|--2--2--2--2--2-2-3--3-3-------|------------------|

-------------------------------|-----------------|
-------------------------------|-----------------|
-------------------------------|-----------------|
-------------------------4(5)--|-----------------|
--4--4--4--4--4-4-5--5-5-------|--4~--------L----|
--2--2--2--2--2-2-3--3-3-------|-----------------|

-------------------------------|------------------|
-------------------------------|------------------|
-------------------------------|--------6~--------|
-------------------------4(5)--|--L--4------------|
--4--4--4--4--4-4-5--5-5-------|------------------|
--2--2--2--2--2-2-3--3-3-------|------------------|
    Clean                         Distorted
|-----------------------------||--------------------------------------|
|-----------------------------||--------------------------------------|
|*---------------------------*||--------------------------------------|
|*-----------4-------5----L--*||--------------------------------4(5)--|
|---------4-------------------||--4---------4--4--4--4-4-5--5-5-------|
|---2-----------0-------------||--2---------2--2--2--2-2-3--3-3-------|

-----------------|-------------------------------|------------------|
-----------------|-------------------------------|------------------|
-----------------|-------------------------------|--------6~--------|
-----------------|-------------------------4(5)--|--L--4------------|
--4~--------L----|--4--4--4--4--4-4-5--5-5-------|------------------|
-----------------|--2--2--2--2--2-2-3--3-3-------|------------------|

-------------------------------|-----------------|
-------------------------------|-----------------|
-------------------------------|-----------------|
-------------------------4(5)--|-----------------|
--4--4--4--4--4-4-5--5-5-------|--4~--------L----|
--2--2--2--2--2-2-3--3-3-------|-----------------|

-------------------------------|------------------|
-------------------------------|------------------|
-------------------------------|--------6~--------|
-------------------------4(5)--|--L--4------------|
--4--4--4--4--4-4-5--5-5-------|------------------|
--2--2--2--2--2-2-3--3-3-------|------------------|
    Clean
8x
|-----------------------------||
|-----------------------------||
|*---------------------------*||
|*-----------4-------5----L--*||
|---------4-------------------||
|---2-----------0-------------||

-------------------------------------------------|
-------------------------------------------------|
--11~--------------11~--11~--11~-----------------|
-------------------------------------9br----Lbr--|
-------------------------------------------------|
-------------------------------------------------|

-----------------------------------------------------------------|
-----------------------------------------------------------------|
-----------------------------------------------------------------|
--L-------------------------------------------------7------------|
-------------------------------------------------------9~--------|
-----------------------------------------------------------------|

-------------------------------------|------------------|
-------------------------------------|------------------|
--11~--11~--11~--11~-----9br----Lbr--|--L---------------|
-------------------------------------|-----7~-----------|
-------------------------------------|------------------|
-------------------------------------|------------------|

-------------------------------------------------|------------------|
-------------------------------------------------|------------------|
--11~--------------11~--11~--11~-----------------|------------------|
-------------------------------------9br----Lbr--|--L--7------------|
-------------------------------------------------|--------9~--------|
-------------------------------------------------|------------------|

-------------------------------------|------------------|
-------------------------------------|------------------|
--11~--11~--11~--11~-----9br----Lbr--|--L---------------|
-------------------------------------|-----7~-----------|
-------------------------------------|------------------|
-------------------------------------|------------------|

------------------------------------------------------------------------|
------------------------------------------------------------10--12----L-|
--11------------------------------------------11--11--11----------------|
------------------------------------------------------------------------|
------------------------------------------------------------------------|
------------------------------------------------------------------------|

---9-------9-------9------|------------------|
--12br----12br----12br----|--9b--------------|
--------------------------|----------11------|
--------------------------|------------------|
--------------------------|------------------|
--------------------------|------------------|

--14-15-17--15-14----15p-14----------------------------------|
------------------17--------17-15-14h-15p-14h-15-------------|
-----------------------------------------------------14--16--|
-------------------------------------------------16----------|
-------------------------------------------------------------|
-------------------------------------------------------------|

---------------------------------------------------------------------14-|
-------------------------------------------14-15-17p-15p-14----14-15----|
--16b------------------------------L------------------------16----------|
------------------------------------------------------------------------|
------------------------------------------------------------------------|
------------------------------------------------------------------------|

--15-14h-15p-14----14-18-19--18--15--14br----|
----------------17---------------------------|
---------------------------------------------|
---------------------------------------------|
---------------------------------------------|
---------------------------------------------|

-----------------------------------------------------12p-10----9h-10-9----9-----|
------------------------------------------------------------12---------12---12p-|
--------------------------------------------------------------------------------|
--------------------------------------------------------------------------------|
--------------------------------------------------------------------------------|
--------------------------------------------------------------------------------|

---------------------------------|--12b---9--12b--9--12b--Lpbr-9-11--12b--|
--12b--Lpbr--10------------------|----------------------------------------|
-----------------11~----L--------|----------------------------------------|
---------------------------------|----------------------------------------|
---------------------------------|----------------------------------------|
---------------------------------|----------------------------------------|

--L--9-12-12b-12pb-9-12-12b-12pb-9-12-12b--Lpbr-9-|
--------------------------------------------------|
--------------------------------------------------|
--------------------------------------------------|
--------------------------------------------------|
--------------------------------------------------|

--17b--Lpbr--17b---Lpbr--17b---Lpbr--17-------|
-----------------------------------------17b--|
----------------------------------------------|
----------------------------------------------|
----------------------------------------------|
----------------------------------------------|

-------------------------------------------------------------------|
--L--Lpbr-14-17b-Lpbr-17p-14-----14-17p-14-17b-17p-14----14-17p-14-|
-----------------------------16b----------------------16-----------|
-------------------------------------------------------------------|
-------------------------------------------------------------------|
-------------------------------------------------------------------|

--------------------------------------------------------------------------|
-----14-17p-14----14-17p-14----14-17p-14----14-17p-14----14-17p-14-16p-14-|
--16-----------16-----------16-----------16-----------16------------------|
--------------------------------------------------------------------------|
--------------------------------------------------------------------------|
--------------------------------------------------------------------------|

--------------------------------------------------------|
-----14----------------------------------14-17----14-17-|
--17----16-14-16-14----14-16-14----14-16-------16-------|
--------------------16----------16----------------------|
--------------------------------------------------------|
--------------------------------------------------------|

--------------------------------------------------------------------------------|
--14-------------------------------------------------17b----17p-14-17p-14-------|
--------------------------------------------------------------------------16b---|
--------------------------------------------------------------------------------|
--------------------------------------------------------------------------------|
--------------------------------------------------------------------------------|

----------------------------------|----------------------------------|
----------------------------------|----------------------------------|
----------------------------------|----------------------------------|
--4-4-4-4-4-4-4-4-7-7-6-6-4-4-4-4-|--4-4---------4-4-7-7-6-6-4-4-4-4-|
----------------------------------|------4-4-4-4---------------------|
----------------------------------|----------------------------------|

----------------------------------|----------------------------------|
----------------------------------|----------------------------------|
----------------------------------|----------------------------------|
--4-4-------------7-7-6-6-4-4-4-4-|--4-4-------------7-7-6-6-4-4-4-4-|
------5-5-5-5-4-4-----------------|------6-6-6-6-4-4-----------------|
----------------------------------|----------------------------------|

------------------------------------------|
------------------------------------------|
------------------------------------------|
--6p-4------7p-5------8p-6------9p-7------|
-------6p-4------7p-5------8p-6------9p-7-|
------------------------------------------|

------------------------------------------------------|
------------------------------------------------------|
------------------------------------------------------|
--10p-8-------11p-9-------12p-10--------13p-11--------|
--------10p-8-------11p-9--------12p-10--------13p-11-|
------------------------------------------------------|

------------------------------|-------13p-8-11p-8----8-13p-8-11p-8----8-|
------------------------------|-------------------11---------------11---|
------------------------------|-----------------------------------------|
------5------5------5------5--|-----------------------------------------|
------3------3------3------3--|-----------------------------------------|
--2-2----2-2----2-2----2-2----|-----------------------------------------|

--13p-8----8-13p-8-11p-8----8-13p-8-11p-8----8-|
--------11---------------11---------------11---|
-----------------------------------------------|
-----------------------------------------------|
-----------------------------------------------|
-----------------------------------------------|

--16p-11-14p-11----11-16p-11-14p-11----11-16p-11-14p-11-|
----------------14------------------14------------------|
--------------------------------------------------------|
--------------------------------------------------------|
--------------------------------------------------------|
--------------------------------------------------------|

----------------------------------17b----|----------------------------|
--17b--Lpbr--17b--Lpbr--17br--14---------|----------------------------|
-----------------------------------------|----------------------------|
-----------------------------------------|---------5--4---------9--7--|
-----------------------------------------|----------------------------|
-----------------------------------------|--0--L-0-------0--L-0-------|

------------------------------|----------------------------|
------------------------------|----------------------------|
---------9--7---------12--11--|----------------------------|
------------------------------|---------5--4---------9--7--|
------------------------------|----------------------------|
--0--L-0-------0--L-0---------|--0--L-0-------0--L-0-------|

--15--14--17--15--19--17--19--L\--|-------------------|-------------------|
----------------------------------|-------------------|-------------------|
----------------------------------|-------------------|-------------------|
----------------------------------|-------------------|-------------------|
----------------------------------|-------------------|-------------------|
----------------------------------|-------------------|-------------------|
4x
|---------------------------|------------------------------||
|---------------------------|------------------------------||
|*--------------------------|-----------------------------*||
|*--9--9--9--8--8--8--7-----|-----------------------------*||
|---7--7--7--7--7--7--7--7--|--10--7-----5--7--------7-----||
|---0--0--0--0--0--0--0--0--|---0--0--0--0--0--0--0--0-----||

------------------------------||------------------------------------||
------------------------------||------------------------------------||
*----------------------------*||*----------------------------------*||
*----------------------------*||*--5-5-5-5-5-5-5-5-5-5-5-5-5-5-5-5-*||
----------7--5---------7--5---||---7-7-7-7-7-7-7-7-7-7-7-7-7-7-7-7--||
---0--L-0-------0--L-0--------||------------------------------------||

----------------------------------|--------------------------|
----------------------------------|--------------------------|
--8-8-8-8-8-8-8-8-8-8-8-8-8-8-8-8-|--------------------------|
----------------------------------|--------------7-----7-----|
--9-9-9-9-9-9-9-9-9-9-9-9-9-9-9-9-|--9-----9-----5-----5-----|
----------------------------------|--7-----7-----------------|

|------------------------------||------------------------------------||
|------------------------------||------------------------------------||
|*----------------------------*||*----------------------------------*||
|*----------------------------*||*--5-5-5-5-5-5-5-5-5-5-5-5-5-5-5-5-*||
|----------7--5---------7--5---||---7-7-7-7-7-7-7-7-7-7-7-7-7-7-7-7--||
|---0--L-0-------0--L-0--------||------------------------------------||

----------------------------------|-------------------------------|
----------------------------------|-------------------------------|
--8-8-8-8-8-8-8-8-8-8-8-8-8-8-8-8-|--12-----12-----11-----11--L\--|
----------------------------------|-------------------------------|
--9-9-9-9-9-9-9-9-9-9-9-9-9-9-9-9-|-------------------------------|
----------------------------------|-------------------------------|

----------------------------|-------------------------------|
----------------------------|-------------------------------|
----------------------------|-------------------------------|
----------------------------|---------------9-9-9-9-9-9-9-9-|
---------7--5---------7--5--|---------7--5--9-9-9-9-9-9-9-9-|
--0--L-0-------0--L-0-------|--0--L-0-----------------------|

------------------------------|--------------------------|
------------------------------|--------------------------|
------------------------------|--------------------------|
--8-8-8-8-8-8-8-8-------------|--------------------------|
--9-9-9-9-9-9-9-9-9--9--9--9--|--2-----------------------|
------------------0--0--0--0--|--0--0--0--0--0--0--0--0--|

--------------------------|----------------------------|
--------------------------|----------------------------|
--------------------------|----------------------------|
--------------------------|----------------------------|
--------------------1-----|--2-----------1--2--1br-----|
--0--0--0--0--0--0-----3--|--0--0--0--0-------------3--|

----------------------------|--------------|--------------------------------|
----------------------------|--------------|--------------------------------|
----------------------------|--------------|--------------------------------|
----------------------------|--------------|--------------------------------|
--2-----------1--2--4--4br--|--4--2--1-----|--2-----------------------1-----|
--0--0--0--0----------------|-----------3--|--0--0--0--0--0--0--0--0-----3--|

----------------------------|----------------------------|--------------|
----------------------------|----------------------------|--------------|
----------------------------|----------------------------|--------------|
----------------------------|----------------------------|--------------|
--2-----------1--2--1br-----|--2-----------1--2--4--4br--|--4--2--1-----|
--0--0--0--0-------------3--|--0--0--0--0----------------|-----------3--|
4x
|------------------------------------|-----------------------------------||
|------------------------------------|-----------------------------------||
|*-----------------------------------|----------------------------------*||
|*-----------------3--------3--------|--3-------------------------------*||
|---2--2--2--------1--------1--------|--1----2--2--2---------------------||
|---0--0--0--0--0-----0--0-----0--0--|-------0--0--0--0--0--0--0--0--0---||

----------------------------||
----------------------------||
----------------------------||
--3-------------------------||
--1----2--2--2--------------||
-------0--0--0--------------||
comments
print report bad tab
3 comments total.
+1 reply
andrew10134 wrote on November 8 2009, 08:03 pm

please rate it will mean alot to me

+1 reply
kirk_hammet54 wrote on November 29 2009, 10:42 pm

i rated good tab

0 reply
andrew10134 wrote on March 13 2010, 10:37 pm

Thank you alot

I want to post or [tab]
guest
You may want to rate the tab now too:
select rating
Please do not post tabs as comments. Select "correction" instead!