Oops, an error
Loading. Please wait.

Disposable Heroes Drum Tab

ver1
ver1

Whole song

More versions @911Tabs.com
363 views 1 this week
no commentswrite comment
1 2 3 4 5
please rate
Autoscroll
+/-
esc
set tempo
stop
Contributor
Difficulty
intermediate
Hey! There's an official Ultimate Guitar app which is ideal
for learning songs when you're away from computer. Get the app
WARNING: You are trying to view
                                    content from Ultimate-Guitar.com
                                    in an unauthorized application,
                                    which is prohibited.

                                    Please use an official Ultimate
                                    Guitar Tabs application for iPhone,
                                    iPad or Android to access legitimate
                                    chords, guitar, bass, and drum tabs
                                    from Ultimate-Guitar.com database.

                                    Type "ultimate guitar tabs" in Apple
                                    App Store's or Android Market's
                                    search to find the application.
                               Disposable Heros                                 


Drums
      E   E   E   E   E   E   E.  X T X  E.  X T X  E.  X T X  
C||--36--36--36--36--36--36--36---L-----36---L-----36---L-----|
C||--------------------------38---L-----38---L-----38---L-----|
C||--------------------------42---L-----42---L-----42---L-----|
C||--------------------------49---L-----49---L-----49---L-----|
C||-----------------------------------------------------------|
C||-----------------------------------------------------------|


   E   E   E   E   E   E   E.  X T X  E.  X T X  E.  X T X  
--36--36--36--36--36--36--36---L-----36---L-----36---L-----|
--------------------------38---L-----38---L-----38---L-----|
--------------------------42---L-----42---L-----42---L-----|
--------------------------49---L-----49---L-----49---L-----|
-----------------------------------------------------------|
-----------------------------------------------------------|


   E   E   E   E   E   E   E.  X T X  E.  X T X  E.  X T X  
--36--36--36--36--36--36--36---L-----36---L-----36---L-----|
--------------------------38---L-----38---L-----38---L-----|
--------------------------42---L-----42---L-----42---L-----|
--------------------------49---L-----49---L-----49---L-----|
-----------------------------------------------------------|
-----------------------------------------------------------|


   E   E   E   E   E   E   E   E   E   Q    S X T X  
--36--36--36--36--36--36--36--36--36--36----L-L-----|
--------------------------------------38----L-L-----|
--------------------------------------42----L-L-----|
--------------------------------------49----L-L-----|
----------------------------------------------------|
----------------------------------------------------|


   E   E   E   E   E   E   E.  X T X  E.  X T X  E.  X T X  
--36--36--36--36--36--36--36---L-----36---L-----36---L-----|
--------------------------38---L-----38---L-----38---L-----|
--------------------------42---L-----42---L-----42---L-----|
--------------------------49---L-----49---L-----49---L-----|
-----------------------------------------------------------|
-----------------------------------------------------------|


   E   E   E   E   E   E   E.  X T X  E.  X T X  E.  X T X  
--36--36--36--36--36--36--36---L-----36---L-----36---L-----|
--------------------------38---L-----38---L-----38---L-----|
--------------------------42---L-----42---L-----42---L-----|
--------------------------49---L-----49---L-----49---L-----|
-----------------------------------------------------------|
-----------------------------------------------------------|


   E   E   E   E   E   E   E.  X T X  E.  X T X  E.  X T X  
--36--36--36--36--36--36--36---L-----36---L-----36---L-----|
--------------------------38---L-----38---L-----38---L-----|
--------------------------42---L-----42---L-----42---L-----|
--------------------------49---L-----49---L-----49---L-----|
-----------------------------------------------------------|
-----------------------------------------------------------|


   E   E   E   E   E   E   E   E   E   Q    S X T X  
--36--36--36--36--36--36--36--36--36--36----L-L-----|
--------------------------------------38----L-L-----|
--------------------------------------42----L-L-----|
--------------------------------------49----L-L-----|
----------------------------------------------------|
----------------------------------------------------|


   E   E   E   E   E   E   E.  X T X  E.  X T X  E.  X T X  
--36--36--36--36--36--36--36---L-----36---L-----36---L-----|
--------------------------38---L-----38---L-----38---L-----|
--------------------------42---L-----42---L-----42---L-----|
--------------------------49---L-----49---L-----49---L-----|
-----------------------------------------------------------|
-----------------------------------------------------------|


   E   E   E   E   E   E   E.  X T X  E.  X T X  E.  X T X  
--36--36--36--36--36--36--36---L-----36---L-----36---L-----|
--------------------------38---L-----38---L-----38---L-----|
--------------------------42---L-----42---L-----42---L-----|
--------------------------49---L-----49---L-----49---L-----|
-----------------------------------------------------------|
-----------------------------------------------------------|


   E   E   E   E   E   E   E.  X T X  E.  X T X  E.  X T X  
--36--36--36--36--36--36--36---L-----36---L-----36---L-----|
--------------------------38---L-----38---L-----38---L-----|
--------------------------42---L-----42---L-----42---L-----|
--------------------------49---L-----49---L-----49---L-----|
-----------------------------------------------------------|
-----------------------------------------------------------|


   E   E   E   E   E   E   E   E   E   Q    S X T X  
--36--36--36--36--36--36--36--36--36--36----L-L-----|
--------------------------------------38----L-L-----|
--------------------------------------42----L-L-----|
--------------------------------------49----L-L-----|
----------------------------------------------------|
----------------------------------------------------|


   E   E   E   E   E   E   E.  X T X  E.  X T X  E.  X T X  
--36--36--36--36--36--36--36---L-----36---L-----36---L-----|
--------------------------38---L-----38---L-----38---L-----|
--------------------------42---L-----42---L-----42---L-----|
--------------------------49---L-----49---L-----49---L-----|
-----------------------------------------------------------|
-----------------------------------------------------------|


   E   E   E   E   E   E   E.  X T X  E.  X T X  E.  X T X  
--36--36--36--36--36--36--36---L-----36---L-----36---L-----|
--------------------------38---L-----38---L-----38---L-----|
--------------------------42---L-----42---L-----42---L-----|
--------------------------49---L-----49---L-----49---L-----|
-----------------------------------------------------------|
-----------------------------------------------------------|


   E   E   E   E   E   E   E.  X T X  E.  X T X  E.  X T X  
--36--36--36--36--36--36--36---L-----36---L-----36---L-----|
--------------------------38---L-----38---L-----38---L-----|
--------------------------42---L-----42---L-----42---L-----|
--------------------------49---L-----49---L-----49---L-----|
-----------------------------------------------------------|
-----------------------------------------------------------|


   E   E   E   E   E   E   E   E   E   Q    S X T X  
--36--36--36--36--36--36--36--36--36--36----L-L-----|
--------------------------------------38----L-L-----|
--------------------------------------42----L-L-----|
--------------------------------------49----L-L-----|
----------------------------------------------------|
----------------------------------------------------|


  W                H            E.  X H        Q    T X    W                 
----------------------------|--36---L-------------------|-------------------|
----------------------------|--38---L-------------------|-------------------|
----------------------------|--42---L-------------------|-------------------|
----------------------------|--49---L-------------------|-------------------|
----------------------------|---------------------------|-------------------|
----------------------------|---------------------------|-------------------|


  W                   H         E.  X T X  E.  X T X  
-------------------|-----------36---L-----36---L-----|
-------------------|-----------38---L-----38---L-----|
-------------------|---------------------------------|
-------------------|---------------------------------|
-------------------|---------------------------------|
-------------------|---------------------------------|


   E.  X Q    T X  E.  X Q    T X    H         E.  X Q    T X  
--36---L----------36---L----------|-----------36---L----------|
--38---L----------38---L----------|-----------38---L----------|
----------------------------------|---------------------------|
----------------------------------|---------------------------|
----------------------------------|---------------------------|
----------------------------------|---------------------------|


  H         E.  X Q    T X    H         E.  X Q    T X  
-----------36---L----------|-----------36---L----------|
-----------38---L----------|-----------38---L----------|
---------------------------|---------------------------|
---------------------------|---------------------------|
---------------------------|---------------------------|
---------------------------|---------------------------|


   Q    S X T X  E   Q.     S S     E.  X T X  E   E   Q.     S S  
--36----L-L-----36--38------L---|--36---L-----36--36--38------L---|
--------------------49------L---|---------------------49------L---|
--------------------------------|---------------------------------|
--------------------------------|---------------------------------|
--------------------------------|---------------------------------|
--------------------------------|---------------------------------|


   Q    S X T X  E   Q.     S S     E.  X T X  E   E   Q.     S S  
--36----L-L-----36--38------L---|--36---L-----36--36--38------L---|
--------------------49------L---|---------------------49------L---|
--------------------------------|---------------------------------|
--------------------------------|---------------------------------|
--------------------------------|---------------------------------|
--------------------------------|---------------------------------|


   Q    S X T X  E   Q.     S S     E.  X T X  E   E   Q.     S S  
--36----L-L-----36--38------L---|--36---L-----36--36--38------L---|
--------------------49------L---|---------------------49------L---|
--------------------------------|---------------------------------|
--------------------------------|---------------------------------|
--------------------------------|---------------------------------|
--------------------------------|---------------------------------|


   Q    S X T X  E   Q.     S S     E   S  S  E   E   E   E   E   E   
--36----L-L-----36--38------L---|--36--38-38-38--38--38--36--36--36--|
--------------------49------L---|--38--------------------------------|
--------------------------------|------------------------------------|
--------------------------------|------------------------------------|
--------------------------------|------------------------------------|
--------------------------------|------------------------------------|


   Q    S X T X  E   Q.     S S     E.  X T X  E   E   Q.     S S  
--36----L-L-----36--38------L---|--36---L-----36--36--38------L---|
--49----L-L---------49------L---|---------------------49------L---|
--------------------------------|---------------------------------|
--------------------------------|---------------------------------|
--------------------------------|---------------------------------|
--------------------------------|---------------------------------|


   Q    S X T X  E   Q.     S S     E.  X T X  E   E   Q.     S S  
--36----L-L-----36--38------L---|--36---L-----36--36--38------L---|
--49----L-L---------49------L---|---------------------49------L---|
--------------------------------|---------------------------------|
--------------------------------|---------------------------------|
--------------------------------|---------------------------------|
--------------------------------|---------------------------------|


   Q    S X T X  E   Q.     S S     E.  X T X  E   E   Q.     S S  
--36----L-L-----36--38------L---|--36---L-----36--36--38------L---|
--49----L-L---------49------L---|---------------------49------L---|
--------------------------------|---------------------------------|
--------------------------------|---------------------------------|
--------------------------------|---------------------------------|
--------------------------------|---------------------------------|


   Q    S X T X  E   Q.     S S     E.  X T X  E   E   E   S  S  E   E   
--36----L-L-----36--38------L---|--36---L-----36--36--38--38-38-38--38--|
--49----L-L---------49------L---|---------------------------------------|
--------------------------------|---------------------------------------|
--------------------------------|---------------------------------------|
--------------------------------|---------------------------------------|
--------------------------------|---------------------------------------|


   Q    S X T X  E   Q.     S S     E.  X T X  E   E   Q.     S S  
--36----L-L-----36--38------L---|--36---L-----36--36--38------L---|
--49----L-L---------49------L---|---------------------49------L---|
--------------------------------|---------------------------------|
--------------------------------|---------------------------------|
--------------------------------|---------------------------------|
--------------------------------|---------------------------------|


   Q    S X T X  E   Q.     S S     E.  X T X  E   E   Q.     S S  
--36----L-L-----36--38------L---|--36---L-----36--36--38------L---|
--49----L-L---------49------L---|---------------------49------L---|
--------------------------------|---------------------------------|
--------------------------------|---------------------------------|
--------------------------------|---------------------------------|
--------------------------------|---------------------------------|


   Q    S X T X  E   Q.     S S     E.  X T X  E   E   Q.     S S  
--36----L-L-----36--38------L---|--36---L-----36--36--38------L---|
--49----L-L---------49------L---|---------------------49------L---|
--------------------------------|---------------------------------|
--------------------------------|---------------------------------|
--------------------------------|---------------------------------|
--------------------------------|---------------------------------|


   Q    S X T X  E   Q.     S S     E.  X T X  E   E   E   S  S  E   E   
--36----L-L-----36--38------L---|--36---L-----36--36--38--38-38-38--38--|
--49----L-L---------49------L---|---------------------------------------|
--------------------------------|---------------------------------------|
--------------------------------|---------------------------------------|
--------------------------------|---------------------------------------|
--------------------------------|---------------------------------------|


   E   E   E   E   E   E   E   E      E   E   E   E   E   E   E   E   
--36--38--36--38--36--38--36--38--|--36--38--36--38--36--38--36--38--|
--42--42--42--42--42--42--42--42--|--42--42--42--42--42--42--42--42--|
--49------------------------------|--49------------------------------|
----------------------------------|----------------------------------|
----------------------------------|----------------------------------|
----------------------------------|----------------------------------|


   E   E   E   E   E   E   E   E      E   E   E   E   E   E   E   E   
--36--38--36--38--36--38--36--38--|--36--38--36--38--36--38--36--38--|
--42--42--42--42--42--42--42--42--|--42--42--42--42--42--42--42--42--|
--49------------------------------|--49------------------------------|
----------------------------------|----------------------------------|
----------------------------------|----------------------------------|
----------------------------------|----------------------------------|


   E   E   E   E   E   E   E   E      E   E   E   E   E   E   E   E   
--36--38--36--38--36--38--36--38--|--36--38--36--38--36--38--36--38--|
--42--42--42--42--42--42--42--42--|--42--42--42--42--42--42--42--42--|
--49------------------------------|--49------------------------------|
----------------------------------|----------------------------------|
----------------------------------|----------------------------------|
----------------------------------|----------------------------------|


   H.           E.  S     H.           E.  S  
--36------------L-----|--36------------L-----|
--38------------L-----|--38------------L-----|
--42------------L-----|--42------------L-----|
--49------------L-----|--49------------L-----|
----------------------|----------------------|
----------------------|----------------------|


   E   E   E   E   E   E   E   E      E   E   E   E   E   E   E   E   
--36--42--38--42--36--36--38--42--|--36--42--38--42--36--36--38--42--|
--42------42------42--42--42------|--42------42------42--42--42------|
--49------------------------------|----------------------------------|
----------------------------------|----------------------------------|
----------------------------------|----------------------------------|
----------------------------------|----------------------------------|


   E   E   E   E   E   E   E   E      E   E   E   E   E   E   E   E   
--36--42--38--42--36--36--38--42--|--36--42--38--42--36--36--38--42--|
--42------42------42--42--42------|--42------42------42--42--42------|
--49------------------------------|----------------------------------|
----------------------------------|----------------------------------|
----------------------------------|----------------------------------|
----------------------------------|----------------------------------|


   E   E   E   E   E   E   E   E      E   E   E   E   E   E   E   E   
--36--42--38--42--36--36--38--42--|--36--42--38--42--36--36--38--42--|
--42------42------42--42--42------|--42------42------42--42--42------|
--49------------------------------|----------------------------------|
----------------------------------|----------------------------------|
----------------------------------|----------------------------------|
----------------------------------|----------------------------------|


   E   E   E   E   E   E   E   E      E   E   E   E   E   E   E   E   
--36--42--38--42--36--36--38--42--|--36--42--38--42--36--36--38--42--|
--42------42------42--42--42------|--42------42------42--42--42------|
--49------------------------------|----------------------------------|
----------------------------------|----------------------------------|
----------------------------------|----------------------------------|
----------------------------------|----------------------------------|


   E   E   E   E   E   E   E   E      E   E   E   E   E   E   E   E   
--36--42--38--42--36--36--38--42--|--36--42--38--42--36--36--38--42--|
--42------42------42--42--42------|--42------42------42--42--42------|
--49------------------------------|----------------------------------|
----------------------------------|----------------------------------|
----------------------------------|----------------------------------|
----------------------------------|----------------------------------|


   E   E   E   E   E   E   E   E      E   E   E   E   E   E   E   E   
--36--42--38--42--36--36--38--42--|--36--42--38--42--36--36--38--42--|
--42------42------42--42--42------|--42------42------42--42--42------|
--49------------------------------|----------------------------------|
----------------------------------|----------------------------------|
----------------------------------|----------------------------------|
----------------------------------|----------------------------------|


   E   E   E   E   E   E   E   E      E   E   E   E   E   E   E   E   
--36--42--38--42--36--36--38--42--|--36--42--38--42--36--36--38--42--|
--42------42------42--42--42------|--42------42------42--42--42------|
--49------------------------------|----------------------------------|
----------------------------------|----------------------------------|
----------------------------------|----------------------------------|
----------------------------------|----------------------------------|


   E   E   E   E   E   E   E   E      E   E   E   E   E   E   E   E   
--36--42--38--42--36--36--38--42--|--36--42--38--42--36--36--38--42--|
--42------42------42--42--42------|--42------42------42--42--42------|
--49------------------------------|----------------------------------|
----------------------------------|----------------------------------|
----------------------------------|----------------------------------|
----------------------------------|----------------------------------|


   E   E   E   E   E   E   E   E      E   E   E   E   E   E   E   E   
--36--42--38--42--36--36--38--42--|--36--42--38--42--36--36--38--42--|
--42------42------42--42--42------|--42------42------42--42--42------|
--49------------------------------|----------------------------------|
----------------------------------|----------------------------------|
----------------------------------|----------------------------------|
----------------------------------|----------------------------------|


   E   E   E   E   E   E   E   E      E   E   E   E   E   E   E   E   
--36--42--38--42--36--36--38--42--|--36--42--38--42--36--36--38--42--|
--42------42------42--42--42------|--42------42------42--42--42------|
--49------------------------------|----------------------------------|
----------------------------------|----------------------------------|
----------------------------------|----------------------------------|
----------------------------------|----------------------------------|


   E   E   E   E   E   E   E   E      E   E   E   E   E   E   E   E   
--36--42--38--42--36--36--38--42--|--36--42--38--42--36--36--38--42--|
--42------42------42--42--42------|--42------42------42--42--42------|
--49------------------------------|----------------------------------|
----------------------------------|----------------------------------|
----------------------------------|----------------------------------|
----------------------------------|----------------------------------|


   E   E   E   E   E   E   E   E      E   E   E   E   E   E   E   E   
--36--42--38--42--36--36--38--42--|--36--42--38--42--36--36--38--42--|
--42------42------42--42--42------|--42------42------42--42--42------|
--49------------------------------|----------------------------------|
----------------------------------|----------------------------------|
----------------------------------|----------------------------------|
----------------------------------|----------------------------------|


   E   E   E   E   E   E   E   E      E   E   E   E   E   E   E   E   
--36--38--36--38--36--38--36--38--|--36--38--36--38--36--38--36--38--|
--42--42--42--42--42--42--42--42--|--42--42--42--42--42--42--42--42--|
--49------------------------------|--49------------------------------|
----------------------------------|----------------------------------|
----------------------------------|----------------------------------|
----------------------------------|----------------------------------|


   E   E   E   E   E   E      E   E   E   E   E   E   
--36--38--36--38--36--38--|--36--38--36--38--36--38--|
--42--42--42--42--42--42--|--42--42--42--42--42--42--|
--49----------------------|--49----------------------|
--------------------------|--------------------------|
--------------------------|--------------------------|
--------------------------|--------------------------|


   E   E   E   E   E   E   E   E      E   E   E   E   E   E   E   E   
--36--38--36--38--36--38--36--38--|--36--38--36--38--36--38--36--38--|
--42--42--42--42--42--42--42--42--|--42--42--42--42--42--42--42--42--|
--49------------------------------|--49------------------------------|
----------------------------------|----------------------------------|
----------------------------------|----------------------------------|
----------------------------------|----------------------------------|


   E   E   E   E   E   E      E   E   E   E   E   E   
--36--38--36--38--36--38--|--36--38--36--38--36--38--|
--42--42--42--42--42--42--|--42--42--42--42--42--42--|
--49----------------------|--49----------------------|
--------------------------|--------------------------|
--------------------------|--------------------------|
--------------------------|--------------------------|


   E   E   E   E   E   E   E   E      E   E   E   E   E   E   E   E   
--36--38--36--38--36--38--36--38--|--36--38--36--38--36--38--36--38--|
--42--42--42--42--42--42--42--42--|--42--42--42--42--42--42--42--42--|
--49------------------------------|--49------------------------------|
----------------------------------|----------------------------------|
----------------------------------|----------------------------------|
----------------------------------|----------------------------------|


   E   E   E   E   E   E      E   E   E   E   E   E   
--36--38--36--38--36--38--|--36--38--36--38--36--38--|
--42--42--42--42--42--42--|--42--42--42--42--42--42--|
--49----------------------|--49----------------------|
--------------------------|--------------------------|
--------------------------|--------------------------|
--------------------------|--------------------------|


   E   E   E   E   E   E   E   E      E   E   E   E   E   E   E   E   
--36--38--36--38--36--38--36--38--|--36--38--36--38--36--38--36--38--|
--42--42--42--42--42--42--42--42--|--42--42--42--42--42--42--42--42--|
--49------------------------------|--49------------------------------|
----------------------------------|----------------------------------|
----------------------------------|----------------------------------|
----------------------------------|----------------------------------|


   E   E   E   E   E   E      E   E   E   E   E   E   
--36--38--36--38--36--38--|--36--38--36--38--36--38--|
--42--42--42--42--42--42--|--42--42--42--42--42--42--|
--49----------------------|--49----------------------|
--------------------------|--------------------------|
--------------------------|--------------------------|
--------------------------|--------------------------|


   E   E   E   E   E   E   E   E      E   E   E   E   E   E   E   E   
--36--38--36--38--36--38--36--38--|--36--38--36--38--36--38--36--38--|
--42--42--42--42--42--42--42--42--|--42--42--42--42--42--42--42--42--|
--49------------------------------|--49------------------------------|
----------------------------------|----------------------------------|
----------------------------------|----------------------------------|
----------------------------------|----------------------------------|


   E   E   E   E   E   E      E   E   E   E   E   E   
--36--38--36--38--36--38--|--36--38--36--38--36--38--|
--42--42--42--42--42--42--|--42--42--42--42--42--42--|
--49----------------------|--49----------------------|
--------------------------|--------------------------|
--------------------------|--------------------------|
--------------------------|--------------------------|


   E   E   E   E   E   E   E   E      E   E   E   E   E   E   E   E   
--36--38--36--38--36--38--36--38--|--36--38--36--38--36--38--36--38--|
--42--42--42--42--42--42--42--42--|--42--42--42--42--42--42--42--42--|
--49------------------------------|--49------------------------------|
----------------------------------|----------------------------------|
----------------------------------|----------------------------------|
----------------------------------|----------------------------------|


   E   E   E   E   E   E      E   E   E   E   E   E   
--36--38--36--38--36--38--|--36--38--36--38--36--38--|
--42--42--42--42--42--42--|--42--42--42--42--42--42--|
--49----------------------|--49----------------------|
--------------------------|--------------------------|
--------------------------|--------------------------|
--------------------------|--------------------------|


   E  T  E  T.  E  T.  E.  X T X  E.  X T X  
--36--L-36--L--36--L--36---L-----36---L-----|
--38--L-38--L--38--L--38---L-----38---L-----|
--42--L-42--L--42--L--42---L-----42---L-----|
--49--L-49--L--49--L--49---L-----49---L-----|
--------------------------------------------|
--------------------------------------------|


   E   S  S  E   E   E   E   E   E      E   E   E   E   E   E   E   E   
--36--38-38-36--38--36--38--36--36--|--42--36--38--42--36--42--38--42--|
--38--------38------38------38--38--|------42--42------42------42------|
--------------------------------49--|----------------------------------|
------------------------------------|----------------------------------|
------------------------------------|----------------------------------|
------------------------------------|----------------------------------|


   E   E   E   E   E   E   E   E      E   E   E   E   E   E   E   E   
--42--36--38--42--36--42--38--42--|--42--36--38--42--36--42--38--42--|
------42--42------42------42------|------42--42------42------42------|
----------------------------------|----------------------------------|
----------------------------------|----------------------------------|
----------------------------------|----------------------------------|
----------------------------------|----------------------------------|


   E   S  S  E   E   E   E   E   E      E   E   E   E   E   E   E   E   
--36--38-38-36--38--36--38--36--36--|--42--36--38--42--36--42--38--42--|
--38--------38------38------38--38--|------42--42------42------42------|
--------------------------------49--|----------------------------------|
------------------------------------|----------------------------------|
------------------------------------|----------------------------------|
------------------------------------|----------------------------------|


   E   E   E   E   E   E   E   E      E   E   E   E   E   E   E   E   
--42--36--38--42--36--42--38--42--|--42--36--38--42--36--42--38--42--|
------42--42------42------42------|------42--42------42------42------|
----------------------------------|----------------------------------|
----------------------------------|----------------------------------|
----------------------------------|----------------------------------|
----------------------------------|----------------------------------|


   E   S  S  E   E   E   E   E   E      E   E   E   E   E   E   E   E   
--36--38-38-36--38--36--38--36--36--|--42--36--38--42--36--42--38--42--|
--38--------38------38------38--38--|------42--42------42------42------|
--------------------------------49--|----------------------------------|
------------------------------------|----------------------------------|
------------------------------------|----------------------------------|
------------------------------------|----------------------------------|


   E   E   E   E   E   E   E   E      E   E   E   E   E   E   E   E   
--42--36--38--42--36--42--38--42--|--42--36--38--42--36--42--38--42--|
------42--42------42------42------|------42--42------42------42------|
----------------------------------|----------------------------------|
----------------------------------|----------------------------------|
----------------------------------|----------------------------------|
----------------------------------|----------------------------------|


   E   S  S  E   E   E   E   E   E      E   E   E   E   E   E   E   E   
--36--38-38-36--38--36--38--36--36--|--42--36--38--42--36--42--38--42--|
--38--------38------38------38--38--|------42--42------42------42------|
--------------------------------49--|----------------------------------|
------------------------------------|----------------------------------|
------------------------------------|----------------------------------|
------------------------------------|----------------------------------|


   E   E   E   E   E   E   E   E      E   E   E   E   E   E   E   E   
--42--36--38--42--36--42--38--42--|--42--36--38--42--36--42--38--42--|
------42--42------42------42------|------42--42------42------42------|
----------------------------------|----------------------------------|
----------------------------------|----------------------------------|
----------------------------------|----------------------------------|
----------------------------------|----------------------------------|


   E   S  S  E   E   E   E   E      E  Q    E      E   E   E   E   
--36--38-38-36--38--36--38--36--|--36----------|--36--42--38--42--|
--38--------38------38------38--|--38----------|--42------42------|
--------------------------------|--42----------|--49--------------|
--------------------------------|--49----------|------------------|
--------------------------------|--------------|------------------|
--------------------------------|--------------|------------------|


   E   E   E   E      E   E   E   E      E   E   E   E      E   E   E   E   
--36--36--38--42--|--36--42--38--42--|--36--36--38--42--|--36--42--38--42--|
--42--42--42------|--42------42------|--42--42--42------|--42------42------|
------------------|------------------|------------------|--49--------------|
------------------|------------------|------------------|------------------|
------------------|------------------|------------------|------------------|
------------------|------------------|------------------|------------------|


   E   E   E   E      E   E   E   E      E   E   E   E      E   E   E   E   
--36--36--38--42--|--36--42--38--42--|--36--36--38--42--|--36--42--38--42--|
--42--42--42------|--42------42------|--42--42--42------|--42------42------|
------------------|------------------|------------------|--49--------------|
------------------|------------------|------------------|------------------|
------------------|------------------|------------------|------------------|
------------------|------------------|------------------|------------------|


   E   E   E   E      E   E   E   E      E   E   E   E      E   E   E   E   
--36--36--38--42--|--36--42--38--42--|--36--36--38--42--|--36--42--38--42--|
--42--42--42------|--42------42------|--42--42--42------|--42------42------|
------------------|------------------|------------------|--49--------------|
------------------|------------------|------------------|------------------|
------------------|------------------|------------------|------------------|
------------------|------------------|------------------|------------------|


   E   E   E   E      E   E   E   E      E   E   E   E      E   E   E   E   
--36--36--38--42--|--36--42--38--42--|--36--36--38--42--|--36--42--38--42--|
--42--42--42------|--42------42------|--42--42--42------|--42------42------|
------------------|------------------|------------------|--49--------------|
------------------|------------------|------------------|------------------|
------------------|------------------|------------------|------------------|
------------------|------------------|------------------|------------------|


   E   E   E   E      E   E   E   E      E   E   E   E      E   E   E   E   
--36--36--38--42--|--36--42--38--42--|--36--36--38--42--|--36--42--38--42--|
--42--42--42------|--42------42------|--42--42--42------|--42------42------|
------------------|------------------|------------------|--49--------------|
------------------|------------------|------------------|------------------|
------------------|------------------|------------------|------------------|
------------------|------------------|------------------|------------------|


   E   E   E   E      E   E   E   E      E   E   E   E      E   E   E   E   
--36--36--38--42--|--36--42--38--42--|--36--36--38--42--|--36--42--38--42--|
--42--42--42------|--42------42------|--42--42--42------|--42------42------|
------------------|------------------|------------------|--49--------------|
------------------|------------------|------------------|------------------|
------------------|------------------|------------------|------------------|
------------------|------------------|------------------|------------------|


   E   E   E   E      E   E   E   E      E   E   E   E      E   E   E   E   
--36--36--38--42--|--36--42--38--42--|--36--36--38--42--|--36--42--38--42--|
--42--42--42------|--42------42------|--42--42--42------|--42------42------|
------------------|------------------|------------------|--49--------------|
------------------|------------------|------------------|------------------|
------------------|------------------|------------------|------------------|
------------------|------------------|------------------|------------------|


   E   E   E   E      E   E   E   E      E   E   E   E   
--36--36--38--42--|--36--42--38--42--|--36--36--38--42--|
--42--42--42------|--42------42------|--42--42--42------|
------------------|------------------|------------------|
------------------|------------------|------------------|
------------------|------------------|------------------|
------------------|------------------|------------------|


   E   E   E   E   E   E   E   E      E   E   E   E   E   E   E   E   
--36--38--36--38--36--38--36--38--|--36--38--36--38--36--38--36--38--|
--42--42--42--42--42--42--42--42--|--42--42--42--42--42--42--42--42--|
--49------------------------------|--49------------------------------|
----------------------------------|----------------------------------|
----------------------------------|----------------------------------|
----------------------------------|----------------------------------|


   E   E   E   E   E   E      E   E   E   E   E   E   
--36--38--36--38--36--38--|--36--38--36--38--36--38--|
--42--42--42--42--42--42--|--42--42--42--42--42--42--|
--49----------------------|--49----------------------|
--------------------------|--------------------------|
--------------------------|--------------------------|
--------------------------|--------------------------|


   E   E   E   E   E   E   E   E      E   E   E   E   E   E   E   E   
--36--38--36--38--36--38--36--38--|--36--38--36--38--36--38--36--38--|
--42--42--42--42--42--42--42--42--|--42--42--42--42--42--42--42--42--|
--49------------------------------|--49------------------------------|
----------------------------------|----------------------------------|
----------------------------------|----------------------------------|
----------------------------------|----------------------------------|


   E   E   E   E   E   E      E   E   E   E   E   E   
--36--38--36--38--36--38--|--36--38--36--38--36--38--|
--42--42--42--42--42--42--|--42--42--42--42--42--42--|
--49----------------------|--49----------------------|
--------------------------|--------------------------|
--------------------------|--------------------------|
--------------------------|--------------------------|


   E   E   E   E   E   E   E   E      E   E   E   E   E   E   E   E   
--36--38--36--38--36--38--36--38--|--36--38--36--38--36--38--36--38--|
--42--42--42--42--42--42--42--42--|--42--42--42--42--42--42--42--42--|
--49------------------------------|--49------------------------------|
----------------------------------|----------------------------------|
----------------------------------|----------------------------------|
----------------------------------|----------------------------------|


   E   E   E   E   E   E      E   E   E   E   E   E   
--36--38--36--38--36--38--|--36--38--36--38--36--38--|
--42--42--42--42--42--42--|--42--42--42--42--42--42--|
--49----------------------|--49----------------------|
--------------------------|--------------------------|
--------------------------|--------------------------|
--------------------------|--------------------------|


   E   E   E   E   E   E   E   E      E   E   E   E   E   E   E   E   
--36--38--36--38--36--38--36--38--|--36--38--36--38--36--38--36--38--|
--42--42--42--42--42--42--42--42--|--42--42--42--42--42--42--42--42--|
--49------------------------------|--49------------------------------|
----------------------------------|----------------------------------|
----------------------------------|----------------------------------|
----------------------------------|----------------------------------|


   E   E   E   E   E   E      E   E   E   E   E   E   
--36--38--36--38--36--38--|--36--38--36--38--36--38--|
--42--42--42--42--42--42--|--42--42--42--42--42--42--|
--49----------------------|--49----------------------|
--------------------------|--------------------------|
--------------------------|--------------------------|
--------------------------|--------------------------|


   E   E   E   E   E   E   E   E      E   E   E   E   E   E   E   E   
--36--38--36--38--36--38--36--38--|--36--38--36--38--36--38--36--38--|
--42--42--42--42--42--42--42--42--|--42--42--42--42--42--42--42--42--|
--49------------------------------|--49------------------------------|
----------------------------------|----------------------------------|
----------------------------------|----------------------------------|
----------------------------------|----------------------------------|


   E   E   E   E   E   E      E   E   E   E   E   E   
--36--38--36--38--36--38--|--36--38--36--38--36--38--|
--42--42--42--42--42--42--|--42--42--42--42--42--42--|
--49----------------------|--49----------------------|
--------------------------|--------------------------|
--------------------------|--------------------------|
--------------------------|--------------------------|


   E   E   E   E   E   E   E   E      E   E   E   E   E   E   E   E   
--36--38--36--38--36--38--36--38--|--36--38--36--38--36--38--36--38--|
--42--42--42--42--42--42--42--42--|--42--42--42--42--42--42--42--42--|
--49------------------------------|--49------------------------------|
----------------------------------|----------------------------------|
----------------------------------|----------------------------------|
----------------------------------|----------------------------------|


   E   E   E   E   E   E      E   E   E   E   E   E   
--36--38--36--38--36--38--|--36--38--36--38--36--38--|
--42--42--42--42--42--42--|--42--42--42--42--42--42--|
--49----------------------|--49----------------------|
--------------------------|--------------------------|
--------------------------|--------------------------|
--------------------------|--------------------------|


   E  T  E  T.  E  T.  E.  X T X  E.  X T X  
--36--L-36--L--36--L--36---L-----36---L-----|
--38--L-38--L--38--L--38---L-----38---L-----|
--42--L-42--L--42--L--42---L-----42---L-----|
--49--L-49--L--49--L--49---L-----49---L-----|
--------------------------------------------|
--------------------------------------------|


   E   S  S  E   E   E   E   E   E      E   E   E   E   E   E   E   E   
--36--38-38-36--38--36--38--36--36--|--42--36--38--42--36--42--38--42--|
--38--------38------38------38--38--|------42--42------42------42------|
--------------------------------49--|----------------------------------|
------------------------------------|----------------------------------|
------------------------------------|----------------------------------|
------------------------------------|----------------------------------|


   E   E   E   E   E   E   E   E      E   E   E   E   E   E   E   E   
--42--36--38--42--36--42--38--42--|--42--36--38--42--36--42--38--42--|
------42--42------42------42------|------42--42------42------42------|
----------------------------------|----------------------------------|
----------------------------------|----------------------------------|
----------------------------------|----------------------------------|
----------------------------------|----------------------------------|


   E   S  S  E   E   E   E   E   E      E   E   E   E   E   E   E   E   
--36--38-38-36--38--36--38--36--36--|--42--36--38--42--36--42--38--42--|
--38--------38------38------38--38--|------42--42------42------42------|
--------------------------------49--|----------------------------------|
------------------------------------|----------------------------------|
------------------------------------|----------------------------------|
------------------------------------|----------------------------------|


   E   E   E   E   E   E   E   E      E   E   E   E   E   E   E   E   
--42--36--38--42--36--42--38--42--|--42--36--38--42--36--42--38--42--|
------42--42------42------42------|------42--42------42------42------|
----------------------------------|----------------------------------|
----------------------------------|----------------------------------|
----------------------------------|----------------------------------|
----------------------------------|----------------------------------|


   E   S  S  E   E   E   E   E   E      E   E   E   E   E   E   E   E   
--36--38-38-36--38--36--38--36--36--|--42--36--38--42--36--42--38--42--|
--38--------38------38------38--38--|------42--42------42------42------|
--------------------------------49--|----------------------------------|
------------------------------------|----------------------------------|
------------------------------------|----------------------------------|
------------------------------------|----------------------------------|


   E   E   E   E   E   E   E   E      E   E   E   E   E   E   E   E   
--42--36--38--42--36--42--38--42--|--42--36--38--42--36--42--38--42--|
------42--42------42------42------|------42--42------42------42------|
----------------------------------|----------------------------------|
----------------------------------|----------------------------------|
----------------------------------|----------------------------------|
----------------------------------|----------------------------------|


   E   S  S  E   E   E   E   E   E      E   E   E   E   E   E   E   E   
--36--38-38-36--38--36--38--36--36--|--42--36--38--42--36--42--38--42--|
--38--------38------38------38--38--|------42--42------42------42------|
--------------------------------49--|----------------------------------|
------------------------------------|----------------------------------|
------------------------------------|----------------------------------|
------------------------------------|----------------------------------|


   E   E   E   E   E   E   E   E      E   E   E   E   E   E   E   E   
--42--36--38--42--36--42--38--42--|--42--36--38--42--36--42--38--42--|
------42--42------42------42------|------42--42------42------42------|
----------------------------------|----------------------------------|
----------------------------------|----------------------------------|
----------------------------------|----------------------------------|
----------------------------------|----------------------------------|


   E   S  S  E   E   E   E   E      E  Q    E     H        Q    E   
--36--38-38-36--38--36--38--36--|--36----------|-------------------|
--38--------38------38------38--|--38----------|-------------------|
--------------------------------|--42----------|-------------------|
--------------------------------|--49----------|-------------------|
--------------------------------|--------------|-------------------|
--------------------------------|--------------|-------------------|


   E.  X T X  E.  X T X  E.  X T X  E.  X T X  
--36---L-----42---L-----38---L-----42---L-----|
--42---L----------------42---L----------------|
--49---L--------------------------------------|
----------------------------------------------|
----------------------------------------------|
----------------------------------------------|


   E.  X T X  E.  X T X  E.  X T X  E   E   
--36---L-----42---L-----38---L-----38--38--|
--42---L----------------42---L-----42------|
-------------------------------------------|
-------------------------------------------|
-------------------------------------------|
-------------------------------------------|


   E.  X T X  E.  X T X  E.  X T X  E.  X T X  
--36---L-----42---L-----38---L-----42---L-----|
--42---L----------------42---L----------------|
--49---L--------------------------------------|
----------------------------------------------|
----------------------------------------------|
----------------------------------------------|


   E.  X T X  E.  X T X  E.  X T X  E   E   
--36---L-----42---L-----38---L-----38--38--|
--42---L----------------42---L-----42------|
-------------------------------------------|
-------------------------------------------|
-------------------------------------------|
-------------------------------------------|


   E.  X T X  E.  X T X  E.  X T X  E.  X T X  
--36---L-----42---L-----38---L-----42---L-----|
--42---L----------------42---L----------------|
--49---L--------------------------------------|
----------------------------------------------|
----------------------------------------------|
----------------------------------------------|


   E.  X T X  E.  X T X  E.  X T X  E   E   
--36---L-----42---L-----38---L-----38--38--|
--42---L----------------42---L-----42------|
-------------------------------------------|
-------------------------------------------|
-------------------------------------------|
-------------------------------------------|


   E.  X T X  E.  X T X  E.  X T X  E.  X T X  
--36---L-----42---L-----38---L-----42---L-----|
--42---L----------------42---L----------------|
--49---L--------------------------------------|
----------------------------------------------|
----------------------------------------------|
----------------------------------------------|


   E.  X T X  E.  X T X  E.  X T X  E   E   
--36---L-----42---L-----38---L-----38--38--|
--42---L----------------42---L-----42------|
-------------------------------------------|
-------------------------------------------|
-------------------------------------------|
-------------------------------------------|


   E.  X T X  E.  X T X  E.  X T X  E.  X T X  
--36---L-----42---L-----38---L-----42---L-----|
--42---L----------------42---L----------------|
--49---L--------------------------------------|
----------------------------------------------|
----------------------------------------------|
----------------------------------------------|


   E.  X T X  E.  X T X  E.  X T X  E   E   
--36---L-----42---L-----38---L-----38--38--|
--42---L----------------42---L-----42------|
-------------------------------------------|
-------------------------------------------|
-------------------------------------------|
-------------------------------------------|


   E.  X T X  E.  X T X  E.  X T X  E.  X T X  
--36---L-----42---L-----38---L-----42---L-----|
--42---L----------------42---L----------------|
--49---L--------------------------------------|
----------------------------------------------|
----------------------------------------------|
----------------------------------------------|


   E.  X T X  E.  X T X  E.  X T X  E   E   
--36---L-----42---L-----38---L-----38--38--|
--42---L----------------42---L-----42------|
-------------------------------------------|
-------------------------------------------|
-------------------------------------------|
-------------------------------------------|


   E.  X T X  E.  X T X  E.  X T X  E.  X T X  
--36---L-----42---L-----38---L-----42---L-----|
--42---L----------------42---L----------------|
--49---L--------------------------------------|
----------------------------------------------|
----------------------------------------------|
----------------------------------------------|


   E.  X T X  E.  X T X  E.  X T X  E   E   
--36---L-----42---L-----38---L-----38--38--|
--42---L----------------42---L-----42------|
-------------------------------------------|
-------------------------------------------|
-------------------------------------------|
-------------------------------------------|


   E.  X T X  E.  X T X  E.  X T X  E.  X T X  
--36---L-----42---L-----38---L-----42---L-----|
--42---L----------------42---L----------------|
--49---L--------------------------------------|
----------------------------------------------|
----------------------------------------------|
----------------------------------------------|


   E.  X T X  E.  X T X  E   S  S  E   E      E   E   E   E   E   E   E   E   
--36---L-----42---L-----38--38-38-38--38--|--36--42--38--42--36--42--38--42--|
--42---L----------------42--------42------|--42------42------42------42------|
------------------------------------------|--49------------------------------|
------------------------------------------|----------------------------------|
------------------------------------------|----------------------------------|
------------------------------------------|----------------------------------|


   E   E   E   E   E   E   E   E      E   E   E   E   E   E   E   E   
--36--42--38--42--36--42--38--42--|--36--42--38--42--36--42--38--42--|
--42------42------42------42------|--42------42------42------42------|
----------------------------------|----------------------------------|
----------------------------------|----------------------------------|
----------------------------------|----------------------------------|
----------------------------------|----------------------------------|


   E   E   E   E   E   E   E   E      E   E   E   E   E   E   E   E   
--36--42--38--42--36--42--38--42--|--36--42--38--42--36--42--38--42--|
--42------42------42------42------|--42------42------42------42------|
----------------------------------|----------------------------------|
----------------------------------|----------------------------------|
----------------------------------|----------------------------------|
----------------------------------|----------------------------------|


   E   E   E   E   E   E   E   E      E   E   E   E   E   E   E   E   
--36--42--38--42--36--42--38--42--|--36--42--38--42--36--42--38--42--|
--42------42------42------42------|--42------42------42------42------|
----------------------------------|----------------------------------|
----------------------------------|----------------------------------|
----------------------------------|----------------------------------|
----------------------------------|----------------------------------|


   E   E   E   E   E   E   E   E      E   E   E   E   E   E   E   E   
--36--42--38--42--36--42--38--42--|--36--42--38--42--36--42--38--42--|
--42------42------42------42------|--42------42------42------42------|
----------------------------------|----------------------------------|
----------------------------------|----------------------------------|
----------------------------------|----------------------------------|
----------------------------------|----------------------------------|


   E   E   E   E   E   E   E   E      E   E   E   E   E   E   E   E   
--36--42--38--42--36--42--38--42--|--36--42--38--42--36--42--38--42--|
--42------42------42------42------|--42------42------42------42------|
----------------------------------|----------------------------------|
----------------------------------|----------------------------------|
----------------------------------|----------------------------------|
----------------------------------|----------------------------------|


   E   E   E   E   E   E   E   E      E   E   E   E   E   E   E   E   
--36--42--38--42--36--42--38--42--|--36--42--38--42--36--42--38--42--|
--42------42------42------42------|--42------42------42------42------|
----------------------------------|----------------------------------|
----------------------------------|----------------------------------|
----------------------------------|----------------------------------|
----------------------------------|----------------------------------|


   E   E   E   E   E   E   E   E      E   E   E   E   E   E   E   E   
--36--42--38--42--36--42--38--42--|--36--42--38--42--36--42--38--42--|
--42------42------42------42------|--42------42------42------42------|
----------------------------------|----------------------------------|
----------------------------------|----------------------------------|
----------------------------------|----------------------------------|
----------------------------------|----------------------------------|


   E   E   E   E   E   E   E   E   
--36--42--38--42--36--42--38--42--|
--42------42------42------42------|
----------------------------------|
----------------------------------|
----------------------------------|
----------------------------------|


   E.  X T X  E.  X T X  E.  X T X  E.  X T X  
--36---L-----42---L-----38---L-----42---L-----|
--42---L----------------42---L----------------|
--49---L--------------------------------------|
----------------------------------------------|
----------------------------------------------|
----------------------------------------------|


   E.  X T X  E.  X T X  E   Q    S X T X  
--36---L-----42---L-----36--38----L-L-----|
--42---L----------------42--42----L-L-----|
----------------------------48----L-L-----|
------------------------------------------|
------------------------------------------|
------------------------------------------|


   E.  X T X  E.  X T X  E.  X T X  E.  X T X  
--36---L-----42---L-----38---L-----42---L-----|
--42---L----------------42---L----------------|
--49---L--------------------------------------|
----------------------------------------------|
----------------------------------------------|
----------------------------------------------|


   E.  X T X  E.  X T X  E.  X T X  E.  X T X  
--36---L-----42---L-----38---L-----42---L-----|
--42---L----------------42---L----------------|
----------------------------------------------|
----------------------------------------------|
----------------------------------------------|
----------------------------------------------|


   E   E   E   E   E   E   E   E      E   E   E   E   E   E   E   E   
--36--42--38--42--36--42--38--42--|--36--42--38--42--36--42--38--42--|
--42------42------42------42------|--42------42------42------42------|
----------------------------------|----------------------------------|
----------------------------------|----------------------------------|
----------------------------------|----------------------------------|
----------------------------------|----------------------------------|


   E   E   E   E   E   E   E   E      E   E   E   E   E   E   E   E   
--36--42--38--42--36--42--38--42--|--36--42--38--42--36--42--38--42--|
--42------42------42------42------|--42------42------42------42------|
----------------------------------|----------------------------------|
----------------------------------|----------------------------------|
----------------------------------|----------------------------------|
----------------------------------|----------------------------------|


   E.  X T X  E.  X T X  E.  X T X  E.  X T X  
--36---L-----42---L-----38---L-----42---L-----|
--42---L----------------42---L----------------|
--49---L--------------------------------------|
----------------------------------------------|
----------------------------------------------|
----------------------------------------------|


   E.  X T X  E.  X T X  E   Q    S X T X  
--36---L-----42---L-----36--38----L-L-----|
--42---L----------------42--42----L-L-----|
----------------------------48----L-L-----|
------------------------------------------|
------------------------------------------|
------------------------------------------|


   E.  X T X  E.  X T X  E.  X T X  E.  X T X  
--36---L-----42---L-----38---L-----42---L-----|
--42---L----------------42---L----------------|
--49---L--------------------------------------|
----------------------------------------------|
----------------------------------------------|
----------------------------------------------|


   E.  X T X  E.  X T X  E.  X T X  E.  X T X  
--36---L-----42---L-----38---L-----42---L-----|
--42---L----------------42---L----------------|
----------------------------------------------|
----------------------------------------------|
----------------------------------------------|
----------------------------------------------|


   E   E   E   E   E   E   E   E      E   E   E   E   E   E   E   E   
--36--42--38--42--36--42--38--42--|--36--42--38--42--36--42--38--42--|
--42------42------42------42------|--42------42------42------42------|
----------------------------------|----------------------------------|
----------------------------------|----------------------------------|
----------------------------------|----------------------------------|
----------------------------------|----------------------------------|


   E   E   E   E   E   E   E   E      E   E   E   E   E   E   E   E   
--36--42--38--42--36--42--38--42--|--36--42--38--42--36--42--38--42--|
--42------42------42------42------|--42------42------42------42------|
----------------------------------|----------------------------------|
----------------------------------|----------------------------------|
----------------------------------|----------------------------------|
----------------------------------|----------------------------------|


   E.  X T X  E   E   E   E   E   E      E   E   E   E   E   E   E   E   
--36---L-----42--36--38--36--42--36--|--38--36--42--36--38--36--42--36--|
--42---L-------------42--------------|--42--------------42--------------|
--49---L-----------------------------|----------------------------------|
-------------------------------------|----------------------------------|
-------------------------------------|----------------------------------|
-------------------------------------|----------------------------------|


   E.  X T X  E   E   E   E   E   E      E   E   E   E   E   E   E   E   
--36---L-----42--36--38--36--42--36--|--38--36--42--36--38--36--42--36--|
--42---L-------------42--------------|--42--------------42--------------|
--49---L-----------------------------|----------------------------------|
-------------------------------------|----------------------------------|
-------------------------------------|----------------------------------|
-------------------------------------|----------------------------------|


   E   E   E   E   E   E   E   E      E   E   E   E   E   E   E   E   
--36--42--38--42--36--42--38--42--|--36--42--38--42--36--42--38--42--|
--42------42------42------42------|--42------42------42------42------|
----------------------------------|----------------------------------|
----------------------------------|----------------------------------|
----------------------------------|----------------------------------|
----------------------------------|----------------------------------|


   E   E   E   E   E   E   E   E      E   E   E   E   E   E   E   E   
--36--42--38--42--36--42--38--42--|--36--42--38--42--36--42--38--42--|
--42------42------42------42------|--42------42------42------42------|
----------------------------------|----------------------------------|
----------------------------------|----------------------------------|
----------------------------------|----------------------------------|
----------------------------------|----------------------------------|


   E.  X T X  E   E   E   E   E   E      E   E   E   E   E   E   E   E   
--36---L-----42--36--38--36--42--36--|--38--36--42--36--38--36--42--36--|
--42---L-------------42--------------|--42--------------42--------------|
--49---L-----------------------------|----------------------------------|
-------------------------------------|----------------------------------|
-------------------------------------|----------------------------------|
-------------------------------------|----------------------------------|


   E.  X T X  E   E   E   E   E   E      E   E   E   E   E   E   E   E   
--36---L-----42--36--38--36--42--36--|--38--36--42--36--38--36--42--36--|
--42---L-------------42--------------|--42--------------42--------------|
--49---L-----------------------------|----------------------------------|
-------------------------------------|----------------------------------|
-------------------------------------|----------------------------------|
-------------------------------------|----------------------------------|


   E   E   E   E   E   E   E   E      E   E   E   E   E   E   E   E   
--36--42--38--42--36--42--38--42--|--36--42--38--42--36--42--38--42--|
--42------42------42------42------|--42------42------42------42------|
----------------------------------|----------------------------------|
----------------------------------|----------------------------------|
----------------------------------|----------------------------------|
----------------------------------|----------------------------------|


   E   E   E   E   E   E   E   E      E   E   E   E   E   E   E   E   
--36--42--38--42--36--42--38--42--|--36--42--38--42--36--42--38--42--|
--42------42------42------42------|--42------42------42------42------|
----------------------------------|----------------------------------|
----------------------------------|----------------------------------|
----------------------------------|----------------------------------|
----------------------------------|----------------------------------|


   E.  X T X  E.  X T X  E.  X T X  E.  X T X  
--36---L-----42---L-----38---L-----42---L-----|
--42---L----------------42---L----------------|
--49---L--------------------------------------|
----------------------------------------------|
----------------------------------------------|
----------------------------------------------|


   E.  X T X  E.  X T X  E.  X T X  E   E   
--36---L-----42---L-----38---L-----38--38--|
--42---L----------------42---L-----42------|
-------------------------------------------|
-------------------------------------------|
-------------------------------------------|
-------------------------------------------|


   E.  X T X  E.  X T X  E.  X T X  E.  X T X  
--36---L-----42---L-----38---L-----42---L-----|
--42---L----------------42---L----------------|
--49---L--------------------------------------|
----------------------------------------------|
----------------------------------------------|
----------------------------------------------|


   E.  X T X  E.  X T X  E.  X T X  E   E   
--36---L-----42---L-----38---L-----38--38--|
--42---L----------------42---L-----42------|
-------------------------------------------|
-------------------------------------------|
-------------------------------------------|
-------------------------------------------|


   E.  X T X  E.  X T X  E.  X T X  E.  X T X  
--36---L-----42---L-----38---L-----42---L-----|
--42---L----------------42---L----------------|
--49---L--------------------------------------|
----------------------------------------------|
----------------------------------------------|
----------------------------------------------|


   E.  X T X  E.  X T X  E.  X T X  E   E   
--36---L-----42---L-----38---L-----38--38--|
--42---L----------------42---L-----42------|
-------------------------------------------|
-------------------------------------------|
-------------------------------------------|
-------------------------------------------|


   E.  X T X  E.  X T X  E.  X T X  E.  X T X  
--36---L-----42---L-----38---L-----42---L-----|
--42---L----------------42---L----------------|
--49---L--------------------------------------|
----------------------------------------------|
----------------------------------------------|
----------------------------------------------|


   E.  X T X  E.  X T X  E.  X T X  E   E      E   S  S  E   E   E   E   E   
--36---L-----42---L-----38---L-----38--38--|--36--38-38-36--38--36--38--36--|
--42---L----------------42---L-----42------|--38--------38------38------38--|
-------------------------------------------|--------------------------------|
-------------------------------------------|--------------------------------|
-------------------------------------------|--------------------------------|
-------------------------------------------|--------------------------------|


   E  H        Q    E     W                   W                 
--36-------------------|-------------------|-------------------|
--38-------------------|-------------------|-------------------|
-----------------------|-------------------|-------------------|
-----------------------|-------------------|-------------------|
-----------------------|-------------------|-------------------|
-----------------------|-------------------|-------------------|


   E   E   E   E   E   E   E   E      E   E   E   E   E   E   E   E   
--36--36--36--36--36--36--36--36--|--36--38--36--38--36--38--36--38--|
--38--38--38--38--38--38--38--38--|--42--42--42--42--42--42--42--42--|
----------------------------------|--49------------------------------|
----------------------------------|----------------------------------|
----------------------------------|----------------------------------|
----------------------------------|----------------------------------|


   E   E   E   E   E   E   E   E      E   E   E   E   E   E   E   E   
--36--38--36--38--36--38--36--38--|--36--38--36--38--36--38--36--38--|
--42--42--42--42--42--42--42--42--|--42--42--42--42--42--42--42--42--|
--49------------------------------|--49------------------------------|
----------------------------------|----------------------------------|
----------------------------------|----------------------------------|
----------------------------------|----------------------------------|


   E   E   E   E   E   E   E   E      E   E   E   E   E   E   E   E   
--36--38--36--38--36--38--36--38--|--36--38--36--38--36--38--36--38--|
--42--42--42--42--42--42--42--42--|--42--42--42--42--42--42--42--42--|
--49------------------------------|--49------------------------------|
----------------------------------|----------------------------------|
----------------------------------|----------------------------------|
----------------------------------|----------------------------------|


   E   E   E   E   E   E   E   E      H.           E.  S  
--36--38--36--38--36--38--36--38--|--36------------L-----|
--42--42--42--42--42--42--42--42--|--38------------L-----|
--49------------------------------|--42------------L-----|
----------------------------------|--49------------L-----|
----------------------------------|----------------------|
----------------------------------|----------------------|


   H.           E.  S     E   E   E   E   E   E   E   E   
--36------------L-----|--36--42--38--42--36--36--38--42--|
--38------------L-----|--42------42------42--42--42------|
--42------------L-----|--49------------------------------|
--49------------L-----|----------------------------------|
----------------------|----------------------------------|
----------------------|----------------------------------|


   E   E   E   E   E   E   E   E      E   E   E   E   E   E   E   E   
--36--42--38--42--36--36--38--42--|--36--42--38--42--36--36--38--42--|
--42------42------42--42--42------|--42------42------42--42--42------|
----------------------------------|--49------------------------------|
----------------------------------|----------------------------------|
----------------------------------|----------------------------------|
----------------------------------|----------------------------------|


   E   E   E   E   E   E   E   E      E   E   E   E   E   E   E   E   
--36--42--38--42--36--36--38--42--|--36--42--38--42--36--36--38--42--|
--42------42------42--42--42------|--42------42------42--42--42------|
----------------------------------|--49------------------------------|
----------------------------------|----------------------------------|
----------------------------------|----------------------------------|
----------------------------------|----------------------------------|


   E   E   E   E   E   E   E   E      E   E   E   E   E   E   E   E   
--36--42--38--42--36--36--38--42--|--36--42--38--42--36--36--38--42--|
--42------42------42--42--42------|--42------42------42--42--42------|
----------------------------------|--49------------------------------|
----------------------------------|----------------------------------|
----------------------------------|----------------------------------|
----------------------------------|----------------------------------|


   E   E   E   E   E   E   E   E      E   E   E   E   E   E   E   E   
--36--42--38--42--36--36--38--42--|--36--42--38--42--36--36--38--42--|
--42------42------42--42--42------|--42------42------42--42--42------|
----------------------------------|--49------------------------------|
----------------------------------|----------------------------------|
----------------------------------|----------------------------------|
----------------------------------|----------------------------------|


   E   E   E   E   E   E   E   E      E   E   E   E   E   E   E   E   
--36--42--38--42--36--36--38--42--|--36--42--38--42--36--36--38--42--|
--42------42------42--42--42------|--42------42------42--42--42------|
----------------------------------|--49------------------------------|
----------------------------------|----------------------------------|
----------------------------------|----------------------------------|
----------------------------------|----------------------------------|


   E   E   E   E   E   E   E   E      E   E   E   E   E   E   E   E   
--36--42--38--42--36--36--38--42--|--36--42--38--42--36--36--38--42--|
--42------42------42--42--42------|--42------42------42--42--42------|
----------------------------------|--49------------------------------|
----------------------------------|----------------------------------|
----------------------------------|----------------------------------|
----------------------------------|----------------------------------|


   E   E   E   E   E   E   E   E      E   E   E   E   E   E   E   E   
--36--42--38--42--36--36--38--42--|--36--42--38--42--36--36--38--42--|
--42------42------42--42--42------|--42------42------42--42--42------|
----------------------------------|--49------------------------------|
----------------------------------|----------------------------------|
----------------------------------|----------------------------------|
----------------------------------|----------------------------------|


   E   E   E   E   E   E   E   E      E   E   E   E   E   E   E   E   
--36--42--38--42--36--36--38--42--|--36--38--36--38--36--38--36--38--|
--42------42------42--42--42------|--42--42--42--42--42--42--42--42--|
----------------------------------|--49------------------------------|
----------------------------------|----------------------------------|
----------------------------------|----------------------------------|
----------------------------------|----------------------------------|


   E   E   E   E   E   E   E   E      E   E   E   E   E   E   
--36--38--36--38--36--38--36--38--|--36--38--36--38--36--38--|
--42--42--42--42--42--42--42--42--|--42--42--42--42--42--42--|
--49------------------------------|--49----------------------|
----------------------------------|--------------------------|
----------------------------------|--------------------------|
----------------------------------|--------------------------|


   E   E   E   E   E   E      E   E   E   E   E   E   E   E   
--36--38--36--38--36--38--|--36--38--36--38--36--38--36--38--|
--42--42--42--42--42--42--|--42--42--42--42--42--42--42--42--|
--49----------------------|--49------------------------------|
--------------------------|----------------------------------|
--------------------------|----------------------------------|
--------------------------|----------------------------------|


   E   E   E   E   E   E   E   E      E   E   E   E   E   E   
--36--38--36--38--36--38--36--38--|--36--38--36--38--36--38--|
--42--42--42--42--42--42--42--42--|--42--42--42--42--42--42--|
--49------------------------------|--49----------------------|
----------------------------------|--------------------------|
----------------------------------|--------------------------|
----------------------------------|--------------------------|


   E   E   E   E   E   E      E   E   E   E   E   E   E   E   
--36--38--36--38--36--38--|--36--38--36--38--36--38--36--38--|
--42--42--42--42--42--42--|--42--42--42--42--42--42--42--42--|
--49----------------------|--49------------------------------|
--------------------------|----------------------------------|
--------------------------|----------------------------------|
--------------------------|----------------------------------|


   E   E   E   E   E   E   E   E      E   E   E   E   E   E   
--36--38--36--38--36--38--36--38--|--36--38--36--38--36--38--|
--42--42--42--42--42--42--42--42--|--42--42--42--42--42--42--|
--49------------------------------|--49----------------------|
----------------------------------|--------------------------|
----------------------------------|--------------------------|
----------------------------------|--------------------------|


   E   E   E   E   E   E      E   E   E   E   E   E   E   E   
--36--38--36--38--36--38--|--36--38--36--38--36--38--36--38--|
--42--42--42--42--42--42--|--42--42--42--42--42--42--42--42--|
--49----------------------|--49------------------------------|
--------------------------|----------------------------------|
--------------------------|----------------------------------|
--------------------------|----------------------------------|


   E   E   E   E   E   E   E   E      E   E   E   E   E   E   
--36--38--36--38--36--38--36--38--|--36--38--36--38--36--38--|
--42--42--42--42--42--42--42--42--|--42--42--42--42--42--42--|
--49------------------------------|--49----------------------|
----------------------------------|--------------------------|
----------------------------------|--------------------------|
----------------------------------|--------------------------|


   E   E   E   E   E   E      E   E   E   E   E   E   E   E   
--36--38--36--38--36--38--|--36--38--36--38--36--38--36--38--|
--42--42--42--42--42--42--|--42--42--42--42--42--42--42--42--|
--49----------------------|--49------------------------------|
--------------------------|----------------------------------|
--------------------------|----------------------------------|
--------------------------|----------------------------------|


   E   E   E   E   E   E   E   E      E   E   E   E   E   E   
--36--38--36--38--36--38--36--38--|--36--38--36--38--36--38--|
--42--42--42--42--42--42--42--42--|--42--42--42--42--42--42--|
--49------------------------------|--49----------------------|
----------------------------------|--------------------------|
----------------------------------|--------------------------|
----------------------------------|--------------------------|


   E   E   E   E   E   E      E   E   E   E   E   E   E   E   
--36--38--36--38--36--38--|--36--38--36--38--36--38--36--38--|
--42--42--42--42--42--42--|--42--42--42--42--42--42--42--42--|
--49----------------------|--49------------------------------|
--------------------------|----------------------------------|
--------------------------|----------------------------------|
--------------------------|----------------------------------|


   E   E   E   E   E   E   E   E      E   E   E   E   E   E   
--36--38--36--38--36--38--36--38--|--36--38--36--38--36--38--|
--42--42--42--42--42--42--42--42--|--42--42--42--42--42--42--|
--49------------------------------|--49----------------------|
----------------------------------|--------------------------|
----------------------------------|--------------------------|
----------------------------------|--------------------------|


   E   E   E   E   E   E      E  T  E  T.  E  T.  E.  X T X  E.  X T X  
--36--38--36--38--36--38--|--36--L-36--L--36--L--36---L-----36---L-----|
--42--42--42--42--42--42--|--38--L-38--L--38--L--38---L-----38---L-----|
--49----------------------|--42--L-42--L--42--L--42---L-----42---L-----|
--------------------------|--49--L-49--L--49--L--49---L-----49---L-----|
--------------------------|--------------------------------------------|
--------------------------|--------------------------------------------|


   E   S  S  E   E   E   E   E   E      E   E   E   E   E   E   E   E   
--36--38-38-36--38--36--38--36--36--|--42--36--38--42--36--42--38--42--|
--38--------38------38------38--38--|------42--42------42------42------|
--------------------------------49--|----------------------------------|
------------------------------------|----------------------------------|
------------------------------------|----------------------------------|
------------------------------------|----------------------------------|


   E   E   E   E   E   E   E   E      E   E   E   E   E   E   E   E   
--42--36--38--42--36--42--38--42--|--42--36--38--42--36--42--38--42--|
------42--42------42------42------|------42--42------42------42------|
----------------------------------|----------------------------------|
----------------------------------|----------------------------------|
----------------------------------|----------------------------------|
----------------------------------|----------------------------------|


   E   S  S  E   E   E   E   E   E      E   E   E   E   E   E   E   E   
--36--38-38-36--38--36--38--36--36--|--42--36--38--42--36--42--38--42--|
--38--------38------38------38--38--|------42--42------42------42------|
--------------------------------49--|----------------------------------|
------------------------------------|----------------------------------|
------------------------------------|----------------------------------|
------------------------------------|----------------------------------|


   E   E   E   E   E   E   E   E      E   E   E   E   E   E   E   E   
--42--36--38--42--36--42--38--42--|--42--36--38--42--36--42--38--42--|
------42--42------42------42------|------42--42------42------42------|
----------------------------------|----------------------------------|
----------------------------------|----------------------------------|
----------------------------------|----------------------------------|
----------------------------------|----------------------------------|


   E   S  S  E   E   E   E   E   E      E   E   E   E   E   E   E   E   
--36--38-38-36--38--36--38--36--36--|--42--36--38--42--36--42--38--42--|
--38--------38------38------38--38--|------42--42------42------42------|
--------------------------------49--|----------------------------------|
------------------------------------|----------------------------------|
------------------------------------|----------------------------------|
------------------------------------|----------------------------------|


   E   E   E   E   E   E   E   E      E   E   E   E   E   E   E   E   
--42--36--38--42--36--42--38--42--|--42--36--38--42--36--42--38--42--|
------42--42------42------42------|------42--42------42------42------|
----------------------------------|----------------------------------|
----------------------------------|----------------------------------|
----------------------------------|----------------------------------|
----------------------------------|----------------------------------|


   E   S  S  E   E   E   E   E   E      E   E   E   E   E   E   E   E   
--36--38-38-36--38--36--38--36--36--|--42--36--38--42--36--42--38--42--|
--38--------38------38------38--38--|------42--42------42------42------|
--------------------------------49--|----------------------------------|
------------------------------------|----------------------------------|
------------------------------------|----------------------------------|
------------------------------------|----------------------------------|


   E   E   E   E   E   E   E   E      E   E   E   E   E   E   E   E   
--42--36--38--42--36--42--38--42--|--42--36--38--42--36--42--38--42--|
------42--42------42------42------|------42--42------42------42------|
----------------------------------|----------------------------------|
----------------------------------|----------------------------------|
----------------------------------|----------------------------------|
----------------------------------|----------------------------------|


   E   S  S  E   E   E   E   E   E      E   E   E   E   E   E   E   E   
--36--38-38-36--38--36--38--36--36--|--42--36--38--42--36--42--38--42--|
--38--------38------38------38--38--|------42--42------42------42------|
--------------------------------49--|----------------------------------|
------------------------------------|----------------------------------|
------------------------------------|----------------------------------|
------------------------------------|----------------------------------|


   E   E   E   E   E   E   E   E      E   E   E   E   E   E   E   E   
--42--36--38--42--36--42--38--42--|--42--36--38--42--36--42--38--42--|
------42--42------42------42------|------42--42------42------42------|
----------------------------------|----------------------------------|
----------------------------------|----------------------------------|
----------------------------------|----------------------------------|
----------------------------------|----------------------------------|


   E   S  S  E   E   E   E   E   E      E   E   E   E   E   E   E   E   
--36--38-38-36--38--36--38--36--36--|--42--36--38--42--36--42--38--42--|
--38--------38------38------38--38--|------42--42------42------42------|
--------------------------------49--|----------------------------------|
------------------------------------|----------------------------------|
------------------------------------|----------------------------------|
------------------------------------|----------------------------------|


   E   E   E   E   E   E   E   E      E   E   E   E   E   E   E   E   
--42--36--38--42--36--42--38--42--|--42--36--38--42--36--42--38--42--|
------42--42------42------42------|------42--42------42------42------|
----------------------------------|----------------------------------|
----------------------------------|----------------------------------|
----------------------------------|----------------------------------|
----------------------------------|----------------------------------|


   E   S  S  E   E   E   E   E   E      E   E   E   E   E   E   E   E   
--36--38-38-36--38--36--38--36--36--|--42--36--38--42--36--42--38--42--|
--38--------38------38------38--38--|------42--42------42------42------|
--------------------------------49--|----------------------------------|
------------------------------------|----------------------------------|
------------------------------------|----------------------------------|
------------------------------------|----------------------------------|


   E   E   E   E   E   E   E   E      E   E   E   E   E   E   E   E   
--42--36--38--42--36--42--38--42--|--42--36--38--42--36--42--38--42--|
------42--42------42------42------|------42--42------42------42------|
----------------------------------|----------------------------------|
----------------------------------|----------------------------------|
----------------------------------|----------------------------------|
----------------------------------|----------------------------------|


   E   S  S  E   E   E   E   E   E      E   E   E   E   E   E   E   E   
--36--38-38-36--38--36--38--36--36--|--42--36--38--42--36--42--38--42--|
--38--------38------38------38--38--|------42--42------42------42------|
--------------------------------49--|----------------------------------|
------------------------------------|----------------------------------|
------------------------------------|----------------------------------|
------------------------------------|----------------------------------|


   E   E   E   E   E   E   E   E      E   E   E   E   E   E   E   E   
--42--36--38--42--36--42--38--42--|--42--36--38--42--36--42--38--42--|
------42--42------42------42------|------42--42------42------42------|
----------------------------------|----------------------------------|
----------------------------------|----------------------------------|
----------------------------------|----------------------------------|
----------------------------------|----------------------------------|


   E   S  S  E   E   E   E   E      E   E   E   E   E   E   E   E   
--36--38-38-36--38--36--38--36--|--36--38--36--38--36--38--36--38--|
--38--------38------38------38--|--42--42--42--42--42--42--42--42--|
--------------------------------|--49------------------------------|
--------------------------------|----------------------------------|
--------------------------------|----------------------------------|
--------------------------------|----------------------------------|


   E   E   E   E   E   E   E   E      E   E   E   E   E   E   E   E   
--36--38--36--38--36--38--36--38--|--36--38--36--38--36--38--36--38--|
--42--42--42--42--42--42--42--42--|--42--42--42--42--42--42--42--42--|
--49------------------------------|--49------------------------------|
----------------------------------|----------------------------------|
----------------------------------|----------------------------------|
----------------------------------|----------------------------------|


   E   E   E   E   E   E   E   E      E   E   E   E   E   E   E   E   
--36--49--38--36--49--36--38--36--|--36--38--36--38--36--38--36--38--|
----------------------------------|--42--42--42--42--42--42--42--42--|
----------------------------------|--49------------------------------|
----------------------------------|----------------------------------|
----------------------------------|----------------------------------|
----------------------------------|----------------------------------|


   E   E   E   E   E   E   E   E      E   E   E   E   E   E   E   E   
--36--38--36--38--36--38--36--38--|--36--38--36--38--36--38--36--38--|
--42--42--42--42--42--42--42--42--|--42--42--42--42--42--42--42--42--|
--49------------------------------|--49------------------------------|
----------------------------------|----------------------------------|
----------------------------------|----------------------------------|
----------------------------------|----------------------------------|


   E   E   E   E   E   E   E   E      E   E   E   E   E   E   E   E   
--36--49--38--36--49--36--38--36--|--36--38--36--38--36--38--36--38--|
----------------------------------|--42--42--42--42--42--42--42--42--|
----------------------------------|--49------------------------------|
----------------------------------|----------------------------------|
----------------------------------|----------------------------------|
----------------------------------|----------------------------------|


   E   E   E   E   E   E   E   E      E   E   E   E   E   E   E   E   
--36--38--36--38--36--38--36--38--|--36--38--36--38--36--38--36--38--|
--42--42--42--42--42--42--42--42--|--42--42--42--42--42--42--42--42--|
--49------------------------------|--49------------------------------|
----------------------------------|----------------------------------|
----------------------------------|----------------------------------|
----------------------------------|----------------------------------|


   E   E   E   E   E   E   E   E      E   E   E   E   E   E   E   E   
--36--49--38--36--49--36--38--36--|--36--38--36--38--36--38--36--38--|
----------------------------------|--42--42--42--42--42--42--42--42--|
----------------------------------|--49------------------------------|
----------------------------------|----------------------------------|
----------------------------------|----------------------------------|
----------------------------------|----------------------------------|


   E   E   E   E   E   E   E   E      E   E   E   E   E   E   E   E   
--36--38--36--38--36--38--36--38--|--36--38--36--38--36--38--36--38--|
--42--42--42--42--42--42--42--42--|--42--42--42--42--42--42--42--42--|
--49------------------------------|--49------------------------------|
----------------------------------|----------------------------------|
----------------------------------|----------------------------------|
----------------------------------|----------------------------------|


   E   E   E   E   E   E   E   E      H.           E.  S  
--36--49--38--36--49--36--38--36--|--36------------L-----|
----------------------------------|--38------------L-----|
----------------------------------|--42------------L-----|
----------------------------------|--49------------L-----|
----------------------------------|----------------------|
----------------------------------|----------------------|


   Q.     S S  Q.     S S     Q.     S S  Q.     S S     H.           E.  S  
--36------L---37------L---|--36------L---37------L---|--36------------L-----|
--38------L---38------L---|--38------L---38------L---|--38------------L-----|
--42------L---42------L---|--42------L---42------L---|--42------------L-----|
--49------L---49------L---|--49------L---49------L---|--49------------L-----|
--------------------------|--------------------------|----------------------|
--------------------------|--------------------------|----------------------|


  W                    E   E   E   E   E   E   E   E   
-------------------|--36--38--36--38--36--38--36--38--|
-------------------|--42--42--42--42--42--42--42--42--|
-------------------|--49------------------------------|
-------------------|----------------------------------|
-------------------|----------------------------------|
-------------------|----------------------------------|


   E   E   E   E   E   E   E   E      E   E   E   E   E   E   E   E   
--36--38--36--38--36--38--36--38--|--36--38--36--38--36--38--36--38--|
--42--42--42--42--42--42--42--42--|--42--42--42--42--42--42--42--42--|
--49------------------------------|--49------------------------------|
----------------------------------|----------------------------------|
----------------------------------|----------------------------------|
----------------------------------|----------------------------------|


   H.           E.  S     H.           E.  S     H.           E.  S   
--36------------L-----|--36------------L-----|--36------------L-----||
--38------------L-----|--38------------L-----|--38------------L-----||
--42------------L-----|--42------------L-----|--42------------L-----||
--49------------L-----|--49------------L-----|--49------------L-----||
----------------------|----------------------|----------------------||
----------------------|----------------------|----------------------||


Drums Legend:
---------------
38...Snare
40...Electric Snare
36...Bass Drum
35...Acoustic Bass Drum
41...Low Floor Tom
43...High Floor Tom
45...Low Tom
47...Low-Mid Tom
48...Hi-Mid Tom

42...Closed Hi Hat
44...Pedal Hi Hat
46...Open Hi Hat
51...Ride Cymbal 1
59...Ride Cymbal 2
49...Crash Cymbal 1
52...Chinese Cymbal
57...Crash Cymbal 2
55...Splash Cymbal

Duration Legend
---------------
W - whole
H - half
Q - quarter
E - 8th
S - 16th
T - 32nd
X - 64th
. - note dotted
|-n-|  - n-tuplets


Tablature Legend
----------------
L - tied note
x - dead note
g - grace note
(n) - ghost note
> - accentuded note
NH - natural harmonic
AH - artificial harmonic
TH - tapped harmonic
SH - semi harmonic
PH - pitch harmonic
h - hammer on
p - pull off
b - bend
br - bendRelease
pb - preBend
pbr - preBendRelease
brb - bendReleaseBend
\n/ - tremolo bar dip
\n - tremolo bar dive
-/n - tremolo bar Release up
/n\ - tremolo bar inverted dip
/n - tremolo bar return
-\n - tremolo bar Release down
S - shift slide
s - legato slide
/ -  slide into from below or out of upwards
\ -  slide into from above or out of downwards
~ - vibrato
W - wide vibrato
tr - trill
TP - tremolo picking
T - tapping
S - slap
P - pop
< - fade in
^ - brush up
v - brush down
comments
We did not receive enough feedback on this tab! Please rate:
print report bad tab
1 2 3 4 5
I want to post or [tab]
guest
You may want to rate the tab now too:
select rating
Please do not post tabs as comments. Select "correction" instead!