Oops, an error
Loading. Please wait.

Disposable Heroes Tab

ver4
ver4
More versions @911Tabs.com
2,135 views 6 this week
1 commentread comment
1 2 3 4 5
excellent!
x 2
Autoscroll
+/-
esc
set tempo
stop
Contributor
Difficulty
advanced
Hey! There's an official Ultimate Guitar app which is ideal
for learning songs when you're away from computer. Get the app
WARNING: You are trying to view
                                    content from Ultimate-Guitar.com
                                    in an unauthorized application,
                                    which is prohibited.

                                    Please use an official Ultimate
                                    Guitar Tabs application for iPhone,
                                    iPad or Android to access legitimate
                                    chords, guitar, bass, and drum tabs
                                    from Ultimate-Guitar.com database.

                                    Type "ultimate guitar tabs" in Apple
                                    App Store's or Android Market's
                                    search to find the application.
================================================================================
                               M E T A L L I C A

                                       -

                       D I S P O S A B L E   H E R O E S
================================================================================


                                MASTER OF PUPPETS
               (c) Elektra/Music For Nations/Vertigo Records (1986)
                             http://www.metallica.com/


                                 Standard Tuning
                                   E A D G B E

                                 Tempo = 102 BPM
                            Time Signature = 3/4 (Varies)



                          -----------------------------
                                 Transcribed by

                                 PADDY MCMULLAN
                           pmtabs (@t) gmail [dot] com

                         Version 1.0 [17th October 2012]

                                   Date Tabbed
                                17th October 2012
                             -----------------------

                             Tablature Symbols Used:


 (/)       -  Legato Slide (Blank space indicates length of slide)
 \         -  Slide Down to/Down From
 /         -  Slide Up to/Up From
 ( )       -  Ghost Note/Tied Note/Implied Note
 REST      -  Rest and sustain rest for duration of blank space
 |_3_|     -  Triplet Notes
 P.M...    -  Palm Mute
 5b6       -  Bend
 6r5       -  Release Bend
 13b'      -  Quarter Note Bend
 5~~       -  Vibrato
 x         -  Dead Note/Muted Note
 5h7       -  Hammer-On
 7p5       -  Pull-Off
 <8>       -  Pinch/Artificial Harmonic
 *         -  Staccato Notes (Bring the indicated note(s) to an abrupt end)
 T         -  Left-hand Tapping



================================================================================
Intro: Guitars 1, 2, Lead Guitar 1 & Lead Guitar 2        [ Time 00:00 - 00:33 ]
================================================================================


--------------
Guitars 1 & 2:
--------------


| |-----------------------|-----------------------|
| |-----------------------|-----------------------|
|3|-----------------------|-----------------------|
|/|-----------------------|-----------------------|
|4|--------------4--5--4--|--------------5--7\ 4--|
| |--0-0-0-0-0-0-2--3--2--|--0-0-0-0-0-0-3--5\ 2--|
     ...........             ...........

|-----------------------|------------------| |
|-----------------------|------------------| |
|-----------------------|------------------|*|
|-----------------------|--------------9---|*| x 3
|--------------4--5--4--|--------------7---| |
|--0-0-0-0-0-0-2--3--2--|--0-0-0-0-0-0-----| |
   ...........             ...........

||-----------------------|-----------------------|
||-----------------------|-----------------------|
||-----------------------|-----------------------|
||-----------------------|-----------------------|
||--------------4--5--4--|--------------5--7\ 4--|
||--0-0-0-0-0-0-2--3--2--|--0-0-0-0-0-0-3--5\ 2--|
    ...........             ...........

|-----------------------|------------------------|---------------|
|-----------------------|------------------------|---------------|
|-----------------------|------------------------|---------------|
|-----------------------|--------------------2---|--(2)----------|
|--------------4--5--4--|--------------------2---|--(2)----------|
|--0-0-0-0-0-0-2--3--2--|--0-0-0-0-0-0-0-0-0-0---|--(0)----------|
   ...........             .................

|---------------||
|---------------||
|---------------||
|--(2)----------||
|--(2)----------||
|--(0)----------||



-------------------
Lead Guitars 1 & 2: with wha
-------------------


Rest for 8 bars


||--------------------------|---------------------------|
||--------------------------|---------------------------|
||--------------------------|---------------------------|
||--9-9-9-9-9-9-11--12--11--|--9-9-9-9-9-9 /12 /14 \11--|
||--7-7-7-7-7-7-9---10--9---|--7-7-7-7-7-7 /10 /12 \9---|
||--------------------------|---------------------------|


|--------------------------|----------------------------|
|--------------------------|----------------------------|
|--------------------------|----------------------------|
|--9-9-9-9-9-9-11--12--11--|--9-9-9-9-9-9-9-9----12-- \ |
|--7-7-7-7-7-7-9---10--9---|--7-7-7-7-7-7-7-7-10-10-- \ |
|--------------------------|----------------------------|
                                              ..

|--------------------------|---------------------------|
|--------------------------|---------------------------|
|--------------------------|---------------------------|
|--9-9-9-9-9-9-11--12--11--|--9-9-9-9-9-9 /12 /14 \11--|
|--7-7-7-7-7-7-9---10--9---|--7-7-7-7-7-7 /10 /12 \9---|
|--------------------------|---------------------------|


|--------------------------|------------------------|---------------|
|--------------------------|------------------------|---------------|
|--------------------------|------------------------|---------------|
|--9-9-9-9-9-9-11--12--11--|--9-9-9-9-9-9-9-9-9-9---|--(9)----------|
|--7-7-7-7-7-7-9---10--9---|--7-7-7-7-7-7-7-7-7-7---|--(7)----------|
|--------------------------|--------------------0---|--(0)----------|


|---------------||
|---------------||
|---------------||
|--(9)----------||
|--(7)----------||
|--(0)----------||



================================================================================
Part 1:  Guitars 1, 2 & Lead Guitar 1                     [ Time 00:33 - 01:16 ]
================================================================================


--------------
Guitars 1 & 2:
--------------


Guitar 2 joins in on the 5th repeat


|_____________________________________________________[1 - 15]
| |--------------------------------------------------------| |
| |--------------------------------------------------------| |
|4|--------------------------------------------------------|*|
|/|--------------------------------------------------------|*| x 16
|4|--------------------------------------------------------| |
| |--0--0-0-0--0--0--0--0-0-0-0-0--0-0-0--0--0--0--0-0-0-0-| |
     .....................................................


|______________________________________________________[16]
|--------------------------------------------------------||
|--------------------------------------------------------||
|--------------------------------------------------------||
|--------------------------------------------------------||
|--------------------------------------------------------||
|--0--0-0-0--0--0--0--0-0-0-0-0--0-0-0--0--0--0--0-0-1 / ||
   .................................................



--------------
Lead Guitar 1:
--------------


Rest for 8 bars


||-----------------------|-----------------------|-----------------------|
||-----------------------|-----------------------|-----------------------|
||--7------------- / 9 \ |--6------------- / 9 \ |--5------------- / 7 \ |
||--5------------- / 7 \ |--4------------- / 7 \ |--3------------- / 5 \ |
||-----------------------|-----------------------|-----------------------|
||-----------------------|-----------------------|-----------------------|


|----------------------|-----------------------|-----------------------|
|----------------------|-----------------------|-----------------------|
|--4---------------- / |--7------------- / 9 \ |--6------------- / 9 \ |
|--2---------------- / |--5------------- / 7 \ |--4------------- / 7 \ |
|----------------------|-----------------------|-----------------------|
|----------------------|-----------------------|-----------------------|


|-----------------------|-------------------||
|-----------------------|-------------------||
|--5------------- / 7 \ |--4----------------||
|--3------------- / 5 \ |--2----------------||
|-----------------------|-------------------||
|-----------------------|-------------------||



================================================================================
Part 2:  Guitars 1 & 2                                    [ Time 01:16 - 01:27 ]
================================================================================


||----------------------------------------------------------------| |
||----------------------------------------------------------------| |
||----------------------------------------------------------------|*|
||--6-------------(6)--------------6-------------(6)--------------|*| x 3
||--4--4-4-4-4-4-4-5p4-4-4-4-4-4-4-4--4-4-4-4-4-4-5p4-4-4-4-4-4-4-| |
||----------------------------------------------------------------| |
       ...........     ...........    ...........     ...........


                           |__3__|  |__3__|
|--------------------------------------------||
|--------------------------------------------||
|--------------------------------------------||
|-----5 p4-----4--------------------7--6--4--||
|--0--------0-----7--5--4--5--4--2--5--4--2--||
|--------------------------3--2--0-----------||
  ...      ...    ......................



================================================================================
Part 3:  Guitars 1 & 2                                    [ Time 01:27 - 01:59 ]
================================================================================


||--------------------------------------------------------| |
||--------------------------------------------------------| |
||--------------------------------------------------------|*|
||--------------------------------------------------------|*| x 4
||--------------------------------------------------------| |
||--0--0-0-0--0--0--0--0-0-0-0-0--0-0-0--0--0--0--0-0-0-0-| |
    .....................................................


||--------------------------------------------------------|
||--------------------------------------------------------|
||--------------------------------------------------------|
||--------------------------------------------------------|
||--------------------------------------------------------|
||--0--0-0-0--0--0--0--0-0-0-0-0--0-0-0--0--0--0--0-0-0-0-|
    .....................................................


|--------------------------------------------------------|
|--------------------------------------------------------|
|--------------------------------------------------------|
|--------------------------------------------------------|
|--------------------------------------------------------|
|--3--3-3-3--3--3--3--3-3-3-3-2--2-2-2--2--2--2--2-2-2-2-|
   .....................................................


|--------------------------------------------------------|
|--------------------------------------------------------|
|--------------------------------------------------------|
|--------------------------------------------------------|
|--------------------------------------------------------|
|--0--0-0-0--0--0--0--0-0-0-0-0--0-0-0--0--0--0--0-0-0-0-|
   .....................................................


|________________________________________________________[1]
|--------------------------------------------------------| |
|--------------------------------------------------------| |
|--------------------------------------------------------|*|
|--------------------------------------------------------|*| x 2
|-----------------------------2--2-2-2--2--2--2--2-2-2-2-| |
|--3--3-3-3--3--3--3--3-3-3-3----------------------------| |
   .....................................................


|_______________________________________________________[2]
|--------------------------------------------------------||
|--------------------------------------------------------||
|--------------------------------------------------------||
|--------------------------------------------------------||
|--------------------------------------------------------||
|--0--0-0-0--0--0--0--0-0-0-0-0--0-0-0--0--0--0--0-0-0-0-||
   .....................................................



Bodies fill the fields I see
Hungry hero's end
No one to play soldier now
No one to pretend

Running blind through killings fields
Bred to kill them all
Victim of what said should be
A servant til I fall



================================================================================
Part 4: Guitars 1, 2 & Lead Guitar 1                      [ Time 01:59 - 02:30 ]
================================================================================


--------------
Guitars 1 & 2:
--------------


| |----------------------------------------------------------------|
| |----------------------------------------------------------------|
|4|----------------------------------------------------------------|
|/|--6-------------(6)--------------6-------------(6)--------------|
|4|--4--4-4-4-4-4-4-5p4-4-4-4-4-4-4-4--4-4-4-4-4-4-5p4-4-4-4-4-4-4-|
| |----------------------------------------------------------------|
        ...........     ...........    ...........     ...........

| |-------------------------------------------------| |
| |-------------------------------------------------| |
|3|-------------------------------------------------|*|
|/|--6-------------(6)------4-------------(4)-------|*| x 4
|4|--4--4-4-4-4-4-4-5p4-4-4\2--2-2-2-2-2-2-3p2-2-2 /| |
| |-------------------------------------------------| |
        ...........     ...    ...........     ...



On the last repeat ignore the final slide


| |----------------------------------------------------------------|
| |----------------------------------------------------------------|
|4|----------------------------------------------------------------|
|/|--4-------------(4)--------------4-------------(4)--------------|
|4|--2--2-2-2-2-2-2-3p2-2-2-2-2-2-2-2--2-2-2-2-2-2-3p2-2-2-2-2-2-2-|
| |----------------------------------------------------------------|
        ...........     ...........    ...........     ...........


| |------------------------------------------------| |
| |------------------------------------------------| |
|3|------------------------------------------------|*|
|/|--4-------------(4)----2---------------(2)------|*| x 2
|4|--2--2-2-2-2-2-2-3p2-2-0--0-0-0-0-0-0-0-1p0-0-0-| |
| |------------------------------------------------| |
        ...........          .............     ...

     |___3___|
| |------------------------------------------------||
| |------------------------------------------------||
|4|------------------------------------------------||
|/|--4---3---4---5----4----------------------------||
|4|--2---1---2---3----2----2--2-2-2--2--2--2--2--5-||
| |------------------------0--0-0-0--0--0--0--0--3-||
     .........             ....................



--------------
Lead Guitar 1:
--------------


This part is played with an octave pedal.  The written notes are doubled one
octave higher.


Rest for 8 bars before joining in


| |----------------------------------------------|
| |----------------------------------------------|
|4|--4---(5p4\2)---(2/4h5p4)---(5p4\2)---(2/4h5p |
|/|----------------------------------------------|
|4|----------------------------------------------|
| |----------------------------------------------|


| |---------------------------------------------------------|
| |---------------------------------------------------------|
|3| 4)---(5p4\2)----(5 p4 h5 p4\3h4 p3 h4 p2 h3 p2\1 h2 p0)-|
|/|---------------------------------------------------------|
|4|---------------------------------------------------------|
| |---------------------------------------------------------|


| |----------------------------------------------|
| |----------------------------------------------|
|4|--4---(5p4\2)---(2/4h5p4)---(5p4\2)---(2/4h5p |
|/|----------------------------------------------|
|4|----------------------------------------------|
| |----------------------------------------------|


| |------------------------------------------------------||
| |-----------------------(5)----------------------------||
|3| 4)---(5p4\2)----(5 p4 h5 p4 h5p4\3 h4 p3 h4 p2 2p0)--||
|/|------------------------------------------------------||
|4|------------------------------------------------------||
| |------------------------------------------------------||



Soldier boy, made of clay
Now an empty shell
Twenty-one, only son
But he served us well
Bred to kill, not to care
Do just as we say
Finished here, greeting death
He's yours to take away



================================================================================
Part 5: Guitars 1 & 2                                     [ Time 02:30 - 02:51 ]
================================================================================


| |-----------------------------|---------------------------------------| |
| |-----------------------------|---------------------------------------| |
|4|-----------*------------*----|---------------------------------------|*|
|/|-----------3------------2----|---------------------------------------|*| x 3
|4|--(5)------1--4---------0--3-|--(3)------5---2--2-2-2--2--2--2--2--5-| |
| |--(3)---------2------------1-|--(1)------3---0--0-0-0--0--0--0--0--3-| |
                                                ....................


||-----------------------------| |--------------------------------------------||
||-----------------------------| |----------------------------------------  --||
||-----------*------------*----|5|----------------------------------------  --||
||-----------3------------2----|/|----------------------------------------  --||
||--(5)------1--4---------0--3-|4|--(3)------5---2--2-2-2--2--2--2--2--2--  --||
||--(3)---------2------------1-| |--(1)------3---0--0-0-0--0--0--0--0--0------||
                                                 .......................



Back to the front
You will do what I say when I say
Back to the front
You will die when I say you must die
Back to the front
You coward
You servant
You blind man



================================================================================
Part 6: Repeat Part 3                                     [ Time 02:51 - 03:13 ]
================================================================================


Barking of machine gun fire
Does nothing to me now
Sounding of the clock that ticks
Get used to it somehow
More a man, more stripes you wear
Glory seeker trends
Bodies fill the fields I see
The slaughter never ends



================================================================================
Part 7: Repeat Part 4 with the following variations:      [ Time 03:13 - 03:44 ]
================================================================================


--------------
Lead Guitar 1:
--------------


Replace bars 2 and 4 with the following:

                                                         |__3__|
| |---------------------------------------------------------------|
| |---------------------------------------------------------------|
|3| 4)---(5p4\2)----(5 p4 h5 p4\3 h4 p3 h4 p3\2 h3 p2\1 h2 p1 p0)-|
|/|---------------------------------------------------------------|
|4|---------------------------------------------------------------|
| |---------------------------------------------------------------|

                                                 |_3_|
| |-------------------------------------------------------|
| |-------------------------------------------------------|
|3| 4)---(5p4\2)----(5 p4 h5 p4\3 h4 p3 h4 p3\2 h3  p2p0)-|
|/|-------------------------------------------------------|
|4|-------------------------------------------------------|
| |-------------------------------------------------------|



================================================================================
Part 8: Repeat Part 5 with the following variation        [ Time 03:44 - 04:06 ]
================================================================================


Add the following bar to the end of Part 5:


| |---------------------------||
| |---------------------------||
|2|---------------------------||
|/|---------------------------||
|4|--2--2-2-2--2--2--2--2--2--||
| |--0--0-0-0--0--0--0--0--0--||
     .......................



================================================================================
Part 9: Guitars 1 & 2                                     [ Time 04:06 - 04:26 ]
================================================================================


| |--------------------------------|---------------------------------|
| |--------------------------------|---------------------------------|
|4|--------------------------------|---------------------------------|
|/|--------------------------------|---------------------------------|
|4|--7 \---7- -----5- -----4p2-----|--2-----7- -----5- -----4p2-2----|
| |--0---0-5p0-3-0-3p0-3-0-2p0-2-0-|--0---0-5p0-3-0-3p0-3-0-2p0-0----|
         .     ...     ...     ...        .     ...     ...

|---------------------------------|----------------------------------|
|---------------------------------|----------------------------------|
|---------------------------------|----------------------------------|
|---------------------------------|----------------------------------|
|--2-----7- -----5- -----4p2------|---2-----7- -----5- -----4p2-2----|
|--0---0-5p0-3-0-3p0-3-0-2p0-2-0--|---0---0-5p0-3-0-3p0-3-0-2p0-0----|
       .     ...     ...     ...          .     ...     ...

|---------------------------------|----------------------------------|
|---------------------------------|----------------------------------|
|---------------------------------|----------------------------------|
|---------------------------------|----------------------------------|
|--2-----7- -----5- -----4p2------|---2-----7- -----5- -----4p2-2----|
|--0---0-5p0-3-0-3p0-3-0-2p0-2-0--|---0---0-5p0-3-0-3p0-3-0-2p0-0----|
       .     ...     ...     ...          .     ...     ...

|---------------------------------|----------------------------------||
|---------------------------------|----------------------------------||
|---------------------------------|----------------------------------||
|---------------------------------|----------------------------------||
|--2-----7- -----5- -----4p2------|---2-----7- -----5- -----4p2-2----||
|--0---0-5p0-3-0-3p0-3-0-2p0-2-0--|---0---0-5p0-3-0-3p0-3-0-2p0-0----||
       .     ...     ...     ...          .     ...     ...



Guitar 2 has the following variation in the first bar:


| |--------------------------------|
| |--------------------------------|
|4|--------------------------------|
|/|--------------------------------|
|4|--10\---7- -----5- -----4p2-----|
| |--0---0-5p0-3-0-3p0-3-0-2p0-2-0-|
         .     ...     ...     ...  



Why?
Am I dying?
Kill
Have no fear
Lie
Live off lying
Hell
Hell is here



================================================================================
Guitar Solo: Guitars 1, 2, Lead Guitars 1, 2 & 3          [ Time 04:26 - 05:26 ]
================================================================================


--------------
Guitars 1 & 2:
--------------


||----------------------------------|----------------------------------| |
||----------------------------------|----------------------------------| |
||----------------------------------|----------------------------------|*|
||----------------------------------|----------------------------------|*| x 3
||--2------7- -----5- -----4p2------|--2------7- -----5- -----4p2-2----| |
||--0--0-0-5p0-3-0-3p0-3-0-2p0-2-0--|--0--0-0-5p0-3-0-3p0-3-0-2p0-0----| |
       ...     ...     ...     ...        ...     ...     ...

||----------------------------------|---------------------------------|
||----------------------------------|---------------------------------|
||----------------------------------|---------------------------------|
||----------------------------------|---------------------------------|
||--2------7- -----5- -----4p2------|--2------7- -----5- -----4p2-----|
||--0--0-0-5p0-3-0-3p0-3-0-2p0-2-0--|--0--0-0-5p0-3-0-3p0-3-0-2p0-0-0-|
       ...     ...     ...     ...        ...     ...     ...     ...

|-----------------|-----------------------|----------------------------------|
|-----------------|-----------------------|----------------------------------|
|-----------------|-----------------------|----------------------------------|
|--5-----------7--|--5--------5---4-------|----------------------------------|
|--3-----------5--|--3--------3---2-------|--2------7- -----5- -----4p2------|
|-----------------|-------------------3-2-|--0--0-0-5p0-3-0-3p0-3-0-2p0-2-0--|
                                      ...       ...     ...     ...     ...

|---------------------------------|----------------|-----------------------|
|---------------------------------|----------------|-----------------------|
|---------------------------------|----------------|-----------------------|
|---------------------------------|--5----------7--|--5--------5---4-------|
|--2------7- -----5- -----4p2-----|--3----------5--|--3--------3---2-------|
|--0--0-0-5p0-3-0-3p0-3-0-2p0-0-0-|----------------|-------------------3-2-|
      ...     ...     ...     ...                                      ...

|----------------------------------|---------------------------------|
|----------------------------------|---------------------------------|
|----------------------------------|---------------------------------|
|----------------------------------|---------------------------------|
|--2------7- -----5- -----4p2------|--2------7- -----5- -----4p2-----|
|--0--0-0-5p0-3-0-3p0-3-0-2p0-2-0--|--0--0-0-5p0-3-0-3p0-3-0-2p0-0-2-|
      ...     ...     ...     ...        ...     ...     ...     ...

|-------------------------------------|-----------------------------------|
|-------------------------------------|-----------------------------------|
|-------------------------------------|-----------------------------------|
|-------------------------------------|--9--------------------------------|
|-----------12p7-----10p7-----9p7-----|--7------12p7-----10p7-----9p7-----|
|-- /8--8-8------8-8------8-8-----8-8-|--0--8-8------8-8------8-8-----8-8-|
        ...      ...      ...     ...       ...      ...      ...     ...

|----------------------------------|---------------------------------|
|----------------------------------|---------------------------------|
|----------------------------------|---------------------------------|
|----------------------------------|---------------------------------|
|--2------7- -----5- -----4p2------|--2------7- -----5- -----4p2-----|
|--0--0-0-5p0-3-0-3p0-3-0-2p0-2-0--|--0--0-0-5p0-3-0-3p0-3-0-2p0-0-2-|
      ...     ...     ...     ...        ...     ...     ...     ...

|-------------------------------------|-----------------------------------|
|-------------------------------------|-----------------------------------|
|-------------------------------------|-----------------------------------|
|-------------------------------------|--10-------------------------------|
|-----------12p7-----10p7-----9p7-----|--7------12p7-----10p7-----9p7-----|
|-- /8--8-8------8-8------8-8-----8-8-|--8--8-8------8-8------8-8-----8-8-|
        ...      ...      ...     ...       ...      ...      ...     ...

|----------------------------------|---------------------------------||
|----------------------------------|---------------------------------||
|----------------------------------|---------------------------------||
|----------------------------------|---------------------------------||
|--2------7- -----5- -----4p2------|--2------7- -----5- -----4p2-----||
|--0--0-0-5p0-3-0-3p0-3-0-2p0-2-0--|--0--0-0-5p0-3-0-3p0-3-0-2p0-0-0-||
      ...     ...     ...     ...        ...     ...     ...     ...



--------------
Lead Guitar 1:
--------------


||--------------------------------------------------------------12-|
||---15-------15-------15--------15--------------------------12----|
||--(14b16)--(14b16)--(14b16)---(14b16)---14p12------12--(14b16)---|
||-----------------------------------------------14----------------|
||-----------------------------------------------------------------|
||-----------------------------------------------------------------|


|-------------------------12---------------15 p12----|
|--15p12-------12-15p12-0----12--12h15 p12--------12-|
|-------(14b16)--------------------------------------|
|----------------------------------------------------|
|----------------------------------------------------|
|----------------------------------------------------|


|-----12------12---12-------12/19-|
|-(15b17)-(15b17)-(15b17) \-------|
|---------------------------------|
|---------------------------------|
|---------------------------------|
|---------------------------------|


|--(22b24)--(22b24)~~  19-22p19-22p19----19--------19------------|
|-------------------------------------22----(22b24)----22p19-22--|
|-----------(0)------0----(0)------------------------------------|
|-------------------------------------------------(0)------------|
|----------------------------------------------------------------|
|----------------------------------------------------------------|


|-----------19--------------------19-------------------19---------19--19------|
|--(22b25)--0--22p19-22--(22b24)--0--22p19-22-(22b24)--0--(22b24)----(24)~~---|
|--------------(0)--(0)-------------------------------------------------------|
|-----------------------------------------------------------------------------|
|-----------------------------------------------------------------------------|
|-----------------------------------------------------------------------------|


   |__3___|           |___3___|     |___3___|
|--19-20-22-20p19-17--19-(17\15)-15-17-(15\14)-14--|
|--------------------------------------------------|
|--------------------------------------------------|
|--------------------------------------------------|
|--------------------------------------------------|
|--------------------------------------------------|


  |__3___|  |__3____|  |__3___|      |__3__|
|-15-17-14-(15\14)-12-(14p12\10)-10-(12p10\8)-8-|
|-----------------------------------------------|
|-----------------------------------------------|
|-----------------------------------------------|
|-----------------------------------------------|
|-----------------------------------------------|


             |____3__| |_3|  |___3___|
|--8-10-12p8-10 p 8 p7-8p 7------7---------|
|----------------------------10-----10--8\ |
|------------------------------------------|
|------------------------------------------|
|------------------------------------------|
|------------------------------------------|


   T         T         T        T         T           T
|-(12p10p7)-(12p10p7)-(12 p10)-(12p7h10)-(12 p7 h10)-(12 p7h10p0h10)-----|
|---------------------------------------------------------------------9\ |
|------------------------------------------------------------------------|
|------------------------------------------------------------------------|
|------------------------------------------------------------------------|
|------------------------------------------------------------------------|


   Hold bend        |___3____|  |___3____|
|---------------------------------------------------------|
|-------------------*---*---*---*---*---*-----------------|
|--(9  b11)--11-11--11--11--11--11--11--11--(11 r 9)--7-9-|
|---------------------------------------------------------|
|---------------------------------------------------------|
|---------------------------------------------------------|


    |__3___|
|------------------------------------------------------------|
|------------------------------------------------------------|
|--(9b11r9p7)-(0)-7-9p7--------------------------------------|
|--------------9--------9--7---------------------------------|
|-----------------------------9--<8>--<7>--5-(7b9r7b9)-------|
|--------------------------------------------------------5\ -|
                                 < > = Pinch harmonics

   |___3__|
|--15-11------------------------------------------|
|--------13---------------------------------------|
|-----------12-----------------8-(10/12/15)----15-|
|--------------13-12-(10\8)-10--------------------|
|-------------------------------------------------|
|-------------------------------------------------|


   |___3____|  |___3____|  |___3____|        |__3___|
|-----------------------------------------------------|
|--13--13--13--15--15--15--16--16--16 /18-18-18-18-18-|
|-----------------------------------------------------|
|-----------------------------------------------------|
|-----------------------------------------------------|
|-----------------------------------------------------|


                         |___3____|  |_3__|
|----------------------------------------12-|
|---------------------13-13--13--13--15-----|
|-12-12-12-12-14-14-14----------------------|
|-------------------------------------------|
|-------------------------------------------|
|-------------------------------------------|


   |__3___| |__3___| |__3___| |__3___| |__3___| |__3___| |__3___| |__3___|
|--17p12----17p12----17p12----17p12----16p12----16p12----16p12----16p12----|
|--------12-------12-------12-------12-------12-------12-------12-------12-|
|--------------------------------------------------------------------------|
|--------------------------------------------------------------------------|
|--------------------------------------------------------------------------|
|--------------------------------------------------------------------------|


   |__3___| |__3___| |__3___| |__3___| |__3___| |__3___| |__3___| |__3___|
|--17p12----17p12----16p12----16p12----17p12----17p12----16p12----16p12----|
|--------12-------12-------12-------12-------12-------12-------12-------12-|
|--------------------------------------------------------------------------|
|--------------------------------------------------------------------------|
|--------------------------------------------------------------------------|
|--------------------------------------------------------------------------|

                          |____3_____|
|-----------------------------------------------------------------------|
|--(15b17 17)---(15b17)--(17r15)-12----12--15--12h15-(15b17)~~-15p12----|
|---------------(0)-----------------14-------------------------------14-|
|-----------------------------------------------------------------------|
|-----------------------------------------------------------------------|
|-----------------------------------------------------------------------|

                   |_____3____|                 Hold bend
|-----(15b17  17)-(15b17)-12----------------------------------|
|--12------------------------15-12--------------0-------------|
|----------------------------------14-12----12-(14b16)---16\ -|
|----------------------------------------14-------------------|
|-------------------------------------------------------------|
|-------------------------------------------------------------|


|-------------------------------------|-----------------------------------17- \|
|-------------------------------------|--------------------------17-15-14------|
|-------------------------------------|------------------16-14-0---------------|
|--4-2-0-5-4-0-7-5-9-7-0-10-9-0-12-10-|--14-12-0-16-14-0-----------------------|
|-------------------------------------|----------------------------------------|
|-------------------------------------|----------------------------------------|
   ..................................    .......................


|------------------------------------------------|
|--------------13---------15---------17----------|
|-- /12--12-12----12~~-12----12~~-12----12-12-12-|
|------------------------------------------------|
|------------------------------------------------|
|------------------------------------------------|


|------------------------------------(15b17  r15)-|
|-------------13---------15----------(15b17  r15)-|
|--12~~-12-12----12~~-12----12~~-12---------------|
|-------------------------------(0)---------------|
|-------------------------------------------------|
|-------------------------------------------------|


   |__3___| |__3___| |__3__| |__3___| |__3___| |__3___| |___3__| |___3___|
|--15p12----12---------------------------------------------------------12-|
|--------15----15-12-15p12---12----12-15p12-------------------------------|
|----------(0)------------14----14----------14-12----12-14p12-------------|
|-------------------------------------------------14----------14-12-14----|
|-------------------------------------------------------------------------|
|-------------------------------------------------------------------------|


   |__3___| |__3___| |__3___| |__3___|  |________3____|
|--15p12----------------------------------------------------------|
|--------15-12----12-15p12----------------------------------------|
|--------------14----------14-12----12-(14b16')--14--12-----------|
|--------------------------------14----------------------14~~-- \-|
|-----------------------------------------------------------------|
|-----------------------------------------------------------------|


|------------------------------------------------|
|--------------13---------15---------17----------|
|-- /12--12-12----12~~-12----12~~-12----12-12-12-|
|------------------------------------------------|
|------------------------------------------------|
|------------------------------------------------|


|-----------------------------------(15b17  r15)-|
|-------------13---------15----------------------|
|--12~~-12-12----12~~-12----12~~-12--------------|
|------------------------------------------------|
|------------------------------------------------|
|------------------------------------------------|


   |__3___| |__3___| |__3___| |__3_____|
|--15p12----12-----------------------(14 |
|--------15-0--15-12-15-12----12---------|
|--------------------------14----14/-----|
|----------------------------------------|
|----------------------------------------|
|----------------------------------------|


                        |__3___| |__3____|
| h17 p15p14h15 p14)-------14---------------------|
|--------------------17-17----17-15h17-(17p15\14)-|
|-------------------------------------------------|
|-------------------------------------------------|
|-------------------------------------------------|
|-------------------------------------------------|


|--19p17p15----------21-21p19p17--------22--22-21p19---------(22b25)--(22b24)--|
|------------19p17p16-----------21p19p17------------22-21p19-------------------|
|------------------------------------------------------------------------------|
|------------------------------------------------------------------------------|
|------------------------------------------------------------------------------|
|------------------------------------------------------------------------------|


||--(22b24)-- \------------||
||-------------------------||
||-------------------------||
||-------------------------||
||-------------------------||
||-------------------------||



--------------
Lead Guitar 2: Left channel
--------------


Rest for 6 bars


             |__3___|  |__3___|   |__3___|   |__3___|
||-----------17-19-20-(19p17\15)-(17p15\13)-(15p13\12)-|
||--       --------------------------------------------|
||--       --------------------------------------------|
||--       --------------------------------------------|
||--       --------------------------------------------|
||-----------------------------------------------------|

                |__3___| |__3___| |_3__|
|--12h13-15-15-(13p12\10\8)-12-10-8-10-8-7----------||
|-------------------------------------------      --||
|-------------------------------------------      --||
|-------------------------------------------      --||
|-------------------------------------------      --||
|---------------------------------------------------||



On the 21st bar play the following:


||--------------------------------------------|
||--------------------------------------------|
||----------------------16--------14----------|
||--14--14-14-17-14--14----14--14----14-14-14-|
||--------------------------------------------|
||--------------------------------------------|


|------------------------------------||
|-----------------------------     --||
|----------------------16-----     --||
|--14--14-14-17-14--14----14--     --||
|-----------------------------     --||
|------------------------------------||



--------------
Lead Guitar 3: Right channel
--------------


Rest for 7 bars


    |__3___|  |__3___|   |__3___|   |__3___|
||--17-19-20-(19p17\15)-(17p15\13)-(15p13\12)---------||
||---------------------------------------------     --||
||---------------------------------------------     --||
||---------------------------------------------     --||
||---------------------------------------------     --||
||----------------------------------------------------||



================================================================================
Part 10: Repeat Part 9 with the following variation       [ Time 05:25 - 05:50 ]
================================================================================


Add the following bars to the end of Part 9:


| |---------------------------| |-------------------|
| |---------------------------| |--               --|
|2|---------------------------|4|--               --|
|/|---------------------------|/|--               --|
|4|--2--2-2-2--2--2--2--2--2--|4|--               --|
| |--0--0-0-0--0--0--0--0--0--| |-------------------|
     .......................

|--------------------------------------------------||
|--------------------------------------------------||
|--------------------------------------------------||
|--------------------------------------------------||
|--5--5--5--5--5--5--5--5--5--5--5--5--5--5--5--5--||
|--3--3--3--3--3--3--3--3--3--3--3--3--3--3--3--3--||
   ..............................................



Why?
Am I dying?
Kill
Have no fear
Lie
Live off lying
Hell
Hell is here
I was born for dying



================================================================================
Part 11:  Repeat Part 2                                   [ Time 05:50 - 06:01 ]
================================================================================

================================================================================
Part 12:  Repeat Part 3                                   [ Time 06:01 - 06:23 ]
================================================================================


Life planned out before my birth, nothing could I say
Had no chance to see myself, moulded day by day
Looking back I realise, nothing have I done
Left to die with only friend
Alone I clench my gun



================================================================================
Part 13: Repeat Part 4 with the following variations      [ Time 06:23 - 06:56 ]
================================================================================


--------------
Guitars 1 & 2:
--------------


Replace the last bar with the following:


     |___3___|              |___3___|
| |-----------------------------------------------| |--------------------------|
| |-----------------------------------------------| |--------------------------|
|4|-----------------------------------------------|3|--------------------------|
|/|--4---3---4---5----4-----5---4---5---7----8----|/|--9-----------------------|
|4|--2---1---2---3----2--0--3---2---3---5----6----|4|--7------2--2--2--2--2--5-|
| |-----------------------------------------------| |-----0-0-0--0--0--0--0--3-|
     .........           ............                     .................



--------------
Lead Guitar 1:
--------------


Replace bars 2 and 4 with the following:


| |---------------------------------------------------------||
| |---------------------------------------------------------||
|3| 4)---(5p4\2)----(5 p4 h5 4 h5 p3 h4 p3\2 h3 p2\1 h2 p0)-||
|/|---------------------------------------------------------||
|4|---------------------------------------------------------||
| |---------------------------------------------------------||


| |------------------------------------------------------------||
| |------------------------------------------------------------||
|3| 4)---(5p4\2)----(5 p4 h5 p4\3 h4 p3 h4 p3\2 h3 p2\1 h2 p0)-||
|/|------------------------------------------------------------||
|4|------------------------------------------------------------||
| |------------------------------------------------------------||



================================================================================
Part 14:  Guitars 1, 2 & Lead Guitars 1 & 2               [ Time 06:56 - 07:38 ]
================================================================================


--------------
Guitars 1 & 2:
--------------


| |-----------------------------|---------------------------------------| |
| |-----------------------------|---------------------------------------| |
|4|-----------*------------*----|---------------------------------------|*|
|/|-----------3------------2----|---------------------------------------|*| x 7
|4|--(5)------1--4---------0--3-|--(3)------5---2--2-2-2--2--2--2--2--5-| |
| |--(3)---------2------------1-|--(1)------3---0--0-0-0--0--0--0--0--3-| |
                                                ....................


||-----------------------------|  |-------------------------------------||
||-----------------------------|  |-------------------------------------||
||-----------*------------*----|15|-------------------------------------||
||-----------3------------2----|/ |-------------------------------------||
||--(5)------1--4---------0--3-|16|--(3)------5---2--2-2-2--2--2--2--2--||
||--(3)---------2------------1-|  |--(1)------3---0--0-0-0--0--0--0--0--||
                                                  ....................


--------------
Lead Guitar 1:
--------------


Rest for 7 bars


||----------------------|----------------------------------|
||--               -----|----------------------------------|
||--               --12-|--(12)---- /15--11------ /14 \ 10-|
||--               --x--|------------x---x---------x----x--|
||--               --10-|--(10)---- /13--9------- /12 \ 8--|
||----------------------|----------------------------------|

|-------------------------------|----------------------------------|
|-------------------------------|----------------------------------|
|--(10)---- /12---9-------- /12-|--(12)---- /15--11------ /14 \ 10-|
|------------x----x----------x--|------------x---x---------x----x--|
|--(8)----- /10---7-------- /10-|--(10)---- /13--9------- /12 \ 8--|
|-------------------------------|----------------------------------|

|-------------------------------|----------------------------------|
|-------------------------------|----------------------------------|
|--(10)---- /12---9-------- /12-|--(12)---- /15--11------ /14 \ 10-|
|------------x----x----------x--|------------x---x---------x----x--|
|--(8)----- /10---7-------- /10-|--(10)---- /13--9------- /12 \ 8--|
|-------------------------------|----------------------------------|

|-------------------------------|----------------------------------|
|-------------------------------|----------------------------------|
|--(10)---- /12---9-------- /12-|--(12)---- /15--11------ /14 \ 10-|
|------------x----x----------x--|------------x---x---------x----x--|
|--(8)----- /10---7-------- /10-|--(10)---- /13--9------- /12 \ 8--|
|-------------------------------|----------------------------------|

|  |-------------------------||
|  |-------------------------||
|15|--(10)---- /12---9-------||
|/ |------------x----x-------||
|16|--(8)----- /10---7-------||
|  |-------------------------||



--------------
Lead Guitar 2:
--------------


Rest for 7 bars


||-------------------|---------------------------|-----------------------------|
||--       ---8------|--(8)------7---------6-----|--(6)------5----------8------|
||--       --(10b12)-|--(12)----(9b11)----(8b10)-|--(10)----(7b9)------(10b12)-|
||--       ----------|---------------------------|-----------------------------|
||--       ----------|---------------------------|-----------------------------|
||-------------------|---------------------------|-----------------------------|

|---------------------------|----------------------------|
|--(8)------7---------6-----|--(6)------5---------11-----|
|--(12)----(9b11)----(8b10)-|--(10)----(7b9)-----(13b15)-|
|---------------------------|----------------------------|
|---------------------------|----------------------------|
|---------------------------|----------------------------|

|-----------------------------|
|--(11)----10----------9------|
|--(15)---(12b14)-----(11b13)-|
|-----------------------------|
|-----------------------------|
|-----------------------------|

|-------------------------------|-----------------------------|
|--(9)------8------------11-----|--(11)----10----------9------|
|--(13)----(10b12)------(13b15)-|--(15)---(12b14)-----(11b13)-|
|-------------------------------|-----------------------------|
|-------------------------------|-----------------------------|
|-------------------------------|-----------------------------|

|  |-----------------------||
|  |--(9)------8-----------||
|15|--(13)----(10b12)------||
|/ |-----------------------||
|16|-----------------------||
|  |-----------------------||



================================================================================
Part 15: Guitars 1 & 2                                    [ Time 07:38 - 08:17 ]
================================================================================


--------------
Guitars 1 & 2:
--------------


||----------------------------------------------------------------|
||----------------------------------------------------------------|
||----------------------------------------------------------------|
||--6-------------(6)--------------6-------------(6)--------------|
||--4--4-4-4-4-4-4-5p4-4-4-4-4-4-4-4--4-4-4-4-4-4-5p4-4-4-4-4-4-4-|
||----------------------------------------------------------------|
       ...........     ...........    ...........     ...........

|----------------------------------------------------------| |
|----------------------------------------------------------| |
|----------------------------------------------------------|*|
|--6-------------(6)------------------5 p4-----4-----------|*| x 2
|--4--4-4-4-4-4-4-5p4-4-4-4-4-4-4--0--------0-----7--5--4--| |
|----------------------------------------------------------| |
      ...........     ..............       ...    .......

||----------------------------------------------------------------|
||----------------------------------------------------------------|
||----------------------------------------------------------------|
||--7-------------(7)--------------7-------------(7)--------------|
||--5--5-5-5-5-5-5-6p5-5-5-5-5-5-5-5--5-5-5-5-5-5-6p5-5-5-5-5-5-5-|
||----------------------------------------------------------------|
       ...........     ...........    ...........     ...........

|----------------------------------------------------------| |
|----------------------------------------------------------| |
|----------------------------------------------------------|*|
|--7-------------(7)------------------5 p4-----4-----------|*| x 2
|--5--5-5-5-5-5-5-6p5-5-5-5-5-5-5--0--------0-----7--5--4--| |
|----------------------------------------------------------| |
      ...........     ..............       ...    .......

||----------------------------------------------------------------|
||----------------------------------------------------------------|
||----------------------------------------------------------------|
||--6-------------(6)--------------6-------------(6)--------------|
||--4--4-4-4-4-4-4-5p4-4-4-4-4-4-4-4--4-4-4-4-4-4-5p4-4-4-4-4-4-4-|
||----------------------------------------------------------------|
       ...........     ...........    ...........     ...........

| |---------------------------------||
| |---------------------------------||
|2|---------------------------------||
|/|--6-------------(6)--------------||
|4|--4--4-4-4-4-4-4-5p4-4-4-4-4-4-4-||
| |---------------------------------||
        ...........     ...........

                             |___3___|   |___3___|
| |--------------------------------------------------|----------------------|
| |--------------------------------------------------|----------------------|
|4|--------------------------------------------------|--6----6----6----6----|
|/|-----5 p4-----4-----------------------7---6---4---|--6----6----6----6----|
|4|--0--------0-----7--5--4--5---4---2---5---4---2---|--4----4----4----4----|
| |--------------------------3---2---0---------------|----------------------|
    ...      ...    ..............................

|-------------------|
|-------------------|
|--6----------------|
|--6----------------|
|--4----------------|
|-------------------|

|----------------------------------------------------------------|
|----------------------------------------------------------------|
|----------------------------------------------------------------|
|--6-------------(6)--------------6-------------(6)--------------|
|--4--4-4-4-4-4-4-5p4-4-4-4-4-4-4-4--4-4-4-4-4-4-5p4-4-4-4-4-4-4-|
|----------------------------------------------------------------|
      ...........     ...........    ...........     ...........

| |---------------------------------||
| |---------------------------------||
|2|---------------------------------||
|/|--6-------------(6)--------------||
|4|--4--4-4-4-4-4-4-5p4-4-4-4-4-4-4-||
| |---------------------------------||
        ...........     ...........

                             |___3___|   |___3___|
| |--------------------------------------------------|----------------------||
| |--------------------------------------------------|---------           --||
|4|--------------------------------------------------|---------           --||
|/|-----5 p4-----4-----------------------7---6---4---|--6-- \--           --||
|4|--0--------0-----7--5--4--5---4---2---5---4---2---|--4-- \--           --||
| |--------------------------3---2---0---------------|----------------------||
    ...      ...    ..............................



Guitar 2 replaces the final 2 bars with the following:


                              |___3___|   |___3___|
| |---------------------------------------------------|--------------------||
| |---------------------------------------------------|-----------       --||
|4|---------------------------------------------------|-----------       --||
|/|-----9 p7-----9p7----------------------7---6---4---|--6--------       --||
|4|--0--------0-----10--9--7--5---4---2---5---4---2---|--4---4\ --       --||
| |---------------------------3---2---0---------------|------4\ -----------||
    ...      ...    ...............................



================================================================================
End
================================================================================

Tab summary:        Part 1
                    Part 2
                    Part 3
                    Part 4
                    Part 5
                    Part 6
                    Part 7
                    Part 8
                    Part 9
                    Guitar Solo
                    Part 10
                    Part 11
                    Part 12
                    Part 13
                    Part 14
                    Part 15

                    END
comments
We did not receive enough feedback on this tab! Please rate:
print report bad tab
1 2 3 4 5
1 comment total.
0 reply
SilentKilla78 wrote on December 14 2013, 11:32 pm

Very well set out, great job! :)

I want to post or [tab]
guest
You may want to rate the tab now too:
select rating
Please do not post tabs as comments. Select "correction" instead!